Oops, an error
Loading. Please wait.

Dark Desire Bass Tab

ver1
ver1

Whole song

Interactive

More versions @911Tabs.com
199 views 1 this week
no commentswrite comment
1 2 3 4 5
please rate
add to favorites launch autoscroll
font size
0
reset
Autoscroll
+/-
esc
set tempo
stop
Contributor
Difficulty
intermediate
WARNING: You are trying to view
                                    content from Ultimate-Guitar.com
                                    in an unauthorized application,
                                    which is prohibited.

                                    Please use an official Ultimate
                                    Guitar Tabs application for iPhone,
                                    iPad or Android to access legitimate
                                    chords, guitar, bass, and drum tabs
                                    from Ultimate-Guitar.com database.

                                    Type "ultimate guitar tabs" in Apple
                                    App Store's or Android Market's
                                    search to find the application.
-------------------------------------------------------------------------------
			     Dark Desire - Loudness
-------------------------------------------------------------------------------

Tabbed By : Isaias Garcia (TexasFury)

Tuning: Standard



                                                            >            
     W                   H        Q    E.  S    E  E  E  E  E  E  E  E   
G||-------------------|----------------------|--------------------------|
D||-------------------|----------------------|--------------------------|
A||-------------------|----------------------|--------------------------|
E||-------------------|--------------------0-|--L--0--0--0--0--0--0--0--|


  >           >                                                                       
  E  E  E  E  E  E    Q        E.  S E  E  E  E  E  E     E.  S E  E  E  E  S S S  S  
----------------------------|--------------------------|-----------------------------|
----------------------------|--------------------------|-----------------------------|
----------------------------|--------------------------|--------------7-----7-7-5h-7-|
--0--0--0--0--0--0--/12\----|--0---0-0--0--0--0--0--0--|--0---0-0--0-----0-----------|


  E.  S E  E  E  E  E  E     E.  S E  E  E  E  S S S  S    E.  S E  E  E  E  S S S S  
--------------------------|-----------------------------|----------------------------|
--------------------------|-----------------------------|----------------------------|
--------------------------|--------------7-----7-7-5h-7-|----------------------------|
--0---0-0--0--0--0--0--0--|--0---0-0--0-----0-----------|--0---0-0--0--0--0--0-0-0-0-|


  E.  S E  E  E  E  S S S S    E.  S E  E  E  E  S S S S    E  E  E  E     E  E  E.  S E  E  E.  S  
----------------------------|----------------------------|--------------|--------------------------|
----------------------------|----------------------------|--------------|--------------------------|
----------------------------|----------------------------|-----7--7--2--|--L--3--5---2-L--3--5---2-|
--0---0-0--0--0--0--0-0-0-0-|--0---0-0--0--0--0--0-0-0-0-|--0-----------|--------------------------|


  E  E  H        S S S S    E  S S E  S S E  S S E  S S    E  S S E  S S E  S S E  S S  
-------------------------|------------------------------|------------------------------|
-------------------------|------------------------------|------------------------------|
--L--3--5----------------|------------------------------|------------------------------|
-----------------5-3-2-0-|--L--0-0-0--0-0-0--0-0-0--0-0-|--0--0-0-0--0-0-0--0-0-0--0-0-|


  E  E  E  E  E  E  E  E     E  E  E  E  E  E  S  S E     E.  S E  E  E  E  E  E   
--------------------------|----------------------------|--------------------------|
--------------------------|----------------------------|--------------------------|
--------------7--7--7--7--|-------------------------5--|--------------------------|
--0--0--0--0--------------|--0--0--0--0--0--0--5h-7----|--0---0-0--0--0--0--0--0--|


  E.  S E  E  E  E  S  S E     E  E  E  E  E  E  E  E     E  E  E  E  E  E  S  S E   
----------------------------|--------------------------|----------------------------|
----------------------------|--------------------------|----------------------------|
--------------------7p-5----|--------------7--7--7--7--|-------------------------5--|
--0---0-0--0--0--0-------7--|--0--0--0--0--------------|--0--0--0--0--0--0--5h-7----|


  E.  S E  E  E  E  E  E     E.  S E  E  E  E  E  E     E  E  E  E  E  E  E  E   
--------------------------|--------------------------|--------------------------|
--------------------------|--------------------------|--------------------------|
--------------------------|--------------------------|--3--3--3--3--3--3--3--3--|
--0---0-0--0--0--0--0--0--|--0---0-0--0--0--0--0--0--|--------------------------|


  E  E  E  E  E  E  E  E     E  E  E  E  E  E  Q       E  E  E  E  E  E  Q     
--------------------------|-------------------------|-------------------------|
--------------------------|-------------------------|-------------------------|
--3--3--3--3--3--3--3--3--|-----------------5--7----|-----------------5--7----|
--------------------------|--0--0--0--0--0----------|--0--0--0--0--0----------|


  E  E  E  E  E  E  E  E     E  E  E  E  E  E  E  E     E  E  E  E  E  E  Q     
--------------------------|--------------------------|-------------------------|
--------------------------|--------------------------|-------------------------|
--3--3--3--3--3--3--3--3--|--3--3--3--3--3--3--3--3--|-----------------5--7----|
--------------------------|--------------------------|--0--0--0--0--0----------|


  E  E  E  E  E  E  Q       E  E  E  E  E  E  E  E     Q    E  E  E  E  E  E   
-------------------------|--------------------------|-------------------------|
-------------------------|--------------------------|-------------------------|
-----------------5--7----|-----5-----------------2--|-------------------------|
--0--0--0--0--0----------|--0--------2--3--2--3-----|--5----5--5--5--5--5--5--|


  E  E  E  E  E  E  E  E     Q    E  E  E  E  E  E     E  E  E  E  E  E  E  E   
--------------------------|-------------------------|--------------------------|
--------------------------|-------------------------|--------------------------|
-----5--------------------|--5----5--5--5--5--5--5--|-----5-----------------2--|
--0--------2--3--2--3--5--|-------------------------|--0--------2--3--2--3-----|


  Q    E  E  E  E  E  E     E  E  E  E  E  E  E  E     Q    E  E  E  E  S E.   
-------------------------|--------------------------|-------------------------|
-------------------------|--------------------------|-------------------------|
-------------------------|-----5--------------------|--5----5--5--5--5--5-6---|
--5----5--5--5--5--5--5--|--0--------2--3--2--3--5--|-------------------------|


  E.  S E  E  E  E  S S S S    E.  S E  E  E  E  S S S S    E.  S E  E  E  E  S S S S  
----------------------------|----------------------------|----------------------------|
----------------------------|----------------------------|----------------------------|
----------------------------|----------------------------|----------------------------|
--0---0-0--0--0--0--0-0-0-0-|--0---0-0--0--0--0--0-0-0-0-|--0---0-0--0--0--0--0-0-0-0-|


  E.  S E  E  E  E  S S S S    E  E  E  E  E  E  E  E     E  E  E  E  E  E  S  S E   
----------------------------|--------------------------|----------------------------|
----------------------------|--------------------------|----------------------------|
----------------------------|--------------7--7--7--7--|-------------------------5--|
--0---0-0--0--0--0--0-0-0-0-|--0--0--0--0--------------|--0--0--0--0--0--0--5h-7----|


  E.  S E  E  E  E  E  E     E.  S E  E  E  E  S  S E     E  E  E  E  E  E  E  E   
--------------------------|----------------------------|--------------------------|
--------------------------|----------------------------|--------------------------|
--------------------------|-------------------------5--|--------------7--7--7--7--|
--0---0-0--0--0--0--0--0--|--0---0-0--0--0--0--5h-7----|--0--0--0--0--------------|


  E  E  E  E  E  E  S  S E     E.  S E  E  E  E  E  E     E.  S E  E  E  E  S  S E   
----------------------------|--------------------------|----------------------------|
----------------------------|--------------------------|----------------------------|
-------------------------5--|--------------------------|-------------------------5--|
--0--0--0--0--0--0--5h-7----|--0---0-0--0--0--0--0--0--|--0---0-0--0--0--0--5h-7----|


  E  E  E  E  E  E  E  E     E  E  E  E  E  E  E  E     E  E  E  E  E  E  Q     
--------------------------|--------------------------|-------------------------|
--------------------------|--------------------------|-------------------------|
--3--3--3--3--3--3--3--3--|--3--3--3--3--3--3--3--3--|-----------------5--7----|
--------------------------|--------------------------|--0--0--0--0--0----------|


  E  E  E  E  E  E  Q       E  E  E  E  E  E  E  E     E  E  E  E  E  E  E  E   
-------------------------|--------------------------|--------------------------|
-------------------------|--------------------------|--------------------------|
-----------------5--7----|--3--3--3--3--3--3--3--3--|--3--3--3--3--3--3--3--3--|
--0--0--0--0--0----------|--------------------------|--------------------------|


  E  E  E  E  E  E  Q       E  E  E  E  E  E  Q       E  E  E  E  E  E  E  E   
-------------------------|-------------------------|--------------------------|
-------------------------|-------------------------|--------------------------|
-----------------5--7----|-----------------5--7----|-----5-----------------2--|
--0--0--0--0--0----------|--0--0--0--0--0----------|--0--------2--3--2--3-----|


  Q    E  E  E  E  E  E     E  E  E  E  E  E  E  E     Q    E  E  E  E  E  E   
-------------------------|--------------------------|-------------------------|
-------------------------|--------------------------|-------------------------|
-------------------------|-----5--------------------|--5----5--5--5--5--5--5--|
--5----5--5--5--5--5--5--|--0--------2--3--2--3--5--|-------------------------|


  E  E  E  E  E  E  E  E     Q    E  E  E  E  E  E     E  E  E  E  E  E  E  E   
--------------------------|-------------------------|--------------------------|
--------------------------|-------------------------|--------------------------|
-----5-----------------2--|-------------------------|-----5--------------------|
--0--------2--3--2--3-----|--5----5--5--5--5--5--5--|--0--------2--3--2--3--5--|


  Q    E  E  E  E  Q       Q    Q    Q    Q       Q    Q    Q    Q       Q    Q    Q    Q     
------------------------|----------------------|----------------------|----------------------|
------------------------|----------------------|----------------------|----------------------|
--5----5--5--5--5--5----|-------7---------7----|-------7---------7----|-------3---------3----|
------------------------|----------------------|----------------------|----------------------|


  Q    Q    Q    Q       Q    Q    Q    Q       Q    Q    Q    Q       Q    H.            
----------------------|----------------------|----------------------|--------------------|
----------------------|----------------------|----------------------|--------------------|
-------3--------------|----------------------|----------------------|--------------------|
-----------------3----|-------0---------0----|-------0---------0----|-------8------------|


  H.           Q       Q    E  E  E  E  E  E     Q    E  E  E  E  S  S E   
--------------------|-------------------------|---------------------------|
--------------------|-------------------------|------------------------7--|
--------------------|--5----5--5--5--5--5--5--|--5----5--5--5--5--7h-9----|
--L------------8----|-------------------------|---------------------------|


  E  E  E  E  E  E  S  S S  S    E  E  E  E  E  E  S  S E     Q    E  E  E  E  E  E   
------------------------------|----------------------------|-------------------------|
------------------------------|----------------------------|-------------------------|
-------------------------5h-7-|-------------------------5--|--5----5--5--5--5--5--5--|
--0--0--2--2--3--3--5h-7------|--0--0--2--2--3--3--5h-7----|-------------------------|


  Q    E  E  E  E  S  S E     E  E  E  E  E  E  S  S S  S    E  E  E  E  E  E  S  S E   
---------------------------|------------------------------|----------------------------|
------------------------7--|------------------------------|----------------------------|
--5----5--5--5--5--7h-9----|-------------------------5h-7-|-------------------------5--|
---------------------------|--0--0--2--2--3--3--5h-7------|--0--0--2--2--3--3--5h-7----|


  Q    Q    Q    E  E     E  E  E  E  E  E  E  E     Q    Q    Q    Q       E  E  E  E  E  E  Q     
-----------------------|--------------------------|----------------------|-------------------------|
-----------------------|--------------------------|----------------------|-------------------------|
--3----0----2----------|--------------------7--7--|--3----0----2---------|-----------2-------------|
-----------------3--5--|--L--2--L--3--L--0--------|-----------------3----|--0--2--3--------0--L----|


  E  E  E  E  E  E  E  E     E  E  E  E  E  E  E  E     E  S S E  S S E  E  Q     
--------------------------|--------------------------|---------------------------|
--------------------------|--------------------------|---------------------------|
--3--3--3--3--3--3--3--3--|--3--3--3--3--3--3--3--3--|-------------------5--7----|
--------------------------|--------------------------|--0--0-0-0--0-0-0----------|


  E  S S E  S S E  E  Q       E  E  E  E  E  E  E  E     E  E  E  E  E  E  E  E   
---------------------------|--------------------------|--------------------------|
---------------------------|--------------------------|--------------------------|
-------------------5--7----|--3--3--3--3--3--3--3--3--|--3--3--3--3--3--3--3--3--|
--0--0-0-0--0-0-0----------|--------------------------|--------------------------|


  E  S S E  S S E  E  Q       E  S S E  S S E  E  Q       E  E  E  E  E  E  E  E   
---------------------------|---------------------------|--------------------------|
---------------------------|---------------------------|--------------------------|
-------------------5--7----|-------------------5--7----|-----5-----------------2--|
--0--0-0-0--0-0-0----------|--0--0-0-0--0-0-0----------|--0--------2--3--2--3-----|


  Q    E  E  E  E  E  E     E  E  E  E  E  E  E  E     Q    E  E  E  E  E  E   
-------------------------|--------------------------|-------------------------|
-------------------------|--------------------------|-------------------------|
-------------------------|-----5--------------------|--5----5--5--5--5--5--5--|
--5----5--5--5--5--5--5--|--0--------2--3--2--3--5--|-------------------------|


  E  E  E  E  E  E  E  E     Q    E  E  E  E  E  E     E  E  E  E  E  E  E  E   
--------------------------|-------------------------|--------------------------|
--------------------------|-------------------------|--------------------------|
-----5-----------------2--|-------------------------|-----5--------------------|
--0--------2--3--2--3-----|--5----5--5--5--5--5--5--|--0--------2--3--2--3--5--|


  Q    E  E  E  E  S E.     E.  S E  E  E  E  S S S S    E.  S E  E  E  E  S S S S  
-------------------------|----------------------------|----------------------------|
-------------------------|----------------------------|----------------------------|
--5----5--5--5--5--5-6---|----------------------------|----------------------------|
-------------------------|--0---0-0--0--0--0--0-0-0-0-|--0---0-0--0--0--0--0-0-0-0-|


  E.  S E  E  E  E  S S S S    E.  S E  E  E  S S E  S S    E.  S E  E  E  E  S S S S  
----------------------------|----------------------------|----------------------------|
----------------------------|----------------------------|----------------------------|
----------------------------|--------------7--5-7-7--5-7-|----------------------------|
--0---0-0--0--0--0--0-0-0-0-|--0---0-0--0----------------|--0---0-0--0--0--0--0-0-0-0-|


  E.  S E  E  E  E  S S S S    E.  S E  E  E  E  S S S S    E  E  E  E  S S S S S  S S  S  
----------------------------|----------------------------|--------------------------------|
----------------------------|----------------------------|--------------------------------|
----------------------------|----------------------------|--7--7--7--7--7-5----------5h-7-|
--0---0-0--0--0--0--0-0-0-0-|--0---0-0--0--0--0--0-0-0-0-|------------------8-7-5h-7------|


  Q    Q    H           H        S S S S S S S S  
---------------------|-----------2-0-------------|
---------------------|---------------2-0---------|
---------------------|-------------------2-0-----|
--0------------------|-----------------------3-0-|


  Q                                        Q    H          
---------------------------------------------------------||
---------------------------------------------------------||
---------------------------------------------------------||
--L------------------------------------------------------||




Duration Legend
---------------
W - whole
H - half
Q - quarter
E - 8th
S - 16th
T - 32nd
X - 64th
. - note dotted
|-n-|  - n-tuplets


Tablature Legend
----------------
L - tied note
x - dead note
g - grace note
(n) - ghost note
> - accentuded note
NH - natural harmonic
AH - artificial harmonic
TH - tapped harmonic
SH - semi harmonic
PH - pitch harmonic
h - hammer on
p - pull off
b - bend
br - bendRelease
pb - preBend
pbr - preBendRelease
brb - bendReleaseBend
\n/ - tremolo bar dip
\n - tremolo bar dive
-/n - tremolo bar Release up
/n\ - tremolo bar inverted dip
/n - tremolo bar return
-\n - tremolo bar Release down
S - shift slide
s - legato slide
/ -  slide into from below or out of upwards
\ -  slide into from above or out of downwards
~ - vibrato
W - wide vibrato
tr - trill
TP - tremolo picking
T - tapping
S - slap
P - pop
< - fade in
^ - brush up
v - brush down
comments
We did not receive enough feedback on this tab! Please rate:
print report bad tab
1 2 3 4 5
I want to post or [tab]
guest
You may want to rate the tab now too:
select rating
Please do not post tabs as comments. Select "correction" instead!