Oops, an error
Loading. Please wait.

Dark Desire Tab

814 views 1 this week
no commentswrite comment
1 2 3 4 5
please rate
add to favorites launch autoscroll
font size
0
reset
Autoscroll
+/-
esc
set tempo
stop
Contributor
Difficulty
Tabbers playing skills
advanced
advanced ++
WARNING: You are trying to view
                                    content from Ultimate-Guitar.com
                                    in an unauthorized application,
                                    which is prohibited.

                                    Please use an official Ultimate
                                    Guitar Tabs application for iPhone,
                                    iPad or Android to access legitimate
                                    chords, guitar, bass, and drum tabs
                                    from Ultimate-Guitar.com database.

                                    Type "ultimate guitar tabs" in Apple
                                    App Store's or Android Market's
                                    search to find the application.
-------------------------------------------------------------------------------
                             DARK DESIRE - Loudness
-------------------------------------------------------------------------------
Tabbed by: Isaias Garcia (TexasFury)

Tuning: Standard


Rhythm

       E.  S E  E    E  E  E  E     S  S  S S S S  S  S S  S S  S S  S S S    W                 
E||--5g7---5----3--3g5--3--0--3--|-----------------------------------------|-------------------|
B||--5g7---5----3--3g5--3--0--3--|--5p-3p-0---0----------------------------|-------------------|
G||------------------------------|----------3---3p-2p-0-2p-0---------------|-------------------|
D||------------------------------|---------------------------2p-0----------|-------------------|
A||------------------------------|--------------------------------2p-0---2-|--L----------------|
E||------------------------------|-------------------------------------3-0-|--L----------------|


                         >                                               >                     
  H.            Q        E.  S E  E  H           E.  S E  E  H           E.  S E  E  H         
----------------------|-----------------------|-----------------------|-----------------------|
----------------------|-----------------------|-----------------------|-----------------------|
----------------------|--9---8----7--L--------|--7---6----5--L--------|--9---8----7--L--------|
----------------------|--9---9----7--L--------|--7---7----5--L--------|--9---9----7--L--------|
--L-------------------|--7--------5--L--------|--5--------3--L--------|--7--------5--L--------|
--L------------12\----|-----------------------|-----------------------|-----------------------|


                          >                                               >                     
  E.  S E  E  H           E.  S E  E  H           E.  S E  E  H           E.  S E  E  H         
-----------------------|-----------------------|-----------------------|-----------------------|
-----------------------|-----------------------|-----------------------|-----------------------|
--7---6----5--L--------|--9---8----7--L--------|--7---6----5--L--------|--9---8----7--L--------|
--7---7----5--L--------|--9---9----7--L--------|--7---7----5--L--------|--9---9----7--L--------|
--5--------3--L--------|--7--------5--L--------|--5--------3--L--------|--7--------5--L--------|
-----------------------|-----------------------|-----------------------|-----------------------|


  E.  S E  E     E  E  E.  S E  E  E.  S    E  E  H        S S S S    W                 
--------------|--------------------------|-------------------------|-------------------|
--------------|--------------------------|-------------------------|-------------------|
--7---6----4--|--4--5--7---4-4--5--7---4-|--L--5--7----------------|-------------------|
--7---7----4--|--L--5--7---4-L--5--7---4-|--L--5--7--------------2-|--L----------------|
--5--------2--|--L--3--5---2-L--3--5---2-|--L--3--5--------------2-|--L----------------|
--------------|--------------------------|-----------------5-3-2-0-|--L----------------|


                                                                  >                     
  H.             Q        W                   W                   E.  S E  E  H         
-----------------------|-------------------|-------------------|-----------------------|
-----------------------|-------------------|-------------------|-----------------------|
-----------------------|-------------------|-------------------|--9---8----7--L--------|
--L--------------------|--9----------------|--L----------------|--9---9----7--L--------|
--L--------------------|--7----------------|--L----------------|--7--------5--L--------|
--L------------/19\----|-------------------|-------------------|-----------------------|


                                                                  >                     
  E.  S E  E  H           W                   W                   E.  S E  E  H         
-----------------------|-------------------|-------------------|-----------------------|
-----------------------|-------------------|-------------------|-----------------------|
--7---6----5--L--------|-------------------|-------------------|--9---8----7--L--------|
--7---7----5--L--------|--9----------------|--L----------------|--9---9----7--L--------|
--5--------3--L--------|--7----------------|--L----------------|--7--------5--L--------|
-----------------------|-------------------|-------------------|-----------------------|


  E.  S E  E  H           Q    E  E  Q    Q       E  E  Q    Q    Q       E  E  E  E  E  E  Q     
-----------------------|-----------------------|-----------------------|-------------------------|
-----------------------|-----------------------|-----------------------|-------------------------|
--7---6----5--L--------|-----------------------|-----------------------|-------------------------|
--7---7----5--L--------|--5----L--9--L----2----|--L--5--L----9----2----|--4--5--4--------7--9----|
--5--------3--L--------|--3----L--7--L----0----|--L--3--L----7----0----|--5--5--5--------5--7----|
-----------------------|-----------------------|-----------------------|-----------0--L----------|


  E  E  E  E  E  E  Q       Q    E  E  Q    Q       E  E  Q    Q    Q       E  E  E  E  E  E  Q     
-------------------------|-----------------------|-----------------------|-------------------------|
-------------------------|-----------------------|-----------------------|-------------------------|
-------------------------|-----------------------|-----------------------|-------------------------|
--4--5--4--------7--9----|--5----L--9--L----2----|--L--5--L----9----2----|--4--5--4--------7--9----|
--5--5--5--------5--7----|--3----L--7--L----0----|--L--3--L----7----0----|--5--5--5--------5--7----|
-----------0--L----------|-----------------------|-----------------------|-----------0--L----------|


                                                            PM PM PM PM       
  E  E  E  E  E  E  Q       E  E  E  E  E  E  E  E     Q    E  E  E  E  Q     
-------------------------|--------------------------|------------------------|
-------------------------|--------------------------|------------------------|
-------------------------|-----7-----------------4--|------------------------|
--4--5--4--------7--9----|-----7-----------------4--|--2----------------2----|
--5--5--5--------5--7----|-----5-----4--5--4--5-----|--0----0--0--0--0--0----|
-----------0--L----------|--0--------2--3--2--3-----|------------------------|


                                  PM PM PM PM                                  
  E  E  E  E  E  E  E  E     Q    E  E  E  E  Q       E  E  E  E  E  E  E  E   
--------------------------|------------------------|--------------------------|
--------------------------|------------------------|--------------------------|
-----7-----------------2--|------------------------|-----7-----------------4--|
-----7-----------------2--|--7----------------7----|-----7-----------------4--|
-----5-----4--5--4--5-----|--5----5--5--5--5--5----|-----5-----4--5--4--5-----|
--0--------2--3--2--3-----|------------------------|--0--------2--3--2--3-----|


       PM PM PM PM                                         PM PM PM PM PM      
  Q    E  E  E  E  Q       E  E  E  E  E  E  E  E     Q    E  E  E  E  S  E.   
------------------------|--------------------------|--------------------------|
------------------------|--------------------------|--------------------------|
------------------------|-----7-----------------2--|--------------------------|
--2----------------2----|-----7-----------------2--|--7-------------------8---|
--0----0--0--0--0--0----|-----5-----4--5--4--5-----|--5----5--5--5--5--5--6---|
------------------------|--0--------2--3--2--3-----|--------------------------|


  >                                                                                              
  E.  S E  E  H           E.  S E  E  H           E.  S E  E  H           E.  S E  E  Q    Q     
-----------------------|-----------------------|-----------------------|------------------------|
-----------------------|-----------------------|-----------------------|------------------------|
--9---8----7--L--------|--7---6----5--L--------|--9---8-L--7--L--------|--7---6----5--L---------|
--9---9----7--L--------|--7---7----5--L--------|--9---9-L--7--L--------|--7---7----5--L---------|
--7--------5--L--------|--5--------3--L--------|--7--------5--L--------|--5--------3--L---------|
-----------------------|-----------------------|-----------------------|-------------------3----|


                                          >                                                 
  W                   W                   E.  S E  E  H           E.  S E  E  Q      Q      
-------------------|-------------------|-----------------------|---------------------------|
-------------------|-------------------|-----------------------|---------------------------|
-------------------|-------------------|--9---8----7--L--------|--7---6----5--L------------|
--9----------------|--L----------------|--9---9----7--L--------|--7---7----5--L------------|
--7----------------|--L----------------|--7--------5--L--------|--5--------3--L------------|
-------------------|-------------------|-----------------------|-------------------/17\----|


                       pick scrape                                                        
                                            >                                             
  W                    W                    E.  S E  E  H           E.  S E  E  H         
-------------------|---------------------|-----------------------|-----------------------|
-------------------|---------------------|-----------------------|-----------------------|
-------------------|---x\----------------|--9---8----7--L--------|--7---6----5--L--------|
--9----------------|---x\----------------|--9---9----7--L--------|--7---7----5--L--------|
--7----------------|---------------------|--7--------5--L--------|--5--------3--L--------|
-------------------|---------------------|-----------------------|-----------------------|


  Q    E  E  Q    Q       E  E  Q    Q    Q       E  E  E  E  E  E  Q       E  E  E  E  E  E  Q     
-----------------------|-----------------------|-------------------------|-------------------------|
-----------------------|-----------------------|-------------------------|-------------------------|
-----------------------|-----------------------|-------------------------|-------------------------|
--5----L--9--L----2----|--L--5--L----9----2----|--4--5--4--------7--9----|--4--5--4--------7--9----|
--3----L--7--L----0----|--L--3--L----7----0----|--5--5--5--------5--7----|--5--5--5--------5--7----|
-----------------------|-----------------------|-----------0--L----------|-----------0--L----------|


  Q    E  E  Q    Q       E  E  Q    Q    Q       E  E  E  E  E  E  Q       E  E  E  E  E  E  Q     
-----------------------|-----------------------|-------------------------|-------------------------|
-----------------------|-----------------------|-------------------------|-------------------------|
-----------------------|-----------------------|-------------------------|-------------------------|
--5----L--9--L----2----|--L--5--L----9----2----|--4--5--4--------7--9----|--4--5--4--------7--9----|
--3----L--7--L----0----|--L--3--L----7----0----|--5--5--5--------5--7----|--5--5--5--------5--7----|
-----------------------|-----------------------|-----------0--L----------|-----------0--L----------|


                                  PM PM PM PM                                  
  E  E  E  E  E  E  E  E     Q    E  E  E  E  Q       E  E  E  E  E  E  E  E   
--------------------------|------------------------|--------------------------|
--------------------------|------------------------|--------------------------|
-----7-----------------4--|------------------------|-----7-----------------2--|
-----7-----------------4--|--2----------------2----|-----7-----------------2--|
-----5-----4--5--4--5-----|--0----0--0--0--0--0----|-----5-----4--5--4--5-----|
--0--------2--3--2--3-----|------------------------|--0--------2--3--2--3-----|


       PM PM PM PM                                         PM PM PM PM       
  Q    E  E  E  E  Q       E  E  E  E  E  E  E  E     Q    E  E  E  E  Q     
------------------------|--------------------------|------------------------|
------------------------|--------------------------|------------------------|
------------------------|-----7-----------------4--|------------------------|
--7----------------7----|-----7-----------------4--|--2----------------2----|
--5----5--5--5--5--5----|-----5-----4--5--4--5-----|--0----0--0--0--0--0----|
------------------------|--0--------2--3--2--3-----|------------------------|


                                  PM PM PM PM                                               
  E  E  E  E  E  E  E  E     Q    E  E  E  E  Q       W                   W                 
--------------------------|------------------------|-------------------|-------------------|
--------------------------|------------------------|-------------------|-------------------|
-----7-----------------2--|------------------------|-------------------|-------------------|
-----7-----------------2--|--7---------------------|-------------------|-------------------|
-----5-----4--5--4--5-----|--5----5--5--5--5--5----|-------------------|-------------------|
--0--------2--3--2--3-----|------------------------|-------------------|-------------------|


  W                   W                   W                   W                   W                 
-------------------|-------------------|-------------------|-------------------|-------------------|
-------------------|-------------------|-------------------|-------------------|-------------------|
-------------------|-------------------|-------------------|-------------------|-------------------|
-------------------|-------------------|-------------------|-------------------|-------------------|
-------------------|-------------------|-------------------|-------------------|-------------------|
-------------------|-------------------|-------------------|-------------------|-------------------|


                           PM PM PM PM              PM PM PM PM                     PM PM       
  W                   Q    E  E  E  E  Q       Q    E  E  E  E  Q       E  E  E  E  E  E  Q     
-------------------|------------------------|------------------------|-------------------------|
-------------------|------------------------|------------------------|-------------------------|
-------------------|--7----------------5----|------------------------|-------------------------|
-------------------|--7----------------5----|--7----------------7----|-----9-----9--------9----|
-------------------|--5----5--5--5--5--5----|--5----5--5--5--5--5----|-----7-----7--7--7--7----|
-------------------|------------------------|------------------------|--0----------------------|


              PM PM              PM PM PM PM              PM PM PM PM       
  E  E  E  E  E  E  Q       Q    E  E  E  E  Q       Q    E  E  E  E  Q     
-------------------------|------------------------|------------------------|
-------------------------|------------------------|------------------------|
-------------------------|--7----------------5----|------------------------|
-----9-----9--------9----|--7----------------5----|--7----------------7----|
-----7-----7--7--7--7----|--5----5--5--5--5--5----|--5----5--5--5--5--5----|
--0----------------------|------------------------|------------------------|


  PM          PM PM                     PM PM                               
  E  E  E  E  E  E  Q       E  E  E  E  E  E  Q       Q    Q    Q    E  E   
-------------------------|-------------------------|-----------------------|
-------------------------|-------------------------|-----------------------|
-------------------------|-------------------------|-----------------------|
-----9-----9--------9----|-----9-----9--------9----|-----------------------|
-----7-----7--7--7--7----|-----7-----7--7--7--7----|--3---------2----------|
--0----------------------|--0----------------------|-------5---------3--5--|


  E  E  E  E  E  E  Q       Q    Q    Q    Q       E  E  E  E  E  E  Q       Q    E  E  Q    Q     
-------------------------|----------------------|-------------------------|-----------------------|
-------------------------|----------------------|-------------------------|-----------------------|
-------------------------|----------------------|-------------------------|-----------------------|
--------------------9----|----------------------|-----------------9--L----|--5----L--9--L----2----|
--------------------7----|--3---------2---------|-----------2-----7--L----|--3----L--7--L----0----|
--L--2--L--3--L--0-------|-------5---------3----|--0--2--3----------------|-----------------------|


  E  E  Q    Q    Q       E  E  E  E  E  E  Q       E  E  E  E  E  E  Q       Q    E  E  Q    Q     
-----------------------|-------------------------|-------------------------|-----------------------|
-----------------------|-------------------------|-------------------------|-----------------------|
-----------------------|-------------------------|-------------------------|-----------------------|
--L--5--L----9----2----|--4--5--4--------7--9----|--4--5--4--------7--9----|--5----L--9--L----2----|
--L--3--L----7----0----|--5--5--5--------5--7----|--5--5--5--------5--7----|--3----L--7--L----0----|
-----------------------|-----------0--L----------|-----------0--L----------|-----------------------|


  E  E  Q    Q    Q       E  E  E  E  E  E  Q       E  E  E  E  E  E  Q     
-----------------------|-------------------------|-------------------------|
-----------------------|-------------------------|-------------------------|
-----------------------|-------------------------|-------------------------|
--L--5--L----9----2----|--4--5--4--------7--9----|--4--5--4--------7--9----|
--L--3--L----7----0----|--5--5--5--------5--7----|--5--5--5--------5--7----|
-----------------------|-----------0--L----------|-----------0--L----------|


                                  PM PM PM PM                                  
  E  E  E  E  E  E  E  E     Q    E  E  E  E  Q       E  E  E  E  E  E  E  E   
--------------------------|------------------------|--------------------------|
--------------------------|------------------------|--------------------------|
-----7-----------------4--|------------------------|-----7-----------------2--|
-----7-----------------4--|--2----------------2----|-----7-----------------2--|
-----5-----4--5--4--5-----|--0----0--0--0--0--0----|-----5-----4--5--4--5-----|
--0--------2--3--2--3-----|------------------------|--0--------2--3--2--3-----|


       PM PM PM PM                                         PM PM PM PM       
  Q    E  E  E  E  Q       E  E  E  E  E  E  E  E     Q    E  E  E  E  Q     
------------------------|--------------------------|------------------------|
------------------------|--------------------------|------------------------|
------------------------|-----7-----------------4--|------------------------|
--7----------------7----|-----7-----------------4--|--2----------------2----|
--5----5--5--5--5--5----|-----5-----4--5--4--5-----|--0----0--0--0--0--0----|
------------------------|--0--------2--3--2--3-----|------------------------|


                                  PM PM PM PM PM        >                     
  E  E  E  E  E  E  E  E     Q    E  E  E  E  S  E.     E.  S E  E  H         
--------------------------|--------------------------|-----------------------|
--------------------------|--------------------------|-----------------------|
-----7-----------------2--|--------------------------|--9---8----7--L--------|
-----7-----------------2--|--7-------------------8---|--9---9----7--L--------|
-----5-----4--5--4--5-----|--5----5--5--5--5--5--6---|--7--------5--L--------|
--0--------2--3--2--3-----|--------------------------|-----------------------|


                          >                                               >                     
  E.  S E  E  H           E.  S E  E  H           E.  S E  E  H           E.  S E  E  H         
-----------------------|-----------------------|-----------------------|-----------------------|
-----------------------|-----------------------|-----------------------|-----------------------|
--7---6----5--L--------|--9---8----7--L--------|--7---6----5--L--------|--9---8----7--L--------|
--7---7----5--L--------|--9---9----7--L--------|--7---7----5--L--------|--9---9----7--L--------|
--5--------3--L--------|--7--------5--L--------|--5--------3--L--------|--7--------5--L--------|
-----------------------|-----------------------|-----------------------|-----------------------|


                          >                                             
  E.  S E  E  H           E.  S E  E  H           E.  S E  E  H         
-----------------------|-----------------------|-----------------------|
-----------------------|-----------------------|-----------------------|
--7---6----5--L--------|--9---8----7--L--------|--7---6----5--L--------|
--7---7----5--L--------|--9---9----7--L--------|--7---7----5--L--------|
--5--------3--L--------|--7--------5--L--------|--5--------3--L--------|
-----------------------|-----------------------|-----------------------|


    E.  S E  E    E  E  E  E     S  S  S S S S  S  S S  S S  S S  S S S  
--5g7---5-L--3--3g5--3--0--3--|-----------------------------------------|
--5g7---5-L--3--3g5--3--0--3--|--5p-3p-0---0----------------------------|
------------------------------|----------3---3p-2p-0-2p-0---------------|
------------------------------|---------------------------2p-0----------|
------------------------------|--------------------------------2p-0---2-|
------------------------------|-------------------------------------3-0-|

   
  Q    Q    H                                          
-----------------------------------------------------||
-----------------------------------------------------||
-----------------------------------------------------||
-----------------------------------------------------||
--L--------------------------------------------------||
--L--------------------------------------------------||



Lead 1



     W                   W                   W                 
E||-------------------|-------------------|-------------------|
B||-------------------|-------------------|-------------------|
G||-------------------|-------------------|-------------------|
D||-------------------|-------------------|-------------------|
A||-------------------|-------------------|-------------------|
E||-------------------|-------------------|-------------------|


     Scrape pick across board.                               Lightly run palm down strings.         
     NH                        NH   NH   NH   NH   NH   NH   NH                            NH   NH  
     |---------------3--------------|    |----3----|    |-----------------3----------------|    |---
     S                         S    S    S    S    S    S    S                             S    S   
---<>x-----------------------<>x--<>x--<>x--<>x--<>x--<>x-------------------------------------------
---<>x-----------------------<>x--<>x--<>x--<>x--<>x--<>x-------------------------------------------
---<>x-----------------------<>x--<>x--<>x--<>x--<>x--<>x-------------------------------------------
----------------------------------------------------------<>10p--------------------------<>8p-<>5-<>
----------------------------------------------------------------------------------------------------
----------------------------------------------------------------------------------------------------


  Q    E   E    E    E    E    S  S     E   S  S  E   S  S  H          
---------------------------------14-|--15--14-15-17--15-17-19~--------|
----------15---15---15---15---17----|---------------------------------|
----------17b--17b--17b--17b--------|---------------------------------|
------------------------------------|---------------------------------|
------------------------------------|---------------------------------|
------------------------------------|---------------------------------|


                                                       PM PM PM          
   H          S  S  S  S  S  E.       Q      E   E   S S  S  S    E  E   
---L~---------L-19-17----17-------|-------------------------------------|
----------------------20----20~---|---L~-----L---L\------------------7--|
----------------------------------|-----------------------5--5--7g9-----|
----------------------------------|--------------------5----------------|
----------------------------------|-------------------------------------|
----------------------------------|-------------------------------------|


     E.  S  H         E  S S     E.   S  E   E    Q      E   S  S  
-----------------------------|------------------------------------|
--8g10---7~-L~--------L--7-8-|--10---12--L--13~---L~-----L--13-15-|
-----------------------------|------------------------------------|
-----------------------------|------------------------------------|
-----------------------------|------------------------------------|
-----------------------------|------------------------------------|


                                                     \2             \1/       \1/   
   E.   S  E      E   Q        E   E      E.   S  E  E     H        S   S S S Q     
--------------------------------------|-----------------|--------------------------|
--17---19--L--19g20---L----20g22--20--|--19---15--L-----|--------------------------|
--------------------------------------|--------------0--|--L--------0---L-L-L-0----|
--------------------------------------|-----------------|--------------------------|
--------------------------------------|-----------------|--------------------------|
--------------------------------------|-----------------|--------------------------|


  W                   W                   W                   W                   W                 
-------------------|-------------------|-------------------|-------------------|-------------------|
-------------------|-------------------|-------------------|-------------------|-------------------|
--L----------------|-------------------|-------------------|-------------------|-------------------|
-------------------|-------------------|-------------------|-------------------|-------------------|
-------------------|-------------------|-------------------|-------------------|-------------------|
-------------------|-------------------|-------------------|-------------------|-------------------|


  W                   W                   W                   W                   W                 
-------------------|-------------------|-------------------|-------------------|-------------------|
-------------------|-------------------|-------------------|-------------------|-------------------|
-------------------|-------------------|-------------------|-------------------|-------------------|
-------------------|-------------------|-------------------|-------------------|-------------------|
-------------------|-------------------|-------------------|-------------------|-------------------|
-------------------|-------------------|-------------------|-------------------|-------------------|


  W                   W                   W                   W                   W                 
-------------------|-------------------|-------------------|-------------------|-------------------|
-------------------|-------------------|-------------------|-------------------|-------------------|
-------------------|-------------------|-------------------|-------------------|-------------------|
-------------------|-------------------|-------------------|-------------------|-------------------|
-------------------|-------------------|-------------------|-------------------|-------------------|
-------------------|-------------------|-------------------|-------------------|-------------------|


  W                   W                   W                   W                   W                 
-------------------|-------------------|-------------------|-------------------|-------------------|
-------------------|-------------------|-------------------|-------------------|-------------------|
-------------------|-------------------|-------------------|-------------------|-------------------|
-------------------|-------------------|-------------------|-------------------|-------------------|
-------------------|-------------------|-------------------|-------------------|-------------------|
-------------------|-------------------|-------------------|-------------------|-------------------|


  W                   W                   W                   W                   W                 
-------------------|-------------------|-------------------|-------------------|-------------------|
-------------------|-------------------|-------------------|-------------------|-------------------|
-------------------|-------------------|-------------------|-------------------|-------------------|
-------------------|-------------------|-------------------|-------------------|-------------------|
-------------------|-------------------|-------------------|-------------------|-------------------|
-------------------|-------------------|-------------------|-------------------|-------------------|


                                                         |---3--|  |--3-|   |---3--|   
  W                   W                   H         E    S  S   S  E    S   S   S  S   
-------------------|-------------------|----------------12-------------12h-15p-12-----|
-------------------|-------------------|-----------15b-----15p-12-15b-------------15b-|
-------------------|-------------------|----------------------------------------------|
-------------------|-------------------|----------------------------------------------|
-------------------|-------------------|----------------------------------------------|
-------------------|-------------------|----------------------------------------------|


                                                                              W         
                                         |-----5-----|                                  
   T  T   T  T   T  T  T  T  S  S  S  S  S  S  S  S  S   Q       S E.   Q     H         
--12----------------------------------------------------------|------------------------|
-----15p-12---------------------------------------------------|------------------------|
------------14b--L-12----------14-12--------------------------|----9b---L~----L--------|
-------------------------------------14-12--------------------|------------------------|
----------------------12-13-14-------------14-13-12-10~--L----|------------------------|
--------------------------------------------------------------|------------------------|


  |--3-| |--3-| |--3-| |--3-| |--3-| |--3-|                                                        
  S  S S S  S S S  S S S  S S S  S S S S  S Q        W                   E  E   S E   S H          
--------------------------------------------------|-------------------|---------------------------|
--------------------------------------------------|-------------------|---------------------------|
--------------------------------------------------|-------------------|---------------------------|
--2p-0---2p-0---2p-0---2p-0---2p-0---0------------|-------------------|---------2-----2-----------|
-------2------2------2------2------2---2p-0-------|-------------------|---------------------------|
--------------------------------------------3~----|--0----------------|--0--3b----3~----3~--------|


  W                   W                   W                   W                   W                 
-------------------|-------------------|-------------------|-------------------|-------------------|
-------------------|-------------------|-------------------|-------------------|-------------------|
-------------------|-------------------|-------------------|-------------------|-------------------|
-------------------|-------------------|-------------------|-------------------|-------------------|
-------------------|-------------------|-------------------|-------------------|-------------------|
-------------------|-------------------|-------------------|-------------------|-------------------|


  W                   W                   W                   W                   W                 
-------------------|-------------------|-------------------|-------------------|-------------------|
-------------------|-------------------|-------------------|-------------------|-------------------|
-------------------|-------------------|-------------------|-------------------|-------------------|
-------------------|-------------------|-------------------|-------------------|-------------------|
-------------------|-------------------|-------------------|-------------------|-------------------|
-------------------|-------------------|-------------------|-------------------|-------------------|


  W                   W                   W                   W                   W                 
-------------------|-------------------|-------------------|-------------------|-------------------|
-------------------|-------------------|-------------------|-------------------|-------------------|
-------------------|-------------------|-------------------|-------------------|-------------------|
-------------------|-------------------|-------------------|-------------------|-------------------|
-------------------|-------------------|-------------------|-------------------|-------------------|
-------------------|-------------------|-------------------|-------------------|-------------------|


  W                   W                   W                   W                   W                 
-------------------|-------------------|-------------------|-------------------|-------------------|
-------------------|-------------------|-------------------|-------------------|-------------------|
-------------------|-------------------|-------------------|-------------------|-------------------|
-------------------|-------------------|-------------------|-------------------|-------------------|
-------------------|-------------------|-------------------|-------------------|-------------------|
-------------------|-------------------|-------------------|-------------------|-------------------|


  W                   W                   W                   W                   W                 
-------------------|-------------------|-------------------|-------------------|-------------------|
-------------------|-------------------|-------------------|-------------------|-------------------|
-------------------|-------------------|-------------------|-------------------|-------------------|
-------------------|-------------------|-------------------|-------------------|-------------------|
-------------------|-------------------|-------------------|-------------------|-------------------|
-------------------|-------------------|-------------------|-------------------|-------------------|


  W                   W                   W                   W                 
-------------------|-------------------|-------------------|-------------------|
-------------------|-------------------|-------------------|-------------------|
-------------------|-------------------|-------------------|-------------------|
-------------------|-------------------|-------------------|-------------------|
-------------------|-------------------|-------------------|-------------------|
-------------------|-------------------|-------------------|-------------------|


                                                  \6              T                         
  H        Q    E  S  S     Q     E   S  S  Q     Q        Q      S    E.      Q     Q      
------------------------|------------------------------|-----------------------------------|
------------------------|------------------------------|-----------------------------------|
-------------------7h-9-|--11-----L~--9-11-11~---------|--17b----21pb-17pbr---17----16~----|
------------------------|------------------------------|-----------------------------------|
------------------------|------------------------------|-----------------------------------|
------------------------|-------------------------0----|-----------------------------------|


           T      T   T  T      T      T                   T     T      T          PM  
                                       |---3---|                 |-3-|                 
   T   S   X   X  S   S  T   T  T   T  S   S   S   T   T   T  T  S   T  T   T  E.  S   
--------------------------------------------------------------------------------------|
--12h-15h-17p-15-17p-15-17p-15-17p-12-------------------------------------------------|
--------------------------------------16p-12p-11h-------------------------------------|
--------------------------------------------------12h-14h-16-12-16p-12----------------|
-----------------------------------------------------------------------17p-12-10---7--|
--------------------------------------------------------------------------------------|


  PM PM PM PM                                                                        
                                |--3--|  |--3--|                                     
  S  S  S  S  E   E   E     E   S  S  S  S  S  S     Q      E   E    Q      E   E    
-------------------------------------14-14-14----|----------------------------------|
-------------------------------15-17----------15-|--17b-----L--17b---Lb-----L-------|
--------4--5--9b--L~--L~--/17--------------------|----------------------------------|
--4--5-------------------------------------------|----------------------------------|
-------------------------------------------------|------------------------------x\--|
-------------------------------------------------|------------------------------x\--|


            |--3--|  |--3--|  |--3--|  |--3--|        
      Q     S  S  S  S  S  S  S  S  S  S  S  S  Q     
-----------------------------------------------------|
---xg17----------------------------------------------|
-----------19-17-16----------------------------------|
--------------------19-17-16-------------------------|
-----------------------------19-17-15----------------|
--------------------------------------19-17-16-14----|


   PM PM PM                                       PM          PM PM 
                                            |--3--|                 
   T  T  S  T   T  T  T  T  T  S  T   T  S  S  S  S  E    E   S  S  
-------------------------------------------------------------------|
-------------------------------------------------------------------|
---------------------------11-14-12p-11-16-14----14-16~---L--------|
---------------------12-14--------------------16-------------12-14-|
-----------12h-14-15-----------------------------------------------|
--12-14-15---------------------------------------------------------|


      PM    PM   PM  PM                                                           
   S  S  S  S S  S S S  E    S S    Q       W                   W                 
-----------------------------------------|-------------------|-------------------|
----------------------------10-----------|-------------------|-------------------|
--12----11----9----8----9b-----9pbr-L----|-------------------|-------------------|
-----13----12---10---9-------------------|-------------------|-------------------|
-----------------------------------------|-------------------|-------------------|
-----------------------------------------|-------------------|-------------------|


  W                   W                   W                   W                   W                 
-------------------|-------------------|-------------------|-------------------|-------------------|
-------------------|-------------------|-------------------|-------------------|-------------------|
-------------------|-------------------|-------------------|-------------------|-------------------|
-------------------|-------------------|-------------------|-------------------|-------------------|
-------------------|-------------------|-------------------|-------------------|-------------------|
-------------------|-------------------|-------------------|-------------------|-------------------|


  W                   W                   W                   W                   W                 
-------------------|-------------------|-------------------|-------------------|-------------------|
-------------------|-------------------|-------------------|-------------------|-------------------|
-------------------|-------------------|-------------------|-------------------|-------------------|
-------------------|-------------------|-------------------|-------------------|-------------------|
-------------------|-------------------|-------------------|-------------------|-------------------|
-------------------|-------------------|-------------------|-------------------|-------------------|


  W                   W                   W                   W                   W                 
-------------------|-------------------|-------------------|-------------------|-------------------|
-------------------|-------------------|-------------------|-------------------|-------------------|
-------------------|-------------------|-------------------|-------------------|-------------------|
-------------------|-------------------|-------------------|-------------------|-------------------|
-------------------|-------------------|-------------------|-------------------|-------------------|
-------------------|-------------------|-------------------|-------------------|-------------------|


  W                   W                   W                   H.              Q        
-------------------|-------------------|-------------------|--------------------------|
-------------------|-------------------|-------------------|--------------------------|
-------------------|-------------------|-------------------|--9b------------<>9pbr----|
-------------------|-------------------|-------------------|--------------------------|
-------------------|-------------------|-------------------|--------------------------|
-------------------|-------------------|-------------------|--------------------------|


  W                     Q.       E     S  E.      Q      
--------------------|-----------------------------------|
--------------------|-----------------15----------------|
--9~----------------|--14b------14pb-----14pbr----L~----|
--------------------|-----------------------------------|
--------------------|-----------------------------------|
--------------------|-----------------------------------|


               PM    PM                                                                
                                                     |--3-|    |--3-| |--3-|           
   S  S  S  S  S  S  S  S  E   S   S  S  E.      E   S  S S E  S  S S S  S S E  Q      
---------------------------------------------|----------------------------------------|
---------------------------------------------|----------------------------------------|
--14-16-14-16-12-16-11-16--------------------|-------------------------------2--------|
--------------------------14--12h-14-14-12---|-------2p-0---2--2p-0---2p-0---0--------|
---------------------------------------------|------------2---------2------2----------|
---------------------------------------------|--12\-----------------------------3~----|


     TP TP TP TP  TP                                                         
  E  E  E  E  E   E   E   E      E   S  S  S   S  S  S   S  S  S   S  Q      
------------------------------|-----12--------12-----------12---------------|
------------------------------|--------12-15b----12-15b--L----15b-15--L~----|
-----4--5--7--9--11--12--12~--|---------------------------------------------|
------------------------------|---------------------------------------------|
------------------------------|---------------------------------------------|
------------------------------|---------------------------------------------|


   T          T          T          T                                                             
   |---3---|  |---3---|  |---3---|  |---3---|                                                     
   S   S   S  S   S   S  S   S   S  S   S   S  S   T   T  S   S  S   S  E      W                  
----------------------------------------------17p-15h-17-19s-20-20s-22-22--|--24~----------------|
--17p-15p-12-19p-15p-12-17p-15p-12-17p-15p-12------------------------------|---------------------|
---------------------------------------------------------------------------|---------------------|
---------------------------------------------------------------------------|---------------------|
---------------------------------------------------------------------------|---------------------|
---------------------------------------------------------------------------|---------------------|

 
   W                    W                                          
---L~----------------|-------------------------------------------||
---------------------|-------------------------------------------||
---------------------|-------------------------------------------||
---------------------|-------------------------------------------||
---------------------|-------------------------------------------||
---------------------|-------------------------------------------||



Lead 2



     W                   W                   W                   W                 
E||-------------------|-------------------|-------------------|-------------------|
B||-------------------|-------------------|-------------------|-------------------|
G||-------------------|-------------------|-------------------|-------------------|
D||-------------------|-------------------|-------------------|-------------------|
A||-------------------|-------------------|-------------------|-------------------|
E||-------------------|-------------------|-------------------|-------------------|


  W                   W                   W                   W                   W                 
-------------------|-------------------|-------------------|-------------------|-------------------|
-------------------|-------------------|-------------------|-------------------|-------------------|
-------------------|-------------------|-------------------|-------------------|-------------------|
-------------------|-------------------|-------------------|-------------------|-------------------|
-------------------|-------------------|-------------------|-------------------|-------------------|
-------------------|-------------------|-------------------|-------------------|-------------------|


  W                   W                   H           W                   W                 
-------------------|-------------------|-----------|-------------------|-------------------|
-------------------|-------------------|-----------|-------------------|-------------------|
-------------------|-------------------|-----------|-------------------|-------------------|
-------------------|-------------------|-----------|-------------------|-------------------|
-------------------|-------------------|-----------|-------------------|-------------------|
-------------------|-------------------|-----------|-------------------|-------------------|


  W                   W                   W                   W                   W                 
-------------------|-------------------|-------------------|-------------------|-------------------|
-------------------|-------------------|-------------------|-------------------|-------------------|
-------------------|-------------------|-------------------|-------------------|-------------------|
-------------------|-------------------|-------------------|-------------------|-------------------|
-------------------|-------------------|-------------------|-------------------|-------------------|
-------------------|-------------------|-------------------|-------------------|-------------------|


  W                   W                   W                   W                   W                 
-------------------|-------------------|-------------------|-------------------|-------------------|
-------------------|-------------------|-------------------|-------------------|-------------------|
-------------------|-------------------|-------------------|-------------------|-------------------|
-------------------|-------------------|-------------------|-------------------|-------------------|
-------------------|-------------------|-------------------|-------------------|-------------------|
-------------------|-------------------|-------------------|-------------------|-------------------|


  W                   W                   W                   W                   W                 
-------------------|-------------------|-------------------|-------------------|-------------------|
-------------------|-------------------|-------------------|-------------------|-------------------|
-------------------|-------------------|-------------------|-------------------|-------------------|
-------------------|-------------------|-------------------|-------------------|-------------------|
-------------------|-------------------|-------------------|-------------------|-------------------|
-------------------|-------------------|-------------------|-------------------|-------------------|


  W                   W                   W                   W                   W                 
-------------------|-------------------|-------------------|-------------------|-------------------|
-------------------|-------------------|-------------------|-------------------|-------------------|
-------------------|-------------------|-------------------|-------------------|-------------------|
-------------------|-------------------|-------------------|-------------------|-------------------|
-------------------|-------------------|-------------------|-------------------|-------------------|
-------------------|-------------------|-------------------|-------------------|-------------------|


  W                   W                   W                   W                   W                 
-------------------|-------------------|-------------------|-------------------|-------------------|
-------------------|-------------------|-------------------|-------------------|-------------------|
-------------------|-------------------|-------------------|-------------------|-------------------|
-------------------|-------------------|-------------------|-------------------|-------------------|
-------------------|-------------------|-------------------|-------------------|-------------------|
-------------------|-------------------|-------------------|-------------------|-------------------|


  W                   W                   W                   W                   W                 
-------------------|-------------------|-------------------|-------------------|-------------------|
-------------------|-------------------|-------------------|-------------------|-------------------|
-------------------|-------------------|-------------------|-------------------|-------------------|
-------------------|-------------------|-------------------|-------------------|-------------------|
-------------------|-------------------|-------------------|-------------------|-------------------|
-------------------|-------------------|-------------------|-------------------|-------------------|


  W                   W                   W                   W                   W                 
-------------------|-------------------|-------------------|-------------------|-------------------|
-------------------|-------------------|-------------------|-------------------|-------------------|
-------------------|-------------------|-------------------|-------------------|-------------------|
-------------------|-------------------|-------------------|-------------------|-------------------|
-------------------|-------------------|-------------------|-------------------|-------------------|
-------------------|-------------------|-------------------|-------------------|-------------------|


  W                   W                   W                   W                   W                 
-------------------|-------------------|-------------------|-------------------|-------------------|
-------------------|-------------------|-------------------|-------------------|-------------------|
-------------------|-------------------|-------------------|-------------------|-------------------|
-------------------|-------------------|-------------------|-------------------|-------------------|
-------------------|-------------------|-------------------|-------------------|-------------------|
-------------------|-------------------|-------------------|-------------------|-------------------|


  W                   W                   W                   W                   W                 
-------------------|-------------------|-------------------|-------------------|-------------------|
-------------------|-------------------|-------------------|-------------------|-------------------|
-------------------|-------------------|-------------------|-------------------|-------------------|
-------------------|-------------------|-------------------|-------------------|-------------------|
-------------------|-------------------|-------------------|-------------------|-------------------|
-------------------|-------------------|-------------------|-------------------|-------------------|


  W                   W                   W                   W                   W                 
-------------------|-------------------|-------------------|-------------------|-------------------|
-------------------|-------------------|-------------------|-------------------|-------------------|
-------------------|-------------------|-------------------|-------------------|-------------------|
-------------------|-------------------|-------------------|-------------------|-------------------|
-------------------|-------------------|-------------------|-------------------|-------------------|
-------------------|-------------------|-------------------|-------------------|-------------------|


  W                   W                   W                   W                   W                 
-------------------|-------------------|-------------------|-------------------|-------------------|
-------------------|-------------------|-------------------|-------------------|-------------------|
-------------------|-------------------|-------------------|-------------------|-------------------|
-------------------|-------------------|-------------------|-------------------|-------------------|
-------------------|-------------------|-------------------|-------------------|-------------------|
-------------------|-------------------|-------------------|-------------------|-------------------|


  W                   W                   W                   W                   W                 
-------------------|-------------------|-------------------|-------------------|-------------------|
-------------------|-------------------|-------------------|-------------------|-------------------|
-------------------|-------------------|-------------------|-------------------|-------------------|
-------------------|-------------------|-------------------|-------------------|-------------------|
-------------------|-------------------|-------------------|-------------------|-------------------|
-------------------|-------------------|-------------------|-------------------|-------------------|


  W                   W                   W                   W                   W                 
-------------------|-------------------|-------------------|-------------------|-------------------|
-------------------|-------------------|-------------------|-------------------|-------------------|
-------------------|-------------------|-------------------|-------------------|-------------------|
-------------------|-------------------|-------------------|-------------------|-------------------|
-------------------|-------------------|-------------------|-------------------|-------------------|
-------------------|-------------------|-------------------|-------------------|-------------------|


  W                   W                   W                   W                   W                 
-------------------|-------------------|-------------------|-------------------|-------------------|
-------------------|-------------------|-------------------|-------------------|-------------------|
-------------------|-------------------|-------------------|-------------------|-------------------|
-------------------|-------------------|-------------------|-------------------|-------------------|
-------------------|-------------------|-------------------|-------------------|-------------------|
-------------------|-------------------|-------------------|-------------------|-------------------|


              T          T                       PM        PM        PM     
   |---3---|  |---3---|  |-3-|  |---3--|  |---3--|  |---3--|  |---3--|      
   S   S   S  S   S   S  E   S  S   S  S  S   S  S  S   S  S  S   S  S  E   
---------------------------------------------------------------------------|
-----------------------------------16----17p-16----19p-16----20p-17----22--|
--11h-14p-11-19p-11h-14-21--16-18b----16--------16--------16--------19-----|
---------------------------------------------------------------------------|
---------------------------------------------------------------------------|
---------------------------------------------------------------------------|


   E    S  S  S   S  S   S  S  S  S  S  E   E    
------------------------------------------------|
--22b--22-20-19~-22-20p-19-17-19-19b-L-17--15~--|
------------------------------------------------|
------------------------------------------------|
------------------------------------------------|
------------------------------------------------|


   |---3--|  |---3--|   |---3--|  |---3--|                  |---3--|       
   S   S  S  S   S  S   S   S  S  S   S  S  S  T   T  T  S. S   S  S  E    
--------------------------------------------------------------------------|
-----------------------------------------------------20----22p-19----24\--|
--17p-14----19p-16-----21p-17----23p-19----21-17h-21----21--------20------|
---------16--------17b--------21--------21--------------------------------|
--------------------------------------------------------------------------|
--------------------------------------------------------------------------|


        P                                                                                      
           |---3--|                                                                            
    S   S  S   S  S  T   T  T   T  E   E   E    Q        W                   W                 
--(15)------------------------------------22b---L\----|-------------------|-------------------|
------------------------------------------------------|-------------------|-------------------|
----------17p-16----17p-16----------------------------|-------------------|-------------------|
-----------------19--------17p-16---------------------|-------------------|-------------------|
-------19-------------------------19~-----------------|-------------------|-------------------|
------------------------------------------------------|-------------------|-------------------|


  W                   W                   W                   W                   W                 
-------------------|-------------------|-------------------|-------------------|-------------------|
-------------------|-------------------|-------------------|-------------------|-------------------|
-------------------|-------------------|-------------------|-------------------|-------------------|
-------------------|-------------------|-------------------|-------------------|-------------------|
-------------------|-------------------|-------------------|-------------------|-------------------|
-------------------|-------------------|-------------------|-------------------|-------------------|


  W                   W                   W                   W                   W                 
-------------------|-------------------|-------------------|-------------------|-------------------|
-------------------|-------------------|-------------------|-------------------|-------------------|
-------------------|-------------------|-------------------|-------------------|-------------------|
-------------------|-------------------|-------------------|-------------------|-------------------|
-------------------|-------------------|-------------------|-------------------|-------------------|
-------------------|-------------------|-------------------|-------------------|-------------------|


  W                   W                   W                   W                   W                 
-------------------|-------------------|-------------------|-------------------|-------------------|
-------------------|-------------------|-------------------|-------------------|-------------------|
-------------------|-------------------|-------------------|-------------------|-------------------|
-------------------|-------------------|-------------------|-------------------|-------------------|
-------------------|-------------------|-------------------|-------------------|-------------------|
-------------------|-------------------|-------------------|-------------------|-------------------|


  W                   W                   W                   W                   W                 
-------------------|-------------------|-------------------|-------------------|-------------------|
-------------------|-------------------|-------------------|-------------------|-------------------|
-------------------|-------------------|-------------------|-------------------|-------------------|
-------------------|-------------------|-------------------|-------------------|-------------------|
-------------------|-------------------|-------------------|-------------------|-------------------|
-------------------|-------------------|-------------------|-------------------|-------------------|


  W                   W                   W                   W                 
-------------------|-------------------|-------------------|-------------------|
-------------------|-------------------|-------------------|-------------------|
-------------------|-------------------|-------------------|-------------------|
-------------------|-------------------|-------------------|-------------------|
-------------------|-------------------|-------------------|-------------------|
-------------------|-------------------|-------------------|-------------------|

   
  W                                          
-------------------------------------------||
-------------------------------------------||
-------------------------------------------||
-------------------------------------------||
-------------------------------------------||
-------------------------------------------||



Clean - left



     W                   W                   W                   W                 
E||-------------------|-------------------|-------------------|-------------------|
B||-------------------|-------------------|------------
comments
We did not receive enough feedback on this tab! Please rate:
1 2 3 4 5
I want to post or [tab]
guest
You may want to rate the tab now too:
select rating
Please do not post tabs as comments. Select "correction" instead!