Oops, an error
Loading. Please wait.

So Lonely Live Bass Tab

ver1
ver1

Whole song

Interactive

More versions @911Tabs.com
873 views 3 this week
no commentswrite comment
1 2 3 4 5
please rate
Autoscroll
+/-
esc
set tempo
stop
Contributor
Hey! There's an official Ultimate Guitar app which is ideal
for learning songs when you're away from computer. Get the app
WARNING: You are trying to view
                                    content from Ultimate-Guitar.com
                                    in an unauthorized application,
                                    which is prohibited.

                                    Please use an official Ultimate
                                    Guitar Tabs application for iPhone,
                                    iPad or Android to access legitimate
                                    chords, guitar, bass, and drum tabs
                                    from Ultimate-Guitar.com database.

                                    Type "ultimate guitar tabs" in Apple
                                    App Store's or Android Market's
                                    search to find the application.
-------------------------------------------------------------------------------
			     SO LONELY - Loudness
-------------------------------------------------------------------------------

Tabbed by: Isaias Garcia

Tuning: Standard

Album: Loudest Ballads




     W                   W                   H        H           H        H         
G||-------------------|-------------------|--------------------|--------------------|
D||-------------------|-------------------|-----------6--------|--7-----------------|
A||-------------------|-------------------|--9-----------------|--------------------|
E||-------------------|-------------------|--------------------|-----------9--------|


  H        H           H          H           Q    Q     E  E  E  S S    Q    Q     E  E  E  S S  
--------------------|----------------------|--------------------------|--------------------------|
-----------6--------|--7S--------11--------|-------4~----------4--4---|-------4~----------4--4---|
--9-----------------|----------------------|------------------------4-|------------------------4-|
--------------------|----------------------|--2----------2--2---------|--2----------2--2---------|


  Q    Q    E  E  E  E     Q    Q    E  E  E  E     Q    Q    E  E  E  E     Q    Q    E  E  E  E   
-------7----------------|-------7----------------|------------------------|------------------------|
------------------------|------------------------|------------------------|------------------------|
--5---------5--5--L--5--|--5---------5--5--L--5--|-------7----------7-----|-------7----------7-----|
------------------------|------------------------|--0---------0--0-----7--|--0---------0--0-----7--|


  Q    Q     E  E  E  S S    Q    Q     E  E  E  S S    H        E  E  E  E   
--------------------------|--------------------------|-----------------------|
-------4~----------4--4---|-------4~----------4--4---|-----------------------|
------------------------4-|------------------------4-|--------------------4--|
--2----------2--2---------|--2----------2--2---------|--2--------2--2--L-----|


  H        E  E  E  E     H        E  E  E  E     Q    E  E  E  E  Q       H        E  E  E  E   
-----------------------|-----------------------|------------------------|-----------------------|
-----------------------|-----------------------|------------------------|-----------------------|
--4--------4--4--L--4--|--5--------5--5--L--5--|--0----2--4-------------|--------------------4--|
-----------------------|-----------------------|-------------4--0--1----|--2--------2--2--L-----|


  H        E  E  E  E     Q    Q    E  E  E  E     Q.       E  H           Q    E  E  Q    E  E   
-----------------------|------------------------|-----------------------|------------------------|
-----------------------|------------------------|-----------------------|------------------------|
--4--------4--4--4--4--|--5---------7--7-----7--|--------------9--------|------------------------|
-----------------------|------------------------|--2------7g9-----------|--2-------2--1-------1--|


  Q    E  E    Q    E  E     Q    E  S S S E  S Q       E     E   Q    S E  S Q     
--------------------------|--------------------------|-----------11----------------|
--------------------------|--------------------------|-----7g12--------------------|
-------------4g6-------6--|--5----5--5-5---4--4-4----|--5----------------4--4-4----|
--0-------0---------------|--------------------------|-----------------------------|


  Q    E  E  Q    E  E     Q    E  E    Q    E  E     Q    S S E  Q    E  E   
------------------------|--------------------------|-------------------------|
------------------------|--------------------------|---------7---------------|
------------------------|-------------4g6-------6--|--5----L---5-------7--7--|
--2-------2--1-------1--|--0-------0---------------|--------------0----------|


  Q    E  E   Q    E  E      H        E  E  E  E     H        E  E  E  E     H        E  E  E  E   
--------------------------|-----------------------|-----------------------|-----------------------|
--------------------------|-----------------------|-----------------------|-----------------------|
----------4s--9----9--L\--|--------------------4--|--4--------4--4--4--4--|--5--------5--5--L--5--|
--2----L------------------|--2--------2--2--L-----|-----------------------|-----------------------|


  Q    E  E  E  E  Q       H        E  E  E  E     H        E  E  E  E     Q    Q    E  E  S S  E   
------------------------|-----------------------|-----------------------|--------------------------|
------------------------|-----------------------|-----------------------|--------------------------|
--0----2--4-------------|--------------------4--|--4--------4--4--4--4--|--5---------7--7----5h-7--|
-------------4--0--1----|--2--------2--2--L-----|-----------------------|--------------------------|


  Q.       E  H           Q    E.  S E  E  S S S S    Q    E.  S E  E  E  E   
-----------------------|---------------------------|-------------------------|
-----------------------|-------7-------------------|-------------------------|
--------------9--------|---------------------------|--4----L-----4--4--L--4--|
--2------7g9-----------|--5--------0-5--5--L-0-5-7-|-----------4-------------|


  Q    E.  S E  E  E  E     Q    E.  S E  E  E  E     Q    E.  S E  E  S S S S  
-------------------------|-------------------------|---------------------------|
-------------------------|-----------7-7--7--------|-------7-------------------|
--5----L-----5--5--L--5--|-------7-----------9--7--|---------------------------|
-----------5-------------|--0----------------------|--5--------0-5--5--L-0-5-0-|


  Q    E.  S E  E  E  E     Q    E  E  E  E  E  E     E  E  E  E  E  E  E  E   
-------------------------|-------7-----------9-----|--------------------------|
-------------------------|----------7-----------9--|--------------------------|
--4----L-----4--4--L--4--|--5----------7--7--------|--------------------------|
-----------4-------------|-------------------------|--2--2--2--2--2--2--2--2--|


    E  S S S S S S S S S S S S S S    Q    E  E  Q    E  E     Q    E  E    Q    E  S S  
-----------------------------------|------------------------|---------------------------|
--2g4--4-4-4-4-4-4-4-4-4-4-4-4-4-4-|------------------------|---------------------------|
-----------------------------------|------------------------|-------------4g6-------6-6-|
-----------------------------------|--2-------2--1-------1--|--0-------0----------------|


  Q    E.  S S E  S Q       E     E   Q    S E  S Q       Q    E  E  Q    E  E   
-------------------------|-----------11----------------|------------------------|
-------------------------|-----7g12--------------------|------------------------|
--5----5---5---4--4-4----|--5----------------4--4-4----|------------------------|
-------------------------|-----------------------------|--2-------2--1-------1--|


  Q    E  E    Q    E  E     Q    S S E  Q    E  E     Q    E  E   Q    E  E    
--------------------------|-------------------------|--------------------------|
--------------------------|-------------------------|--------------------------|
-------------4g6-------6--|--5----L---5-------7-----|----------4s--9----9--L\--|
--0-------0---------------|---------5----0-------0--|--2----L------------------|


  H        E  E  E  S S    Q    Q    E  E  E  E     Q    Q    E  E  E  E     Q    Q    E  E  E  E   
------------------------|------------------------|------------------------|------------------------|
------------------------|-------4----------------|------------------7-----|------------------7-----|
--------------------4-4-|---------------------4--|--5---------5--5-----5--|--5---------5--5-----5--|
--2--------2--2--L------|--2---------2--2--L-----|------------------------|------------------------|


  Q    Q    E  E  E  E     Q    Q    E  E  E  E     Q    E.  S S S E  E  S S  
------------------------|------------------------|---------------------------|
------------------------|------------------------|-------4------------4------|
-------7----------7-----|--7---------------7-----|-----------------------4-4-|
--0---------0--0-----0--|-------0----0--0-----0--|--2--------0-2-0-2---------|


  Q    E.  S E  E  E  S S    Q    Q     E  E  E  S S    Q    Q     E  E  E  S S  
--------------------------|--------------------------|--------------------------|
-------4--------------4---|-------4~----------4--4---|-------4~----------4--4---|
------------------------4-|------------------------4-|------------------------4-|
--2--------2-2--2--L------|--2----------2--2---------|--2----------2--2---------|


  Q    Q    E  E  E  E     Q    Q    E  E  E  E     Q    Q    E  E  E  E     Q    Q    E  E  E  E   
-------7----------------|-------7----------------|------------------------|------------------------|
------------------------|------------------------|------------------------|------------------------|
--5---------5--5--L--5--|--5---------5--5--L--5--|-------7----------7-----|-------7----------7-----|
------------------------|------------------------|--0---------0--0-----7--|--0---------0--0-----7--|


  Q    Q     E  E  E  S S    Q    Q     E  E  E  S S    Q    E  E  Q    E  E   
--------------------------|--------------------------|------------------------|
-------4~----------4--4---|-------4~----------4--4---|------------------------|
------------------------4-|------------------------4-|------------------------|
--2----------2--2---------|--2----------2--2---------|--2-------2--1-------1--|


  Q    E  E    Q    E  S S    Q    E.  S S E  S Q       S S  S  S  E   E  S E  S Q     
---------------------------|-------------------------|---------11-12--11--------------|
---------------------------|-------------------------|--0-0-12------------------------|
-------------4g6-------6-6-|--5----5---5---4--4-4----|----------------------4--4-4----|
--0-------0----------------|-------------------------|--------------------------------|


  Q    E  E  Q    E  E     Q    E  E    Q    E    E     Q    S S E  Q    E  E   
------------------------|----------------------------|-------------------------|
------------------------|----------------------------|-------------------------|
------------------------|-------------4g6-------4g6--|--5----L---5-------7-----|
--2-------2--1-------1--|--0-------0-----------------|---------5----0-------0--|


  Q    E  E   Q    E  E      Q    Q     E  E  E  S S    Q    Q     E  E  E  S S  
--------------------------|--------------------------|--------------------------|
--------------------------|-------4~----------4--4---|-------4~----------4--4---|
----------4s--9----9--L\--|------------------------4-|------------------------4-|
--2----L------------------|--2----------2--2---------|--2----------2--2---------|


  Q    Q    E  E  E  E     Q    Q    E  E  E  E     Q    Q    E  E  E  S S  
-------7----------------|-------7----------------|-------------------------|
------------------------|------------------------|-------------------------|
--5---------5--5--L--5--|--5---------5--5--L--5--|-------7----------7--7---|
------------------------|------------------------|--0---------0--0-------7-|


  Q    Q    E  E  E  S S    Q    E.   S E  E  E  S S    Q    E.   S E  E  E  S S  
-------------------------|---------------------------|---------------------------|
-------------------------|-------4~-----------4--4---|-------4~-----------4--4---|
-------7----------7--7---|-------------------------4-|-------------------------4-|
--0---------0--0-------7-|--2---------2-2--2---------|--2---------2-2--2---------|


  Q    E.   S E  E  E  S S    Q    E.   S E  E  E  S S    Q    Q    E  E  E  S  S  
---------------------------|---------------------------|-------7------------------|
-------4~-----------4--4---|-------4~-----------4--4---|---------------------5h-7-|
-------------------------4-|-------------------------4-|--5---------5--5--L-------|
--2---------2-2--2---------|--2---------2-2--2---------|--------------------------|


  Q    Q    E  E  E  S  S    Q    Q    E  E  E  S  S    S  S E  E  S  S S  S E  S  S S  S  
-------7------------------|--------------------------|--7h-9----9-------7h-9--------------|
---------------------5h-7-|---------------------7h-9-|-------------7h-9-------------------|
--5---------5--5--L-------|-------7----------7-------|-------------------------------7h-9-|
--------------------------|--0---------0--0----------|-------0---------------0--7h-9------|


                                          |--3--|  |--3--|                               
  Q    E.   S E  E  E  S S    Q    E.   S E  E  E  E  E  E     Q    E.   S E  E  E  S S  
---------------------------|--------------------------------|---------------------------|
-------4~-----------4--4---|-------4~-----4--------4--------|-------4~-----------4--4---|
-------------------------4-|-----------------4--------4-----|-------------------------4-|
--2---------2-2--2---------|--2---------2-------2--------2--|--2---------2-2--2---------|


  Q    E.   S E  E  E  S S    Q    Q    E  E  E  S  S    Q    Q    E  E  E  S  S  
---------------------------|-------7------------------|-------7------------------|
-------4~-----------4--4---|---------------------5h-7-|---------------------5h-7-|
-------------------------4-|--5---------5--5--L-------|--5---------5--5--L-------|
--2---------2-2--2---------|--------------------------|--------------------------|


  Q    Q    E  E  E  S S    S S E  Q    S S E  E  S S    S S S S Q    S E  S E  S S  
-------------------------|----------------------------|-----------------------------|
-------------------------|----------------------------|----------4------4----4------|
-------7----------7--7---|--5-7----7-----------7------|-------------------------4-4-|
--0---------0--0-------7-|------0-------0-0-0-----7-7-|--2-2-2-2------2----2--------|


  S S S S Q    S E  S E  S S    Q    E.   S E  E  E  S S    Q    E.   S E  E  E  S S  
-----------------------------|---------------------------|---------------------------|
----------4------4----4------|-------4~-----------4--4---|-------4~-----------4--4---|
-------------------------4-4-|-------------------------4-|-------------------------4-|
--2-2-2-2------2----2--------|--2---------2-2--2---------|--2---------2-2--2---------|


  Q    Q    E  E  E  S  S    Q    Q    E  E  E  S  S    Q    Q    E  E  E  S S  
-------7------------------|-------7------------------|-------------------------|
---------------------5h-7-|---------------------5h-7-|-------------------------|
--5---------5--5--L-------|--5---------5--5--L-------|-------7----------7--7---|
--------------------------|--------------------------|--0---------0--0-------7-|


  Q    Q    E  E  E  S S    Q    E.   S E  E  E  S S    Q    E.   S E  E  E  S S  
-------------------------|---------------------------|---------------------------|
-------------------------|-------4~-----------4--4---|-------4~-----------4--4---|
-------7----------7--7---|-------------------------4-|-------------------------4-|
--0---------0--0-------7-|--2---------2-2--2---------|--2---------2-2--2---------|


  Q    E.   S E  E  E  S S    Q    E.   S E  E  E  S S    Q    Q    E  E  E  S  S  
---------------------------|---------------------------|-------7------------------|
-------4~-----------4--4---|-------4~-----------4--4---|---------------------5h-7-|
-------------------------4-|-------------------------4-|--5---------5--5--L-------|
--2---------2-2--2---------|--2---------2-2--2---------|--------------------------|


  Q    Q    E  E  E  S  S    Q    Q    E  E  E  S S    Q    Q    H           H         
-------7------------------|-------------------------|---------------------|-----------|
---------------------5h-7-|-------------------------|---------------------|-----------|
--5---------5--5--L-------|-------7----------7--7---|-------7-------------|-----------|
--------------------------|--0---------0--0-------7-|--0---------0--------|--L--------|


       <                                                                          
  Q    H.              W                   W                   W                  
--------------------|-------------------|-------------------|-------------------||
--------------------|--4----------------|--L----------------|-------------------||
--------------------|-------------------|-------------------|-------------------||
-------2------------|-------------------|-------------------|-------------------||




Duration Legend
---------------
W - whole
H - half
Q - quarter
E - 8th
S - 16th
T - 32nd
X - 64th
. - note dotted
|-n-|  - n-tuplets


Tablature Legend
----------------
L - tied note
x - dead note
g - grace note
(n) - ghost note
> - accentuded note
NH - natural harmonic
AH - artificial harmonic
TH - tapped harmonic
SH - semi harmonic
PH - pitch harmonic
h - hammer on
p - pull off
b - bend
br - bendRelease
pb - preBend
pbr - preBendRelease
brb - bendReleaseBend
\n/ - tremolo bar dip
\n - tremolo bar dive
-/n - tremolo bar Release up
/n\ - tremolo bar inverted dip
/n - tremolo bar return
-\n - tremolo bar Release down
S - shift slide
s - legato slide
/ -  slide into from below or out of upwards
\ -  slide into from above or out of downwards
~ - vibrato
W - wide vibrato
tr - trill
TP - tremolo picking
T - tapping
S - slap
P - pop
< - fade in
^ - brush up
v - brush down
comments
We did not receive enough feedback on this tab! Please rate:
print report bad tab
1 2 3 4 5
I want to post or [tab]
guest
You may want to rate the tab now too:
select rating
Please do not post tabs as comments. Select "correction" instead!