Oops, an error
Loading. Please wait.

So Lonely Live Tab

ver1
ver1

Whole song

Interactive

More versions @911Tabs.com
3,115 views 15 this week
no commentswrite comment
1 2 3 4 5
please rate
Autoscroll
+/-
esc
set tempo
stop
Contributor
Tabbers playing skills
advanced ++
Hey! There's an official Ultimate Guitar app which is ideal
for learning songs when you're away from computer. Get the app
WARNING: You are trying to view
                                    content from Ultimate-Guitar.com
                                    in an unauthorized application,
                                    which is prohibited.

                                    Please use an official Ultimate
                                    Guitar Tabs application for iPhone,
                                    iPad or Android to access legitimate
                                    chords, guitar, bass, and drum tabs
                                    from Ultimate-Guitar.com database.

                                    Type "ultimate guitar tabs" in Apple
                                    App Store's or Android Market's
                                    search to find the application.
-------------------------------------------------------------------------------
                             SO LONELY - Loudness
-------------------------------------------------------------------------------

Tabbed by: Isaias Garcia (TexasFury)

Album: Loudest Ballads

Tuning: Standard



                                              >       >       >       >        
     Q    H.              W                   S S S S S S S S S S S S S S S S  
E||-------2------------|--L----------------|--2-------2-------2-------2-------|
B||-------5------------|--L----------------|----5-------5-------4-------4-----|
G||-------2------------|--L----------------|------2-------2-------2-------2---|
D||-------4------------|--L----------------|--------4-------4-------4-------4-|
A||--------------------|-------------------|----------------------------------|
E||--------------------|-------------------|----------------------------------|


  >       >       >       >          >       >       >       >          >       >       >           
  S S S S S S S S S S S S S S S S    S S S S S S S S S S S S S S S S    S S S S S S S S S E.  Q     
--2-------2-------2-------2-------|--2-------2-------2-------2-------|--2-------2-------2----------|
----3-------3-------2-------2-----|----5-------5-------4-------4-----|----3-------3-------2---L----|
------2-------2-------2-------2---|------2-------2-------2-------2---|------2-------2--------------|
--------4-------4-------4-------4-|--------4-------4-------4-------4-|--------4-------4------------|
----------------------------------|----------------------------------|-----------------------------|
----------------------------------|----------------------------------|-----------------------------|


   H         Q    Q       Q    Q    H             H         Q    Q       Q    Q    H          
-----------------------|----------------------|-----------------------|----------------------|
--10~--------9---------|-------7--------------|--10---------9---------|-------7--------------|
---9~--------9----9----|--6----6----6~--------|---9~--------9----9----|--7----7----7---------|
------------------9----|--7---------7~--------|------------------9----|--7---------7~--------|
-----------------------|----------------------|-----------------------|----------------------|
-----------------------|----------------------|-----------------------|----------------------|


   H         Q    Q       Q    Q    H             H         Q    Q        Q    Q     H          
-----------------------|----------------------|------------------------|-----------------------|
--10---------9---------|-------9--------------|--10~--------9----------|-----------------------|
---9~--------9----9----|--9----9----9~--------|---9~--------9----------|-------2~--------------|
------------------9----|--9---------9~--------|------------------9S----|--4----------4~--------|
-----------------------|----------------------|------------------------|-----------------------|
-----------------------|----------------------|------------------------|-----------------------|


  E  E  E  E  E  E  E  E     E   E  E  E  E  E  E  E     E  E  E  E  E  E  E  E   
--------------2-----------|--x------------4-----------|--x-----------------------|
--------2--------2--------|--x------5--------5--------|--x-----------0-----0-----|
-----2-----2--------2-----|--x---------4--------4-----|--x-----6--------6--------|
--4--------------------4--|--4s--6-----------------6--|--x--4-----4-----------4--|
--------------------------|---------------------------|--5-----------------------|
--------------------------|---------------------------|--------------------------|


  Q    Q    E  E  Q        E  E  E  E  E  E  E  E     E  E  E  E  E  E  E  E   
------------------------|--------------2-----------|--x-----------4-----------|
--x---------------------|--------2--------2--------|--x-----5--------5--------|
--x----2----------------|-----2-----2--------2-----|--x--4-----4--------4-----|
--2---------------3~----|--4--------------------4--|--6--------------------6--|
--0------------2--------|--x-----------------------|--------------------------|
------------4-----------|--x-----------------------|--------------------------|


                                                     PM PM PM PM PM PM PM PM  
  E  E  E  E  E  E  Q       H           H            E  E  E  E  E  E  E  E   
--x----------------------|------------------------|--------------------------|
--x----------------------|-----------7g10~--------|--------2-----------2-----|
--x-----7-----x-----9----|--x---------6g9~--------|-----2-----2-----2-----2--|
--x--7-----7--x--9-------|--x---------------------|--4-----------3-----------|
--5-----------7----------|--4---------------------|--------------------------|
-------------------------|--2---------------------|--------------------------|


  PM PM PM PM   PM PM PM PM                                                  
  E  E  E  E    E  E  E  E     Q    Q    S E.  Q       Q    Q    S E.  Q     
----------------------------|-----------------------|-----------------------|
--------2-------------------|-----------------------|-----------------------|
-----2-----2----------4-----|--7----7------6---6----|--7----7------6---6----|
--2----------------4-----4--|--7----7----x-6---6----|--7----7------6---6----|
--------------4g6-----------|--5----5----x-4---4----|--5----5----x-4---4----|
----------------------------|-----------------------|-----------------------|


  PM PM PM PM PM PM PM PM    PM PM PM PM                                                            
  E  E  E  E  E  E  E  E     E  E  E  E    E  E  Q       H        H           Q    H         Q      
--------------------------|---------------------------|--------------------|-----------------------|
--------2-----------2-----|--------2------------------|--------------------|-----------------------|
-----2-----2-----2-----2--|-----2-----2----------4----|--7--------9--------|-----------------------|
--4-----------3-----------|--2----------------4-------|--7--------9--------|-----------------------|
--------------------------|--------------4g6----------|--5--------7--------|--9----L~--------Lb----|
--------------------------|---------------------------|--------------------|-----------------------|


  E  S S E  E  S S E  E  E     E  E  E  E  E  E  E  E     E  E  E  E  E  E  E  E   
---------------2------------|--x-----------4-----------|--x-----------------------|
---------2-------2----------|--x-----5--------5--------|--x-----------0-----0-----|
-------2----2---------2-----|--x--4-----4--------4-----|--x-----6--------6-----6--|
--4--4-------------4-----4--|--6--------------------6--|--x--4-----4--------------|
----------------------------|--------------------------|--5-----------------------|
----------------------------|--------------------------|--------------------------|


  Q    Q    E  E  Q          E  E  E  E  E  E  E  E     E  E  E  E  S S S  S E   E   
------------------------|----------------2-----------|--x--------4------x-----------|
--x---------------------|----------2--------2--------|--x-----5-----5---x-----------|
--x----2----------------|-------2-----2--------2-----|--x--4----------4-x----4~-----|
--2---------------3~----|--2g4--------------------4--|--6---------------4h-6-----6--|
--0------------2--------|----------------------------|------------------------------|
------------4-----------|----------------------------|------------------------------|


                              v                                                                     
  E  E  E  E    E  E  Q       Q    E  S  S E  S  S Q        W                   H        H          
--x------------------------|--2----L---------------------|-------------------|---------------------|
--x------------------------|--2----L---------------------|-------------------|---------------------|
--x-----7-------x-----9----|--2----L-------2--2h-4-2~----|--2----------------|--6--------L~--------|
--x--7-----7----x--9-------|--4----L--2h-4----2h-4-2~----|--2----------------|--6--------L~--------|
--5-----------5g7----------|-----------------------------|--0----------------|--4--------L~--------|
---------------------------|-----------------------------|-------------------|---------------------|


                                                          PM PM    PM PM    PM PM  
  H        H            H        E  E    E  E     Q    E  S  S  E  S  S  E  S  S   
---------------------|-------------------------|----------------------------------|
---------------------|-------------------------|----------------------------------|
--7--------L~--------|--9--------2--4----------|--2----L--------4--------2--------|
--7--------L~--------|--9--------------2g4--2--|--2----L--------4--------2--------|
--5--------L~--------|--7----------------------|--0----L--0--0-----0--0-----0--0--|
---------------------|-------------------------|----------------------------------|


                                                                 PM PM PM PM         
  Q    E  E  S  T  T E  Q        Q    E  E    Q    E  E     Q    E  E  E  E  E  E    
------------------------------|--------------------------|--------------------------|
----------4--Lh-5p-4----------|--------------------------|--------------------------|
--6----L-------------6--L~----|-------7-------x----9-----|--x-----------------------|
--6----L----------------------|--7-------7----x-------9--|--4----------------4------|
--4----L----------------------|--5----------5g7----------|--4----------------4--9/--|
------------------------------|--------------------------|--2----2--2--2--2--2------|


                                                                  PM PM    PM PM PM PM PM PM PM PM  
   T  T   T  T  T   T   T  T  S  T   T  S  S  T   T  S  S  S  E.  T  T     E  E  E  E  E  E  E  E   
--14--------------------------------------------------------------------|--------------------------|
-----17p-14----14h-17p-14----14-----------------------------------------|--------2-----------2-----|
------------17------------17----16p-14-16-14----------------------------|-----2-----2-----2-----2--|
---------------------------------------------16p-14---------------4--2--|--4-----------3-----------|
----------------------------------------------------16-15-14-12---------|--------------------------|
------------------------------------------------------------------------|--------------------------|


  PM PM PM PM   PM PM PM PM                                                                         
  E  E  E  E    E  E  E  E     Q    Q    S E.  Q       Q    Q    S E.  Q       H        Q    E  E   
----------------------------|-----------------------|-----------------------|----------------------|
--------2-------------------|-----------------------|-----------------------|----------------------|
-----2-----2----------4-----|--7----7------6---6----|--7----7------6---6----|----------------------|
--2----------------4-----4--|--7----7----x-6---6----|--7----7------6---6----|--4--------6----6--6--|
--------------4g6-----------|--5----5----x-4---4----|--5----5----x-4---4----|----------------------|
----------------------------|-----------------------|-----------------------|--2--------4----4--4--|


                                                       |--3-|  |--3-|  |--3-|  |--3-|  
  H        H           H        H           H          S  S S  S  S S  S  S S  S  S S  
--------------------|--------------------|--------------------------------------------|
--------------------|--------------------|------------12-10-9-------------------------|
--------------------|--7--------9--------|--------------------11-10-9-----------------|
--7--------9--------|--7--------9--------|----------------------------12-11-9---------|
--------------------|--5--------7--------|--9~--------------------------------12-11-7-|
--5--------7--------|--------------------|--------------------------------------------|


  Q     S  S  S S E   E  S  S E      S  S  S   S   S S  S  S  Q        Q      
----------------------------------|------------------------------------------|
----------------------------------|------------------9-10-12-12pbr-----------|
----------------------------------|----11p-9h-11b--L------------------11~----|
-----------6h-7-------6--6h-7-----|------------------------------------------|
--9~----Lb------9-L~----------9~--|------------------------------------------|
----------------------------------|------------------------------------------|


                 W                                                                  
                                                                   |---3---|        
   S    S  E     E   T  T  T  T  E     T    T  T  T  T   T   T  T  T   T   T  T  T  
--------------------14-------------------------------------------------------------|
--17br--L--Lpb---L-----17-14-17-17b~--17br--L-14----14h-17p-14----14h-17p-14----14-|
-------------------------------------------------17------------17------------17----|
-----------------------------------------------------------------------------------|
-----------------------------------------------------------------------------------|
-----------------------------------------------------------------------------------|


                       |---3---|                                |---3---|                     
   T   T  T  T  T   T  T   T   T  S  X   X   X   X  T  T  T  T  T   T   T  S  S   S  E   E    
---------------------------------------------------------------------------------------------|
--17p-14----14-------------------14----------------------------------------------------------|
---------17----17p-16-14h-16h-17----16p-14h-16p-14----14--------------------------------17b--|
---------------------------------------------------16----16-14-16p-15p-14--------------------|
--------------------------------------------------------------------------16-12b-------------|
---------------------------------------------------------------------------------14~---------|


   |-3-|              |---3--|  |---3--|               
   E   Q      S   E   T  T   T  S  S   S  S  S  Q      
------------------------------------------------------|
--15--14~-----Lb-----14------------------15-14--L~----|
-----------------16-----16p-14----14h-16--------------|
-------------------------------16---------------------|
------------------------------------------------------|
------------------------------------------------------|


   |--3--|         |--3--|       |----3---|                  
   S  S  S   S  S  S  S  S  E    S     S  S  S  S  E    E    
---------------14----14-16-16b---Lpbr--L-14-16-14--L~-------|
--15-14-15b--L----17----------------------------------------|
------------------------------------------------------------|
-------------------------------------------------------12/--|
------------------------------------------------------------|
------------------------------------------------------------|


   |--3--|  |---3--|  |--3--|  |--3--|                                                            
   S  S  S  S   S  S  S  S  S  S  S  S  Q       Q          Q       S  E    S    Q        E   E    
---------------------16----16-19-16-19-19b~----19pb----|--19b~-----L-22b--22pb-22pb~-----L---L\--|
-----------17p-16-17----17-----------------------------|-----------------------------------------|
--16----16---------------------------------------------|-----------------------------------------|
-----18------------------------------------------------|-----------------------------------------|
-------------------------------------------------------|-----------------------------------------|
-------------------------------------------------------|-----------------------------------------|


   H         Q    Q       Q    Q    H             H         Q    Q       Q    Q    H          
-----------------------|----------------------|-----------------------|----------------------|
--10~--------9---------|-------7--------------|--10~--------9---------|-------7--------------|
---9~--------9----9----|--6----6----6~--------|---9~--------9----9----|--7----7----7~--------|
------------------9----|--7---------7~--------|------------------9----|--7---------7~--------|
-----------------------|----------------------|-----------------------|----------------------|
-----------------------|----------------------|-----------------------|----------------------|


   H         Q     Q        Q      Q     Q     Q      
------------------------|----------------------------|
--10~--------9~---------|--12~----10~----9~----------|
--(9)--------------9----|----------------------9b----|
------------------------|----------------------------|
------------------------|----------------------------|
------------------------|----------------------------|


  H           T  T  T  T    T  T  T  T    T  T  T T  T  T  T  T  
-----------9g12p-9-------9g12p-9-------9g12p-9------------------|
--7----------------10------------10------------10-9----10p-9----|
----------------------11------------11--------------11-------11-|
----------------------------------------------------------------|
----------------------------------------------------------------|
----------------------------------------------------------------|


                                                               PM PM PM PM PM PM PM PM  
                     |--3--|                                                            
   T  T   T  T  T T  T  T  T T  T S    S   S   Q.       E      E  E  E  E  E  E  E  E   
------------------------------------------------------------|--------------------------|
------------------------------------------------------------|--------2-----------2-----|
--11p-9h-11p-9----9-----------------------11---L~-------L\--|-----2-----2-----2-----2--|
---------------11---11p-9s-7-9p-7--------(11)---------------|--4-----------3-----------|
----------------------------------9\-7g9--------------------|--------------------------|
------------------------------------------------------------|--------------------------|


  PM PM PM PM   PM PM PM PM                             PM PM PM PM PM PM PM PM PM     PM         
  E  E  E  E    E  E  E  E     Q    Q    S S E  Q       S  S  S  S  S  S  S  S  S  S S S  S S E   
----------------------------|------------------------|-------------------------------------------|
--------2-------------------|------------------------|-----------7--0-----7----------7----6------|
-----2-----2----------4-----|--7----7------6-6--6----|--------6--------6-----6--------------6----|
--2----------------4-----4--|--7----7----x-6-6--6----|-----------------------------6---6------6--|
--------------4g6-----------|--5----5----x-4-4--4----|--5--5--------------------4----------------|
----------------------------|------------------------|-----5-------------------------------------|


  Q    E  E  Q    E  E     Q    E  E  Q    E  E     H         Q    E  E    
------------------------|------------------------|------------------------|
------------------------|------------------------|------------------------|
--x---------------------|------------------------|--7S--------9----L--9\--|
--x---------------------|------------------------|--7S--------9----L--9\--|
------------------------|------------------------|--5S--------7----L--7\--|
--2----2--2--4----4--4--|--5----5--5--7----7--7--|------------------------|


  Q    H         E   E       H         Q    Q        Q    Q    H             H         Q    Q      
-------------------------|------------------------|----------------------|------------------------|
-------------------------|--10~--------9----------|-------7--------------|--10~--------9----------|
-------------------------|---9~--------9----9S----|--6----6----6~--------|---9~--------9----9S----|
--4----L~--------Lb--4/--|------------------9S----|--7---------7~--------|------------------9S----|
-------------------------|------------------------|----------------------|------------------------|
-------------------------|------------------------|----------------------|------------------------|


                                                               |---3---|     |---3--|  |---3---|   
  Q    Q    H             H         Q    Q       E   E    E    T   T   T  S  E  E   E  E   E   E   
----------------------|-----------------------|---------------------------------------------------|
-------7--------------|--10---------9---------|-----12~---Lb--10h-12p-10s-9------------9--10--12--|
--7----7----7~--------|---9~--------9----9----|--9--------------------------11--9--11-------------|
--7---------7~--------|------------------9----|--9------------------------------------------------|
----------------------|-----------------------|---------------------------------------------------|
----------------------|-----------------------|---------------------------------------------------|


                           |---3---|      |---3--|                                           
   Q      S  E.     Q      E   E   E      E  E   E  S  T  T   T  T  T  T  Q      E    S   S  
---------12--------------------9------|-----------------------------------------------------|
--12b-------12pb---12~-----Lb-----12--|--10--9--10--9-10p-9h-10p-9--------------------------|
--------------------------------------|----------------------------11p-9-11~-----Lb--13h-14-|
--------------------------------------|-----------------------------------------------------|
--------------------------------------|-----------------------------------------------------|
--------------------------------------|-----------------------------------------------------|


                            |---3---|      |---3---|   |---3---|                         
   Q      E   S   S  Q      E   E   E      E   E   E   E   E   E   S  S  S  S  S  S  E   
---------------------------------------|----------------------14--16----14--------------|
---------------------------------------|----------14--15--17---------17----17----14-17--|
--16~-----L--14p-13--L~------------13--|--14--16------------------------------16--------|
-------------------------------14------|------------------------------------------------|
---------------------------16----------|------------------------------------------------|
---------------------------------------|------------------------------------------------|


                        W                                                 
   Q       Q     Q      S   E.       Q      E   S  S  Q      S  S   S  S  
---------------------------------|---------------------------------16-16-|
---Lbr----17-----L~-----Lb-17b---|--17~-----L--14----14~-----L-----------|
---------------------------------|----------------16-----------16b-------|
---------------------------------|---------------------------------------|
---------------------------------|---------------------------------------|
---------------------------------|---------------------------------------|


   S  E.   E   S  S   E.    S  E    E       H         S   S  E    E    S   S   
--17-19----L--17-----17-----------------|-------------------------------------|
-----------------19-(19)---19--L~--19b--|---L--------17h-19-------------------|
----------------------------------------|-------------------18~---L\--14h-16b-|
----------------------------------------|-------------------------------------|
----------------------------------------|-------------------------------------|
----------------------------------------|-------------------------------------|


                                |--3--|              |---3---|                      
   T  T  T  T  E    S  S  S  S  S  S  S  T  T  T  T  T   T   T  T   T  T  T  T   T  
-----14---------------14-------14--------------------------------------------------|
--14----17-14-17~---L----17-16----17-16-14-------14--------------------------------|
-------------------------------------------17-16----17p-16p-14-16p-14----14--------|
----------------------------------------------------------------------16----16p-14-|
-----------------------------------------------------------------------------------|
-----------------------------------------------------------------------------------|


                                     |------10-----|   |------10-----|   |------9------|   9   9   9
   S  S   S  S   S  S  T   T   T  T  T   T   T  T  T   T   T  T  T   T   T  T  T   T   T   T   T   T
----------------------------------------------------------------------------------------------------
----------------------------------------------------------------------------------------------------
-----14s-13-13s-11----11h-14p-11----11h-14p-11----11h-14p-11----11h-14p-11----11h-14p-11h-14p-11h-14
-------------------14------------14------------11------------11------------14-----------------------
--16------------------------------------------------------------------------------------------------
----------------------------------------------------------------------------------------------------


                                                                            PM PM 
   T  T  T   T  T  T  T   T  T  S  T   T  T   T  T  T  T   T  T  T  S. E    S  S  
---------------------------------------------------------------------------------|
---------------------------------------------------------------------------------|
--11-----------------------------------------------------------------------------|
-----14-11h-13-11-11-----------------------------------------14----14--L\--------|
---------------------14p-12-14-----------12h-14----12-14s-16----16---------------|
-------------------------------14-14~--L--------14-------------------------14-14-|


               |---3--|  |---3--|                                                                   
   T  T  T  T  T  T   T  T   T  T  S  T   T  T  T  T   T  T  T  T  T  T  T  T  T  T  T  T  T  T  S. 
---------------------------------------------------------------------------------------------------|
---------------------------------------------------------------------------------------------------|
-----------------------------------------------14-----------------------------------------------14-|
--------------14------------------14-16p-14-16----16p-15-14----------14----------14----------------|
--16-14-15-16----16p-15-14h-15-16---------------------------16-14-16----16-14-16----16-15-14-16----|
---------------------------------------------------------------------------------------------------|


                                                             T      
   S  E   S  S   T   T  S   S  T  T  T   T   E   E    T   T  T   T  
-------------------------------------------------------------------|
-----16--14-16b--Lp-14-----14-----------16b--L---Lp--14h-16-19p-16-|
-----------------------16b----17-16-14-(14)------------------------|
-------------------------------------------------------------------|
--16---------------------------------------------------------------|
-------------------------------------------------------------------|


             T             T          T                  T          T   T          T  T          T  
                                      |---3---|                                       |---3---|  |--
   S  T   T  T  T   T   T  T   T   S  T   T   T   T   T  T   T   T  T   T  T   T   T  T   T   T  T  
--------------------------------------------------------21p-14h-16----------------------------------
---L-14h-17-24-19p-17p-14-22p-14h-19-22p-19p-14h-19p-14------------17/-21-17p-12h-21-21p-14h-17-19p-
----------------------------------------------------------------------------------------------------
----------------------------------------------------------------------------------------------------
----------------------------------------------------------------------------------------------------
----------------------------------------------------------------------------------------------------


   T                                                                  \1/ \1/               
               |-3-|                                        |---3--|                        
   E    E      E   Q       Q     E   S  S       S  S  S  S  S   S  S  E   E   E   E    E    
--------------------------------------------|-----------------------------------------16b--|
--22b--17pbr--14--17b~-----L-----L--14------|----------------------------------------------|
---------------------------------------16br-|---L--L-14-16-16p-14----14--16--14--12\-------|
--------------------------------------------|---------------------16-------------12\-------|
--------------------------------------------|----------------------------------------------|
--------------------------------------------|----------------------------------------------|


             TP  TP  TP  TP  TP                                                   
                                          |---3---|                               
   Q     E   E   E   E   E   S  T   T     E   E   E    S  S   S   S   H           
---L-----L--16--17--18--19--20-20s-21-|--21--22--22b---L-22b-22b-22b-22pb--------|
--------------------------------------|------------------------------------------|
--------------------------------------|------------------------------------------|
--------------------------------------|------------------------------------------|
--------------------------------------|------------------------------------------|
--------------------------------------|------------------------------------------|


   H         Q    Q       Q    Q    H             H         Q    E  E    
-----------------------|----------------------|-------------------------|
--10~--------9---------|-------7--------------|--10---------9-----------|
---9~--------9----9----|--6----6----6~--------|---9~--------9----9--9\--|
------------------9----|--7---------7~--------|------------------9--9\--|
-----------------------|----------------------|-------------------------|
-----------------------|----------------------|-------------------------|


       PM PM PM PM PM PM  PMPM PM     PM PM PM                                                    
    E  S  S  S  S  S  S   S S  S  S S S  S  S      H         Q    Q       Q    Q    Q      Q      
-----------------------------------------------|-----------------------|-------------------------|
-------7--------9--------10-------9-L----7-----|--10---------9---------|-------9----------12b----|
----------7--------7--------7---------------7--|---9~--------9----9----|--9----9----9~-----------|
--4g7--------7--------7--------7------7--------|------------------9----|--9---------9~-----------|
-----------------------------------------------|-----------------------|-------------------------|
-----------------------------------------------|-----------------------|-------------------------|


          \1/                                                                              
   E.   S Q     S  S  E    S  S  S  S      E.    S  S  T   T  S     S  S  E   S  E.    S   
--------9-L----------------------------|--------------------------------------------------|
--12b----------12-10-12b---------------|--------17--L-------------------------------------|
--------------------------16-14-16-16b-|---L~---------16p-14-16-14g16-16-14--14--L~-------|
---------------------------------------|----------------------------------------------16\-|
---------------------------------------|----------------------------------------------16\-|
---------------------------------------|--------------------------------------------------|


   H         Q    Q        Q    Q    H             H         Q    E  E    
------------------------|----------------------|-------------------------|
--10~--------9----------|-------7--------------|--10---------9-----------|
---9~--------9----9S----|--6----6----6~--------|---9~--------9----9--9\--|
------------------9S----|--7---------7~--------|------------------9--9\--|
------------------------|----------------------|-------------------------|
------------------------|----------------------|-------------------------|


  PM   PM PM PM PM PM PM  PMPM PM PM PM PM PM PM                                                   
  S  S S  S  S  S  S  S   S S  S  S  S  S  S  S      H         Q     Q        Q    Q    H          
-------------------------------------------------|-------------------------|----------------------|
-------7--------9--------10-------9--------7-----|--10~--------9-----------|-------9--------------|
-----7----7--------7--------7--------7--------7--|---9~--------9----(9)----|--9----9----9~--------|
--7----------7--------7--------7--------7--------|-------------------9~----|--9---------9~--------|
-------------------------------------------------|-------------------------|------------7---------|
-------------------------------------------------|-------------------------|----------------------|


                       <                     \1/                                       
  H           H        H           H         E   E   Q         Q     E   E   H         
-----------|-----------2--------|--L-------------9---L~----|---L-----L----------------|
-----------|-----------2--------|--L---------9---L---L~----|---L-----L---L\-----------|
--L--------|-----------2--------|--L---------9---L---L~----|---L-----L---L\-----------|
--L--------|-----------4--------|--L--------11---L---L~----|---L-----L---L\-----------|
--L--------|--------------------|------------9---L---L~----|---L-----L----------------|
-----------|--------------------|--------------------------|--------------------------|

   
  W                                          
-------------------------------------------||
-------------------------------------------||
-------------------------------------------||
-------------------------------------------||
-------------------------------------------||
-------------------------------------------||




Duration Legend
---------------
W - whole
H - half
Q - quarter
E - 8th
S - 16th
T - 32nd
X - 64th
. - note dotted
|-n-|  - n-tuplets


Tablature Legend
----------------
L - tied note
x - dead note
g - grace note
(n) - ghost note
> - accentuded note
NH - natural harmonic
AH - artificial harmonic
TH - tapped harmonic
SH - semi harmonic
PH - pitch harmonic
h - hammer on
p - pull off
b - bend
br - bendRelease
pb - preBend
pbr - preBendRelease
brb - bendReleaseBend
\n/ - tremolo bar dip
\n - tremolo bar dive
-/n - tremolo bar Release up
/n\ - tremolo bar inverted dip
/n - tremolo bar return
-\n - tremolo bar Release down
S - shift slide
s - legato slide
/ -  slide into from below or out of upwards
\ -  slide into from above or out of downwards
~ - vibrato
W - wide vibrato
tr - trill
TP - tremolo picking
T - tapping
S - slap
P - pop
< - fade in
^ - brush up
v - brush down
comments
We did not receive enough feedback on this tab! Please rate:
print report bad tab
1 2 3 4 5
I want to post or [tab]
guest
You may want to rate the tab now too:
select rating
Please do not post tabs as comments. Select "correction" instead!