Oops, an error
Loading. Please wait.

Scotty Doesnt Know Tab

ver3
ver3
More versions @911Tabs.com
43,423 views 27 this week
3 commentsread comments
1 2 3 4 5
excellent!
x 9
Autoscroll
+/-
esc
set tempo
stop
Contributor
Hey! There's an official Ultimate Guitar app which is ideal
for learning songs when you're away from computer. Get the app
WARNING: You are trying to view
                                    content from Ultimate-Guitar.com
                                    in an unauthorized application,
                                    which is prohibited.

                                    Please use an official Ultimate
                                    Guitar Tabs application for iPhone,
                                    iPad or Android to access legitimate
                                    chords, guitar, bass, and drum tabs
                                    from Ultimate-Guitar.com database.

                                    Type "ultimate guitar tabs" in Apple
                                    App Store's or Android Market's
                                    search to find the application.
                              Scotty Doesn't Know                               

Song By: Lustra
Tab by: iShred504



     E  E  E  E  E  E  E  E     E  E  E  E  E  E  E  E   
E||--------------------------|--------------------------|
B||--------------------------|--------------------------|
G||--------------------------|--------------------------|
D||--------5--5--4--4--5--5--|--------5--5--4--4--5--5--|
A||--------------------------|--0--0--------------------|
E||--3--3--------------------|--------------------------|


  E  E  E  E  E  E  E  E     E  E  E  E  E  E  E  E     
--------------------------|---------------------------||
--------------------------|---------------------------||
--------------------------|--------------------------*||
--------5--5--4--4--5--5--|--7--7--5--5--4--4--5--5--*||
--3--3--------------------|---------------------------||
--------------------------|---------------------------||


  E  E  E  E  E  E  E  E     E  E  E  E  E  E  E  E   
--------------------------|--------------------------|
--------------------------|--------------------------|
--------------------------|--------------------------|
--------5--5--4--4--5--5--|--------5--5--4--4--5--5--|
--------------------------|--0--0--------------------|
--3--3--------------------|--------------------------|


  E  E  E  E  E  E  E  E     E  E  E  E  E  E  E  E   
--------------------------|--------------------------|
--------------------------|--------------------------|
--------------------------|--------------------------|
--------5--5--4--4--5--5--|--7--7--5--5--4--4--5--5--|
--3--3--------------------|--------------------------|
--------------------------|--------------------------|


    E  E  E  E  E  E  E  E     E  E  E  E  E  E  E  E   
|---------------------------|--------------------------|
|---------------------------|--------------------------|
|*--------------------------|--4--4--4--4--4--4--4--4--|
|*--5--5--5--5--5--5--5--5--|--4--4--4--4--4--4--4--4--|
|---5--5--5--5--5--5--5--5--|--2--2--2--2--2--2--2--2--|
|---3--3--3--3--3--3--3--3--|--------------------------|


  E  E  E  E  E  E  E  E     E  E  E  E  E  E  E  E     
--------------------------|---------------------------||
--------------------------|---------------------------||
--5--5--5--5--5--5--5--5--|--5--5--5--5--5--5--5--5--*||
--5--5--5--5--5--5--5--5--|--5--5--5--5--5--5--5--5--*||
--3--3--3--3--3--3--3--3--|--3--3--3--3--3--3--3--3---||
--------------------------|---------------------------||


                             PM PM PM PM PM PM PM PM  
  E  E  E  E  E  E  E  E     E  E  E  E  E  E  E  E   
--------------------------|--------------------------|
--------------------------|--------------------------|
--------------------------|--------------------------|
--7--7--7--7--7--7--7--7--|--------------------------|
--7--7--7--7--7--7--7--7--|--5--5--5--5--5--5--5--5--|
--5--5--5--5--5--5--5--5--|--3--3--3--3--3--3--3--3--|


  PM PM PM PM PM PM PM PM     PM  PM  PM  PM  PM  PM  PM  PM  
  E  E  E  E  E  E  E  E      E   E   E   E   E   E   E   E   
--------------------------|----------------------------------|
--------------------------|----------------------------------|
--------------------------|----------------------------------|
--------------------------|----------------------------------|
--7--7--7--7--7--7--7--7--|--10--10--10--10--10--10--10--10--|
--5--5--5--5--5--5--5--5--|---8---8---8---8---8---8---8---8--|


  PM        PM                PM PM PM PM PM PM PM PM  
  E   E  E  E   Q     Q       E  E  E  E  E  E  E  E   
---------------------------|--------------------------|
---------------11----------|--------------------------|
-----10--------10----10----|--------------------------|
-----10---------8----10----|--------------------------|
--8---8-----8---------8----|--5--5--5--5--5--5--5--5--|
---------------------------|--3--3--3--3--3--3--3--3--|


  PM PM PM PM PM PM PM PM     PM  PM  PM  PM  PM  PM  PM  PM  
  E  E  E  E  E  E  E  E      E   E   E   E   E   E   E   E   
--------------------------|----------------------------------|
--------------------------|----------------------------------|
--------------------------|----------------------------------|
--------------------------|----------------------------------|
--7--7--7--7--7--7--7--7--|--10--10--10--10--10--10--10--10--|
--5--5--5--5--5--5--5--5--|---8---8---8---8---8---8---8---8--|


   E   E   E   E   E   E   E   E       E  E  E  E  E  E  E  E   
----------------------------------||---------------------------|
----------------------------------||---------------------------|
--10--10--10--10------------------||*--------------------------|
--10--10--10--10--10--10--10--10--||*--5--5--5--5--5--5--5--5--|
---8---8---8---8--10--10--10--10--||---5--5--5--5--5--5--5--5--|
-------------------8---8---8---8--||---3--3--3--3--3--3--3--3--|


  E  E  E  E  E  E  E  E     E  E  E  E  E  E  E  E   
--------------------------|--------------------------|
--------------------------|--------------------------|
--4--4--4--4--4--4--4--4--|--5--5--5--5--5--5--5--5--|
--4--4--4--4--4--4--4--4--|--5--5--5--5--5--5--5--5--|
--2--2--2--2--2--2--2--2--|--3--3--3--3--3--3--3--3--|
--------------------------|--------------------------|


  E  E  E  E  E  E  E  E       E  E  E  E  E  E  E  E   
---------------------------||--------------------------|
---------------------------||--------------------------|
--5--5--5--5--5--5--5--5--*||--------------------------|
--5--5--5--5--5--5--5--5--*||--7--7--7--7--7--7--7--7--|
--3--3--3--3--3--3--3--3---||--7--7--7--7--7--7--7--7--|
---------------------------||--5--5--5--5--5--5--5--5--|


  PM PM PM PM PM PM PM PM    PM PM PM PM PM PM PM PM  
  E  E  E  E  E  E  E  E     E  E  E  E  E  E  E  E   
--------------------------|--------------------------|
--------------------------|--------------------------|
--------------------------|--------------------------|
--------------------------|--------------------------|
--5--5--5--5--5--5--5--5--|--7--7--7--7--7--7--7--7--|
--3--3--3--3--3--3--3--3--|--5--5--5--5--5--5--5--5--|


   PM  PM  PM  PM  PM  PM  PM  PM    PM        PM              
   E   E   E   E   E   E   E   E     E   E  E  E   Q     Q     
----------------------------------|---------------------------|
----------------------------------|---------------11----------|
----------------------------------|-----10--------10----10----|
----------------------------------|-----10---------8----10----|
--10--10--10--10--10--10--10--10--|--8---8-----8---------8----|
---8---8---8---8---8---8---8---8--|---------------------------|


  PM PM PM PM PM PM PM PM    PM PM PM PM PM PM PM PM  
  E  E  E  E  E  E  E  E     E  E  E  E  E  E  E  E   
--------------------------|--------------------------|
--------------------------|--------------------------|
--------------------------|--------------------------|
--------------------------|--------------------------|
--5--5--5--5--5--5--5--5--|--7--7--7--7--7--7--7--7--|
--3--3--3--3--3--3--3--3--|--5--5--5--5--5--5--5--5--|


   PM  PM  PM  PM  PM  PM  PM  PM                                  
   E   E   E   E   E   E   E   E      E   E  E  E   E  E   E   E   
----------------------------------|-------------------------------|
----------------------------------|----------------11-----10------|
----------------------------------|--10--10--------10-----10------|
----------------------------------|--10--10--------10---------10--|
--10--10--10--10--10--10--10--10--|----------8--------------------|
---8---8---8---8---8---8---8---8--|-------------------------------|


  PM PM PM PM PM PM PM PM    PM PM PM PM PM PM PM PM  
  E  E  E  E  E  E  E  E     E  E  E  E  E  E  E  E   
--------------------------|--------------------------|
--------------------------|--------------------------|
--------------------------|--------------------------|
--------------------------|--------------------------|
--5--5--5--5--5--5--5--5--|--7--7--7--7--7--7--7--7--|
--3--3--3--3--3--3--3--3--|--5--5--5--5--5--5--5--5--|


   PM  PM  PM  PM  PM  PM  PM  PM    PM        PM              
   E   E   E   E   E   E   E   E     E   E  E  E   Q     Q     
----------------------------------|---------------------------|
----------------------------------|---------------11----------|
----------------------------------|-----10--------10----10----|
----------------------------------|-----10---------8----10----|
--10--10--10--10--10--10--10--10--|--8---8-----8---------8----|
---8---8---8---8---8---8---8---8--|---------------------------|


  PM PM PM PM PM PM PM PM    PM PM PM PM PM PM PM PM  
  E  E  E  E  E  E  E  E     E  E  E  E  E  E  E  E   
--------------------------|--------------------------|
--------------------------|--------------------------|
--------------------------|--------------------------|
--------------------------|--------------------------|
--5--5--5--5--5--5--5--5--|--7--7--7--7--7--7--7--7--|
--3--3--3--3--3--3--3--3--|--5--5--5--5--5--5--5--5--|


   PM  PM  PM  PM  PM  PM  PM  PM                                     
   E   E   E   E   E   E   E   E      E   E   E   E   E   E   E   E   
----------------------------------|----------------------------------|
----------------------------------|----------------------------------|
----------------------------------|--10--10--10--10------------------|
----------------------------------|--10--10--10--10--10--10--10--10--|
--10--10--10--10--10--10--10--10--|---8---8---8---8--10--10--10--10--|
---8---8---8---8---8---8---8---8--|-------------------8---8---8---8--|


    E  E  E  E  E  E  E  E     E  E  E  E  E  E  E  E   
|---------------------------|--------------------------|
|---------------------------|--------------------------|
|*--------------------------|--4--4--4--4--4--4--4--4--|
|*--5--5--5--5--5--5--5--5--|--4--4--4--4--4--4--4--4--|
|---5--5--5--5--5--5--5--5--|--2--2--2--2--2--2--2--2--|
|---3--3--3--3--3--3--3--3--|--------------------------|


  E  E  E  E  E  E  E  E     E  E  E  E  E  E  E  E     
--------------------------|---------------------------||
--------------------------|---------------------------||
--5--5--5--5--5--5--5--5--|--5--5--5--5--5--5--5--5--*||
--5--5--5--5--5--5--5--5--|--5--5--5--5--5--5--5--5--*||
--3--3--3--3--3--3--3--3--|--3--3--3--3--3--3--3--3---||
--------------------------|---------------------------||


  E  E  E  E  E  E  E  E       E  E  E  E  E  E  E  E   
--------------------------||---------------------------|
--------------------------||---------------------------|
--------------------------||*--------------------------|
--7--7--7--7--7--7--7--7--||*--5--5--5--5--5--5--5--5--|
--7--7--7--7--7--7--7--7--||---5--5--5--5--5--5--5--5--|
--5--5--5--5--5--5--5--5--||---3--3--3--3--3--3--3--3--|


  E  E  E  E  E  E  E  E     E  E  E  E  E  E  E  E   
--------------------------|--------------------------|
--------------------------|--------------------------|
--4--4--4--4--4--4--4--4--|--5--5--5--5--5--5--5--5--|
--4--4--4--4--4--4--4--4--|--5--5--5--5--5--5--5--5--|
--2--2--2--2--2--2--2--2--|--3--3--3--3--3--3--3--3--|
--------------------------|--------------------------|


  E  E  E  E  E  E  E  E       E  E  E  E  E  E  E  E   
---------------------------||--------------------------|
---------------------------||--------------------------|
--5--5--5--5--5--5--5--5--*||--------------------------|
--5--5--5--5--5--5--5--5--*||--7--7--7--7--7--7--7--7--|
--3--3--3--3--3--3--3--3---||--7--7--7--7--7--7--7--7--|
---------------------------||--5--5--5--5--5--5--5--5--|


  Q    Q    Q     E   E      Q     Q    Q    Q       Q    Q    Q     E   E   
-------------------------|------------------------|-------------------------|
-------------------------|--12----10--------------|-------------------------|
------------------x---x--|--12----12--------------|------------------x---x--|
-------------------------|------------------------|-------------------------|
-------------------------|------------------------|-------------------------|
-------------------------|------------------------|-------------------------|


   Q     Q     Q    Q       E  E  E  E  E  E  E  E     E  E  E  E  E  E  E  E   
-------------------------|--------------------------|--------------------------|
--12---------------------|--------------------------|--------------------------|
--------12b--------------|--4-----4-----4-----4-----|--5-----5-----5-----5-----|
-------------------------|--4-----4-----4-----4-----|--5-----5-----5-----5-----|
-------------------------|--2-----2-----2-----2-----|--3-----3-----3-----3-----|
-------------------------|--------------------------|--------------------------|


                             PM PM PM PM PM PM PM PM  
  E  E  E  E  E  E  E  E     E  E  E  E  E  E  E  E   
--------------------------|--------------------------|
--------------------------|--------------------------|
--2-----2-----2-----2-----|--5--5--5--5--5--5--5--5--|
--2-----2-----2-----2-----|--5--5--5--5--5--5--5--5--|
--0-----0-----0-----0-----|--3--3--3--3--3--3--3--3--|
--------------------------|--------------------------|


  E  E  E  E  E  E  E  E     E  E  E  E  E  E  E  E   
--------------------------|--------------------------|
--------------------------|--------------------------|
--------------------------|--------------------------|
--------5--5--4--4--5--5--|--------5--5--4--4--5--5--|
--------------------------|--0--0--------------------|
--3--3--------------------|--------------------------|


  E  E  E  E  E  E  E  E     E  E  E  E  E  E  E  E   
--------------------------|--------------------------|
--------------------------|--------------------------|
--------------------------|--------------------------|
--------5--5--4--4--5--5--|--7--7--5--5--4--4--5--5--|
--3--3--------------------|--------------------------|
--------------------------|--------------------------|


  E  E  E  E  E  E  E  E     E  E  E  E  E  E  E  E   
--------------------------|--------------------------|
--------------------------|--------------------------|
--------------------------|--------------------------|
--------5--5--4--4--5--5--|--------5--5--4--4--5--5--|
--------------------------|--0--0--------------------|
--3--3--------------------|--------------------------|


  E  E  E  E  E  E  E  E     E  E  E  E  E  E  E  E   
--------------------------|--------------------------|
--------------------------|--------------------------|
--------------------------|--------------------------|
--------5--5--4--4--5--5--|--7--7--5--5--4--4--5--5--|
--3--3--------------------|--------------------------|
--------------------------|--------------------------|


    E  E  E  E  E  E  E  E     E  E  E  E  E  E  E  E   
|---------------------------|--------------------------|
|---------------------------|--------------------------|
|*--------------------------|--4--4--4--4--4--4--4--4--|
|*--5--5--5--5--5--5--5--5--|--4--4--4--4--4--4--4--4--|
|---5--5--5--5--5--5--5--5--|--2--2--2--2--2--2--2--2--|
|---3--3--3--3--3--3--3--3--|--------------------------|


  E  E  E  E  E  E  E  E     E  E  E  E  E  E  E  E   
--------------------------|--------------------------|
--------------------------|--------------------------|
--5--5--5--5--5--5--5--5--|--5--5--5--5--5--5--5--5--|
--5--5--5--5--5--5--5--5--|--5--5--5--5--5--5--5--5--|
--3--3--3--3--3--3--3--3--|--3--3--3--3--3--3--3--3--|
--------------------------|--------------------------|


  E  E  E  E  E  E  E  E     E  E  E  E  E  E  E  E   
--------------------------|--------------------------|
--------------------------|--------------------------|
--------------------------|--4--4--4--4--4--4--4--4--|
--5--5--5--5--5--5--5--5--|--4--4--4--4--4--4--4--4--|
--5--5--5--5--5--5--5--5--|--2--2--2--2--2--2--2--2--|
--3--3--3--3--3--3--3--3--|--------------------------|


  E  E  E  E  E  E  E  E     E  E  E  E  E  E  E  E     
--------------------------|---------------------------||
--------------------------|---------------------------||
--5--5--5--5--5--5--5--5--|--5--5--5--5--5--5--5--5--*||
--5--5--5--5--5--5--5--5--|--5--5--5--5--5--5--5--5--*||
--3--3--3--3--3--3--3--3--|--3--3--3--3--3--3--3--3---||
--------------------------|---------------------------||


  E  E  E  E  E  E  E  E     E  E  E  E  E  E  E  E   
--------------------------|--------------------------|
--------------------------|--------------------------|
--------------------------|--4--4--4--4--4--4--4--4--|
--5--5--5--5--5--5--5--5--|--4--4--4--4--4--4--4--4--|
--5--5--5--5--5--5--5--5--|--2--2--2--2--2--2--2--2--|
--3--3--3--3--3--3--3--3--|--------------------------|


  E  E  E  E  E  E  E  E     E  E  E  E  E  E  E  E   
--------------------------|--------------------------|
--------------------------|--------------------------|
--5--5--5--5--5--5--5--5--|--5--5--5--5--5--5--5--5--|
--5--5--5--5--5--5--5--5--|--5--5--5--5--5--5--5--5--|
--3--3--3--3--3--3--3--3--|--3--3--3--3--3--3--3--3--|
--------------------------|--------------------------|


  E  E  E  E  E  E  E  E     E  E  E  E  E  E  E  E   
--------------------------|--------------------------|
--------------------------|--------------------------|
--------------------------|--4--4--4--4--4--4--4--4--|
--5--5--5--5--5--5--5--5--|--4--4--4--4--4--4--4--4--|
--5--5--5--5--5--5--5--5--|--2--2--2--2--2--2--2--2--|
--3--3--3--3--3--3--3--3--|--------------------------|


  E  E  E  E  E  E  E  E     E  E  E  E  E  E  E  E     W                 
--------------------------|--------------------------|-------------------|
--------------------------|--------------------------|-------------------|
--5--5--5--5--5--5--5--5--|--5--5--5--5--5--5--5--5--|-------------------|
--5--5--5--5--5--5--5--5--|--5--5--5--5--5--5--5--5--|--5----------------|
--3--3--3--3--3--3--3--3--|--3--3--3--3--3--3--3--3--|--5----------------|
--------------------------|--------------------------|--3----------------|



IF YOU HAVE A SECOND GUITARIST:


     E  E  Q    H           E  E  Q    H            E   E  Q    H         
E||----------------------|----------------------|------------------------|
B||----------------------|----------------------|------------------------|
G||----------------------|----------------------|------------------------|
D||----------------------|----------------------|------------------------|
A||--5--5----------------|--7--7----------------|--10--10----------------|
E||--3--3----------------|--5--5----------------|---8---8----------------|


  W                     E  E  Q    H           E  E  Q    H         
--------------------||----------------------|----------------------|
--------------------||----------------------|----------------------|
-------------------*||----------------------|----------------------|
-------------------*||----------------------|----------------------|
--------------------||--5--5----------------|--7--7----------------|
--------------------||--3--3----------------|--5--5----------------|


   E   E  Q    H           W                     E  E  E  E  E  E  E  E   
------------------------|-------------------||---------------------------|
------------------------|-------------------||---------------------------|
------------------------|-------------------||*--------------------------|
------------------------|-------------------||*--5--5--5--5--5--5--5--5--|
--10--10----------------|-------------------||---5--5--5--5--5--5--5--5--|
---8---8----------------|-------------------||---3--3--3--3--3--3--3--3--|


  E  E  E  E  E  E  E  E     E  E  E  E  E  E  E  E   
--------------------------|--------------------------|
--------------------------|--------------------------|
--4--4--4--4--4--4--4--4--|--5--5--5--5--5--5--5--5--|
--4--4--4--4--4--4--4--4--|--5--5--5--5--5--5--5--5--|
--2--2--2--2--2--2--2--2--|--3--3--3--3--3--3--3--3--|
--------------------------|--------------------------|


  E  E  E  E  E  E  E  E       E  E  E  E  E  E  E  E   
---------------------------||--------------------------|
---------------------------||--------------------------|
--5--5--5--5--5--5--5--5--*||--------------------------|
--5--5--5--5--5--5--5--5--*||--7--7--7--7--7--7--7--7--|
--3--3--3--3--3--3--3--3---||--7--7--7--7--7--7--7--7--|
---------------------------||--5--5--5--5--5--5--5--5--|


  PM PM PM PM PM PM PM PM    PM PM PM PM PM PM PM PM  
  E  E  E  E  E  E  E  E     E  E  E  E  E  E  E  E   
--------------------------|--------------------------|
--------------------------|--------------------------|
--------------------------|--------------------------|
--------------------------|--------------------------|
--5--5--5--5--5--5--5--5--|--7--7--7--7--7--7--7--7--|
--3--3--3--3--3--3--3--3--|--5--5--5--5--5--5--5--5--|


   PM  PM  PM  PM  PM  PM  PM  PM                      
   E   E   E   E   E   E   E   E     W                 
----------------------------------|-------------------|
----------------------------------|-------------------|
----------------------------------|-------------------|
----------------------------------|-------------------|
--10--10--10--10--10--10--10--10--|-------------------|
---8---8---8---8---8---8---8---8--|-------------------|


  PM PM PM PM PM PM PM PM    PM PM PM PM PM PM PM PM  
  E  E  E  E  E  E  E  E     E  E  E  E  E  E  E  E   
--------------------------|--------------------------|
--------------------------|--------------------------|
--------------------------|--------------------------|
--------------------------|--------------------------|
--5--5--5--5--5--5--5--5--|--7--7--7--7--7--7--7--7--|
--3--3--3--3--3--3--3--3--|--5--5--5--5--5--5--5--5--|


   PM  PM  PM  PM  PM  PM  PM  PM                                     
   E   E   E   E   E   E   E   E      E   E   E   E   E   E   E   E   
----------------------------------|----------------------------------|
----------------------------------|----------------------------------|
----------------------------------|--10--10--10--10------------------|
----------------------------------|--10--10--10--10--10--10--10--10--|
--10--10--10--10--10--10--10--10--|---8---8---8---8--10--10--10--10--|
---8---8---8---8---8---8---8---8--|-------------------8---8---8---8--|


    E  E  E  E  E  E  E  E     E  E  E  E  E  E  E  E   
|---------------------------|--------------------------|
|---------------------------|--------------------------|
|*--------------------------|--4--4--4--4--4--4--4--4--|
|*--5--5--5--5--5--5--5--5--|--4--4--4--4--4--4--4--4--|
|---5--5--5--5--5--5--5--5--|--2--2--2--2--2--2--2--2--|
|---3--3--3--3--3--3--3--3--|--------------------------|


  E  E  E  E  E  E  E  E     E  E  E  E  E  E  E  E     
--------------------------|---------------------------||
--------------------------|---------------------------||
--5--5--5--5--5--5--5--5--|--5--5--5--5--5--5--5--5--*||
--5--5--5--5--5--5--5--5--|--5--5--5--5--5--5--5--5--*||
--3--3--3--3--3--3--3--3--|--3--3--3--3--3--3--3--3---||
--------------------------|---------------------------||


                             PM PM PM PM PM PM PM PM  
  E  E  E  E  E  E  E  E     E  E  E  E  E  E  E  E   
--------------------------|--------------------------|
--------------------------|--------------------------|
--------------------------|--------------------------|
--7--7--7--7--7--7--7--7--|--------------------------|
--7--7--7--7--7--7--7--7--|--5--5--5--5--5--5--5--5--|
--5--5--5--5--5--5--5--5--|--3--3--3--3--3--3--3--3--|


  PM PM PM PM PM PM PM PM     PM  PM  PM  PM  PM  PM  PM  PM  
  E  E  E  E  E  E  E  E      E   E   E   E   E   E   E   E   
--------------------------|----------------------------------|
--------------------------|----------------------------------|
--------------------------|----------------------------------|
--------------------------|----------------------------------|
--7--7--7--7--7--7--7--7--|--10--10--10--10--10--10--10--10--|
--5--5--5--5--5--5--5--5--|---8---8---8---8---8---8---8---8--|


                      PM PM PM PM PM PM PM PM    PM PM PM PM PM PM PM PM  
  W                   E  E  E  E  E  E  E  E     E  E  E  E  E  E  E  E   
-------------------|--------------------------|--------------------------|
-------------------|--------------------------|--------------------------|
-------------------|--------------------------|--------------------------|
-------------------|--------------------------|--------------------------|
-------------------|--5--5--5--5--5--5--5--5--|--7--7--7--7--7--7--7--7--|
-------------------|--3--3--3--3--3--3--3--3--|--5--5--5--5--5--5--5--5--|


   PM  PM  PM  PM  PM  PM  PM  PM                      
   E   E   E   E   E   E   E   E     W                 
----------------------------------|-------------------|
----------------------------------|-------------------|
----------------------------------|-------------------|
----------------------------------|-------------------|
--10--10--10--10--10--10--10--10--|-------------------|
---8---8---8---8---8---8---8---8--|-------------------|


  PM PM PM PM PM PM PM PM    PM PM PM PM PM PM PM PM  
  E  E  E  E  E  E  E  E     E  E  E  E  E  E  E  E   
--------------------------|--------------------------|
--------------------------|--------------------------|
--------------------------|--------------------------|
--------------------------|--------------------------|
--5--5--5--5--5--5--5--5--|--7--7--7--7--7--7--7--7--|
--3--3--3--3--3--3--3--3--|--5--5--5--5--5--5--5--5--|


   PM  PM  PM  PM  PM  PM  PM  PM                      
   E   E   E   E   E   E   E   E     W                 
----------------------------------|-------------------|
----------------------------------|-------------------|
----------------------------------|-------------------|
----------------------------------|-------------------|
--10--10--10--10--10--10--10--10--|-------------------|
---8---8---8---8---8---8---8---8--|-------------------|


  PM PM PM PM PM PM PM PM    PM PM PM PM PM PM PM PM  
  E  E  E  E  E  E  E  E     E  E  E  E  E  E  E  E   
--------------------------|--------------------------|
--------------------------|--------------------------|
--------------------------|--------------------------|
--------------------------|--------------------------|
--5--5--5--5--5--5--5--5--|--7--7--7--7--7--7--7--7--|
--3--3--3--3--3--3--3--3--|--5--5--5--5--5--5--5--5--|


   PM  PM  PM  PM  PM  PM  PM  PM                                     
   E   E   E   E   E   E   E   E      E   E   E   E   E   E   E   E   
----------------------------------|----------------------------------|
----------------------------------|----------------------------------|
----------------------------------|--10--10--10--10------------------|
----------------------------------|--10--10--10--10--10--10--10--10--|
--10--10--10--10--10--10--10--10--|---8---8---8---8--10--10--10--10--|
---8---8---8---8---8---8---8---8--|-------------------8---8---8---8--|


    E  E  E  E  E  E  E  E     E  E  E  E  E  E  E  E   
|---------------------------|--------------------------|
|---------------------------|--------------------------|
|*--------------------------|--4--4--4--4--4--4--4--4--|
|*--5--5--5--5--5--5--5--5--|--4--4--4--4--4--4--4--4--|
|---5--5--5--5--5--5--5--5--|--2--2--2--2--2--2--2--2--|
|---3--3--3--3--3--3--3--3--|--------------------------|


  E  E  E  E  E  E  E  E     E  E  E  E  E  E  E  E     
--------------------------|---------------------------||
--------------------------|---------------------------||
--5--5--5--5--5--5--5--5--|--5--5--5--5--5--5--5--5--*||
--5--5--5--5--5--5--5--5--|--5--5--5--5--5--5--5--5--*||
--3--3--3--3--3--3--3--3--|--3--3--3--3--3--3--3--3---||
--------------------------|---------------------------||


  E  E  E  E  E  E  E  E       E  E  E  E  E  E  E  E   
--------------------------||---------------------------|
--------------------------||---------------------------|
--------------------------||*--------------------------|
--7--7--7--7--7--7--7--7--||*--5--5--5--5--5--5--5--5--|
--7--7--7--7--7--7--7--7--||---5--5--5--5--5--5--5--5--|
--5--5--5--5--5--5--5--5--||---3--3--3--3--3--3--3--3--|


  E  E  E  E  E  E  E  E     E  E  E  E  E  E  E  E   
--------------------------|--------------------------|
--------------------------|--------------------------|
--4--4--4--4--4--4--4--4--|--5--5--5--5--5--5--5--5--|
--4--4--4--4--4--4--4--4--|--5--5--5--5--5--5--5--5--|
--2--2--2--2--2--2--2--2--|--3--3--3--3--3--3--3--3--|
--------------------------|--------------------------|


  E  E  E  E  E  E  E  E       E  E  E  E  E  E  E  E   
---------------------------||--------------------------|
---------------------------||--------------------------|
--5--5--5--5--5--5--5--5--*||--------------------------|
--5--5--5--5--5--5--5--5--*||--7--7--7--7--7--7--7--7--|
--3--3--3--3--3--3--3--3---||--7--7--7--7--7--7--7--7--|
---------------------------||--5--5--5--5--5--5--5--5--|


  Q    Q    Q     E   E      Q     Q    Q    Q       Q    Q    Q     E   E   
-------------------------|------------------------|-------------------------|
-------------------------|--12----10--------------|-------------------------|
------------------x---x--|--12----12--------------|------------------x---x--|
-------------------------|------------------------|-------------------------|
-------------------------|------------------------|-------------------------|
-------------------------|------------------------|-------------------------|


   Q     Q     Q    Q                                                     
-------------------------|-------|-------|-------|-------|-------|-------|
--12---------------------|-------|-------|-------|-------|-------|-------|
--------12b--------------|-------|-------|-------|-------|-------|-------|
-------------------------|-------|-------|-------|-------|-------|-------|
-------------------------|-------|-------|-------|-------|-------|-------|
-------------------------|-------|-------|-------|-------|-------|-------|


                   Pickslide                                    
                   S        S E   S  S E   S  S E   S   S  S S  
-------|-------|-----------------------------------------------|
-------|-------|-----------------------------------------------|
-------|-------|---x--------------x--------x--------x---x------|
-------|-------|---x--------------x--------x--------x---x------|
-------|-------|---x--------------x--------x--------x---x------|
-------|-------|--24S------------24S------24S------24S-24S-----|


   W                                           W                  
---------------------|-------|-----------||----------------------|
---------------------|-------|-----------||----------------------|
---x-----------------|-------|-----------||*--14b----------------|
---x-----------------|-------|-----------||*---------------------|
---x-----------------|-------|-----------||----------------------|
--24S----------------|-------|-----------||----------------------|


   W                    W                    Q     Q     Q     Q     
--------------------|--------------------|--------------------------|
--------------------|--------------------|--------------------------|
--14----------------|--12----------------|--------------------12----|
--------------------|--------------------|--14----12----14----------|
--------------------|--------------------|--------------------------|
--------------------|--------------------|--------------------------|


   W                     W                    W                 
---------------------|--------------------|--------------------|
---------------------|--------------------|--------------------|
--14b----------------|--14----------------|--12----------------|
---------------------|--------------------|--------------------|
---------------------|--------------------|--------------------|
---------------------|--------------------|--------------------|


   Q     Q     Q     Q          W                     W                 
---------------------------||--17b----------------|--17----------------|
---------------------------||---------------------|--------------------|
--------------------12----*||---------------------|--------------------|
--14----12----14----------*||---------------------|--------------------|
---------------------------||---------------------|--------------------|
---------------------------||---------------------|--------------------|


   W                    Q     Q     Q     Q        W                  
--15----------------|--------------------15----|--17b----------------|
--------------------|--17----15----17----------|---------------------|
--------------------|--------------------------|---------------------|
--------------------|--------------------------|---------------------|
--------------------|--------------------------|---------------------|
--------------------|--------------------------|---------------------|


   W                    W                    Q     Q     Q     Q     
--17----------------|--15----------------|--------------------15----|
--------------------|--------------------|--17----15----17----------|
--------------------|--------------------|--------------------------|
--------------------|--------------------|--------------------------|
--------------------|--------------------|--------------------------|
--------------------|--------------------|--------------------------|


   W                                      
--15----------------|-------------------||
--------------------|-------------------||
--------------------|-------------------||
--------------------|-------------------||
--------------------|-------------------||
--------------------|-------------------||




Note Duration Legend
---------------
W - whole
H - half
Q - quarter
E - 8th
S - 16th
T - 32nd
X - 64th
. - note dotted
|-n-|  - n-tuplets


Tablature Legend
----------------
x - dead note
g - grace note
(n) - ghost note
> - accentuded note
NH - natural harmonic
AH - artificial harmonic
TH - tapped harmonic
SH - semi harmonic
PH - pitch harmonic
h - hammer on
p - pull off
b - bend
br - bendRelease
pb - preBend
pbr - preBendRelease
brb - bendReleaseBend
\n/ - tremolo bar dip
\n - tremolo bar dive
-/n - tremolo bar Release up
/n\ - tremolo bar inverted dip
/n - tremolo bar return
-\n - tremolo bar Release down
S - shift slide
s - legato slide
/ -  slide into from below or out of upwards
\ -  slide into from above or out of downwards
comments
print report bad tab
3 comments total.
+1 reply
fmljc2009 wrote on September 23 2009, 07:59 pm

Great tab of a fun song, thanks alot and keep'm coming:)

0 reply
smartflight wrote on March 7 2010, 08:18 am

Great tab..thanks for covering the high notes in the end! And the shrilling sound (8 10 10 / 8 10 11) in between! :)

0 reply
FingerFud wrote on August 31 2012, 12:15 pm

Great tab! Well worth 5 stars!

I want to post or [tab]
guest
You may want to rate the tab now too:
select rating
Please do not post tabs as comments. Select "correction" instead!