Oops, an error
Loading. Please wait.

Crossroads Live Bass Tab

ver1
ver1

Whole song

Interactive

More versions @911Tabs.com
1,043 views 1 this week
2 commentsread comments
1 2 3 4 5
please rate
add to favorites launch autoscroll
font size
0
reset
Autoscroll
+/-
esc
set tempo
stop
WARNING: You are trying to view
                                    content from Ultimate-Guitar.com
                                    in an unauthorized application,
                                    which is prohibited.

                                    Please use an official Ultimate
                                    Guitar Tabs application for iPhone,
                                    iPad or Android to access legitimate
                                    chords, guitar, bass, and drum tabs
                                    from Ultimate-Guitar.com database.

                                    Type "ultimate guitar tabs" in Apple
                                    App Store's or Android Market's
                                    search to find the application.
Band: Lynyrd Skynyrd
Song: Crossroads (Live)
Album: One More From The Road
Tabbed by: Allansfirebird





Leon Wilkeson
             E  E  E  E  E  E  E  E      E  E  E  E  E  E   E  E    
G||-------|---------------------------|----------------------------|
D||-------|-----7--5--7--L--5---------|-----7-----7--L-------------|
A||-------|-----------------------3b--|--0--------------3b-----3b--|
E||-------|---------------------------|----------------------------|


  E  E  E  E  E  E   E  E      E  E  E  E  E  E   E  E   
----------------------------|---------------------------|
-----7-----7--L-------------|-----7--5--7---------------|
--0--------------3b-----3b--|--0--------------3b-----0--|
----------------------------|---------------------------|


  E  S E  S E  E  S E  S E     E  S E  S E  E  S E  S E   
-----7------7-------7-------|-----7------7-------7-------|
-------7-------5-------7----|-------7-------5-------7----|
--5-------5-------5------5--|--5-------5-------5------5--|
----------------------------|----------------------------|


  E  E  E  E  S S E  E  E     E  E  E  E  S S E  E  E   
---------------------------|---------------------------|
-----7--5--7--L-5-7--5-----|-----7--5--7--L-5-7--5-----|
--0---------------------3--|--0---------------------3--|
---------------------------|---------------------------|


  E  E  E  E  E  E  E  E     E  E  E  E  E  E  E  E   
--------------------------|--------------------------|
--------------------------|--------------------------|
--------------2--2--2--2--|-----5--5--5--5--5--5--5--|
--0--0--0--0--------------|--------------------------|


  E  E  E  E  S S E  E  E     E  E  E  E  S S E  E  E   
---------------------------|---------------------------|
-----7--5--7--L-5-7--5-----|-----7--5--7--L-5-7--5-----|
--0---------------------3--|--0---------------------3--|
---------------------------|---------------------------|


  E  E  E  E  S S E  E  E     E  E  E  E  S S E  E  S S  
---------------------------|-----7--5--7--L-5-7--5------|
-----7--5--7--L-5-7--5-----|----------------------------|
--0---------------------3--|--5---------------------5-7-|
---------------------------|----------------------------|


  E  E  E  E  S S E  E  E     E  E  E  E  S S E  E  E   
---------------------------|---------------------------|
-----7--5--7--L-5-7--5-----|-----7--5--7--L-5-7--5-----|
--0---------------------3--|--0---------------------3--|
---------------------------|---------------------------|


  E  E  E  E  S S E  E  S S    E  E  E  E  S S E  E  S S  
-----7--5--7--L-5-7--5------|-----7--5--7--L-5-7--5------|
----------------------------|----------------------------|
--5---------------------5-7-|--5---------------------5-7-|
----------------------------|----------------------------|


  E  E  E  E  S S E  E  E     E  E  E  E  S S E  E  E   
---------------------------|---------------------------|
-----7--5--7--L-5-7--5-----|-----7--5--7--L-5-7--5-----|
--0---------------------3--|--0---------------------3--|
---------------------------|---------------------------|


  E  E  E  E  E  E  E  E     E  E  E  E  E  E  E  E   
--------------------------|--------------------------|
--------------2--2--2--2--|--------------------------|
--2--2--2--2--------------|-----5--5--5--5--5--5--5--|
--------------------------|--------------------------|


  E  E  E  E  S S E  E  E     E  E  E  E  S S E  E  E   
---------------------------|---------------------------|
-----7--5--7--L-5-7--5-----|-----7--5--7--L-5-7--5-----|
--0---------------------3--|--0---------------------3--|
---------------------------|---------------------------|


  E  E  E  E  S S E  E  E     E  E  E  E  S S E  E  S S  
---------------------------|-----7--5--7--L-5-7--5------|
-----7--5--7--L-5-7--5-----|----------------------------|
--0---------------------3--|--5---------------------5-7-|
---------------------------|----------------------------|


  E  E  E  E  S S E  E  E     E  E  E  E  S S E  E  E   
---------------------------|---------------------------|
-----7--5--7--L-5-7--5-----|-----7--5--7--L-5-7--5-----|
--0---------------------3--|--0---------------------3--|
---------------------------|---------------------------|


  E  E  E  E  S S E  E  S S    E  E  E  E  S S E  E  S S  
-----7--5--7--L-5-7--5------|-----7--5--7--L-5-7--5------|
----------------------------|----------------------------|
--5---------------------5-7-|--5---------------------5-7-|
----------------------------|----------------------------|


  E  E  E  E  S S E  E  E     E  E  E  E  S S E  E  E   
---------------------------|---------------------------|
-----7--5--7--L-5-7--5-----|-----7--5--7--L-5-7--5-----|
--0---------------------3--|--0---------------------3--|
---------------------------|---------------------------|


  E  E  E  E  E  E  E  E     E  E  E  E  E  E  E  E   
--------------------------|--------------------------|
--------------2--2--2--2--|--------------------------|
--2--2--2--2--------------|-----5--5--5--5--5--5--5--|
--------------------------|--------------------------|


  E  E  E  E  S S E  E  E     E  E  E  E  S S E  E  E   
---------------------------|---------------------------|
-----7--5--7--L-5-7--5-----|-----7--5--7--L-5-7--5-----|
--0---------------------3--|--0---------------------3--|
---------------------------|---------------------------|


  E  E  E  E  S S E  E  E     E  E  E  E  S S E  E  S S  
---------------------------|-----7--5--7--L-5-7--5------|
-----7--5--7--L-5-7--5-----|----------------------------|
--0---------------------3--|--5---------------------5-7-|
---------------------------|----------------------------|


  E  E  E  E  S S E  E  E     E  E  E  E  S S E  E  E   
---------------------------|---------------------------|
-----7--5--7--L-5-7--5-----|-----7--5--7--L-5-7--5-----|
--0---------------------3--|--0---------------------3--|
---------------------------|---------------------------|


  E  E  E  E  S S E  E  S S    E  E  E  E  S S E  E  S S  
-----7--5--7--L-5-7--5------|-----7--5--7--L-5-7--5------|
----------------------------|----------------------------|
--5---------------------5-7-|--5---------------------5-7-|
----------------------------|----------------------------|


  E  E  E  E  S S E  E  E     E  E  E  E  S S E  E  E   
---------------------------|---------------------------|
-----7--5--7--L-5-7--5-----|-----7--5--7--L-5-7--5-----|
--0---------------------3--|--0---------------------3--|
---------------------------|---------------------------|


  E  E  E  E  E  E  E  E     E  E  E  E  E  E  E  E   
--------------------------|--------------------------|
--------------2--2--2--2--|--------------------------|
--2--2--2--2--------------|-----5--5--5--5--5--5--5--|
--------------------------|--------------------------|


  E  E  E  E  S S E  E  E     E  E  E  E  S S E  E  E   
---------------------------|---------------------------|
-----7--5--7--L-5-7--5-----|-----7--5--7--L-5-7--5-----|
--0---------------------3--|--0---------------------3--|
---------------------------|---------------------------|


  E  E  E  E  S S E  E  E     E  E  E  E  S S E  E  S S  
---------------------------|-----7--5--7--L-5-7--5------|
-----7--5--7--L-5-7--5-----|----------------------------|
--0---------------------3--|--5---------------------5-7-|
---------------------------|----------------------------|


  E  E  E  E  S S E  E  E     E  E  E  E  S S E  E  E   
---------------------------|---------------------------|
-----7--5--7--L-5-7--5-----|-----7--5--7--L-5-7--5-----|
--0---------------------3--|--0---------------------3--|
---------------------------|---------------------------|


  E  E  E  E  S S E  E  S S    E  E  E  E  S S E  E  S S  
-----7--5--7--L-5-7--5------|-----7--5--7--L-5-7--5------|
----------------------------|----------------------------|
--5---------------------5-7-|--5---------------------5-7-|
----------------------------|----------------------------|


  E  E  E  E  S S E  E  E     E  E  E  E  S S E  E  E   
---------------------------|---------------------------|
-----7--5--7--L-5-7--5-----|-----7--5--7--L-5-7--5-----|
--0---------------------3--|--0---------------------3--|
---------------------------|---------------------------|


  E  E  E  E  E  E  E  E     E  E  E  E  E  E  E  E   
--------------------------|--------------------------|
--------------2--2--2--2--|--------------------------|
--2--2--2--2--------------|-----5--5--5--5--5--5--5--|
--------------------------|--------------------------|


  E  E  E  E  S S E  E  E     E  E  E  E  S S E  E  E   
---------------------------|---------------------------|
-----7--5--7--L-5-7--5-----|-----7--5--7--L-5-7--5-----|
--0---------------------3--|--0---------------------3--|
---------------------------|---------------------------|


  E  E  E  E  S S E  E  E     E  E  E  E  S S E  E  S S  
---------------------------|-----7--5--7--L-5-7--5------|
-----7--5--7--L-5-7--5-----|----------------------------|
--0---------------------3--|--5---------------------5-7-|
---------------------------|----------------------------|


  E  E  E  E  S S E  E  E     E  E  E  E  S S E  E  E   
---------------------------|---------------------------|
-----7--5--7--L-5-7--5-----|-----7--5--7--L-5-7--5-----|
--0---------------------3--|--0---------------------3--|
---------------------------|---------------------------|


  E  E  E  E  S S E  E  S S    E  E  E  E  S S E  E  S S  
-----7--5--7--L-5-7--5------|-----7--5--7--L-5-7--5------|
----------------------------|----------------------------|
--5---------------------5-7-|--5---------------------5-7-|
----------------------------|----------------------------|


  E  E  E  E  S S E  E  E     E  E  E  E  S S E  E  E   
---------------------------|---------------------------|
-----7--5--7--L-5-7--5-----|-----7--5--7--L-5-7--5-----|
--0---------------------3--|--0---------------------3--|
---------------------------|---------------------------|


  E  E  E  E  E  E  E  E     E  E  E  E  E  E  E  E   
--------------------------|--------------------------|
--------------2--2--2--2--|--------------------------|
--2--2--2--2--------------|-----5--5--5--5--5--5--5--|
--------------------------|--------------------------|


  E  E  E  E  S S E  E  E     E  E  E  E  S S E  E  S  S  
---------------------------|-----------------------------|
-----7--5--7--L-5-7--5-----|-----7--5--7--L-5-7--5-------|
--0---------------------3--|------------------------3p-0-|
---------------------------|--5--------------------------|


  E   S  S  S  S  E   S   S  E   E   E   
-----14-14-14-14-14--14p-12-------------|
----------------------------14--12--10--|
--0-------------------------------------|
----------------------------------------|


   E   S  S S  S  E   S   S  E   E   E      E  S S S S E  S  S S S E  E   
------14-14---14-14--14p-12--------------|-------------------------------|
----------------------------14--12--10S--|-----7-7---7-7--7p-5-----------|
--12-------------------------------------|---------------------7-5-3-----|
-----------------------------------------|----------------------------5--|


  E  S  S S S E  T  S. S S S S E     E  S  S E  E  S  S E  E  E   
-------------------------------5--|--7--7p-0-5--7--7p-0----------|
--------------5--5S-7--7-7-7-7----|---------------------4--5--6--|
--3--3b-5---7---------------------|------------------------------|
----------------------------------|------------------------------|


  E  E  E  E  E  E  E  E     E  T  S. E  E  S  S E  E  E   
--------7--5-----5--5--7--|-------------------------------|
--7--7--------------------|-----6S-5-----7--7p-5-7--5-----|
--------------------------|--0--------4----------------3--|
--------------------------|-------------------------------|


  E  E  E  E  E  E  S S E     E  S S E  S  S E  S  S E  E   
---------------------------|-------------------------------|
-----7--5--7--L------------|-------------------------------|
-----------------5--6-6-7--|--7--x-5-7--7p-5-7--7p-5-7--6--|
--5------------------------|-------------------------------|


  E  E  E  E  E  E  E  E      E  E  E  E  E  E  E  E   
---------------------------|--------------------------|
---------------------------|--------------------------|
--5--5--5--5--5--5--3--3b--|--------4--4--5--5--6--6--|
---------------------------|--5--5--------------------|


  S S E  E  S S E  S S S  S E     E  E  E  E  E  E  E  E   
---------9----9-L--------------|--------------------------|
-------------------------------|-----7--5--7--------------|
--7-7-7-----7------7-7-5p-3----|--------------5--5--3-----|
----------------------------3--|--5--------------------5--|


  E  E  E  E  S S E  E  E     E  E  E  E  S S E  E  E   
---------------------------|---------------------------|
-----7--5--7---------------|-----7--5--7---------------|
--------------x-5-5--3-----|--------------x-5-5--3-----|
--5---------------------5--|--5---------------------5--|


  E  E  E  E  S  S E  E  E     E  E  E  E  S S E  E  E   
-------------------7--5--7--|-----7--5--7--L-5-7--5-----|
-----7--5--7--7p-0----------|------------------------3--|
----------------------------|--5------------------------|
--5-------------------------|---------------------------|


  E  E  E  E  E  E   E  E     E  E  E  E  S  S E  E   E   
-----7--5--7-----7b--7--5--|-----------------------------|
---------------------------|--7--7--5--7--7p-0-----------|
--5------------------------|-------------------3--3b-----|
---------------------------|--------------------------5--|


  E  E  E  E  E  S  S E  E     T  S. E  E  E  E  E  E  E   
----------------------------|--------9--------------9-----|
----------------------------|-----------------------------|
----------------------3--5--|--5S-7-----7--7--6--7-----7--|
--5--5--3--5--5--5p-3-------|-----------------------------|


  E   E  E  E  E   E  E  E     E  E  E  S S E  S S E  E   
----------------------------|----------------------------|
----------------------------|----------------------------|
--4S--5--5--5--4S--5--5--5--|----------------------------|
----------------------------|--5--5--5--5-5-5--0-0-3--4--|


  S S E  E   S S E  S S S S S S    E  E  E  E  S  S E   E  E   
----9----9S------9--9-9-9-------|-------------------7b--7--5--|
-------------x-7----------------|-----7--5--7--7p-0-----------|
--0-----------------------0-----|-----------------------------|
----------------------------3-3-|--5--------------------------|


  E   E  E  E  E  E   E  E     E   E  E  E  S  S E   E  E   
--5b--------------7b--7--5--|--5b----------------7b--7--5--|
------7--5--7---------------|------7--5--7--7p-0-----------|
---------------0------------|------------------------------|
----------------------------|------------------------------|


  E   E  E  S S S S E  S S E     Q    E  E  E  E  E  E     Q    Q    Q    Q     
--5b--------------------------|-------------------------|----------------------|
------7--5--7-7---5-----------|----------4--L--5--6--7--|-------4----5----6----|
--------------------7--5-3----|--5----5-----------------|--5-------------------|
---------------------------5--|-------------------------|----------------------|


  E  E  E  S S E  E  E  E     E  Q    Q    Q    E   
---------------------------|-----------------------|
--7---------------5--7-----|-----------------------|
-----4--5--6-6-7-----------|-----4----5----6----7--|
------------------------5--|--5--------------------|


  E  E    E  S S E  E    E  E     E  E   E  E  T E  S T E  S  S  
-----9S--11---------9S--11-----|-----7S--9--7----5--L-L-L-------|
-------------------------------|---------------------------5S-7-|
--L----------x-7-7----------7--|--5-----------------------------|
-------------------------------|--------------------------------|


  E  E  E  E  S S E  E  E      E  E  E  E  S S E  E  E   
----------------------------|---------------------------|
--7--7--5--7--L-5-7--5------|-----7--5--7--L------------|
------------------------3b--|----------------5-3--3-----|
----------------------------|--5---------------------5--|


  E  E  E  E  S S E  E  E     E  E  E  E  S S E  E  S S  
---------------------------|-----7--5--7--L-5-7--5------|
-----7--5--7--L-5-7--5-----|----------------------------|
--0---------------------3--|--5---------------------5-7-|
---------------------------|----------------------------|


  E  E  E  E  S S E  E  E     E  E  E  E  S S E  E  E   
---------------------------|---------------------------|
-----7--5--7--L-5-7--5-----|-----7--5--7--L-5-7--5-----|
--0---------------------3--|--0---------------------3--|
---------------------------|---------------------------|


  E  E  E  E  S S E  E  S S    E  E  E  E  S S E  E  S S  
-----7--5--7--L-5-7--5------|-----7--5--7--L-5-7--5------|
----------------------------|----------------------------|
--5---------------------5-7-|--5---------------------5-7-|
----------------------------|----------------------------|


  E  E  E  E  S S E  E  E     E  E  E  E  S S E  E  E   
---------------------------|---------------------------|
-----7--5--7--L-5-7--5-----|-----7--5--7--L-5-7--5-----|
--0---------------------3--|--0---------------------3--|
---------------------------|---------------------------|


  E  E  E  E  E  E  E  E     E  E  H        Q                       
--------------------------|----------------------|-----|-----|-----|
--------------2--2--2--2--|--0-------------------|-----|-----|-----|
--2--2--2--2--------------|----------------------|-----|-----|-----|
--------------------------|----------------------|-----|-----|-----|


  Q    E  E  E  E  E  E     E  E  E  E  E  E  E  E     E  E  E  E  E  E  E  E   
-------------------------|--------------------------|--------------------------|
-------------------------|--------------------------|--------------------------|
--0----0--0--0--0--0--0--|--0--0--0--0--0--0--0--0--|--0--0--0--0--0--0--0--0--|
-------------------------|--------------------------|--------------------------|


  S S S S S S S S S S S S E  E  Q       E  E  Q    H          
--------5-7-5-0----------------------|----------------------||
----5-7---------7-5-2----------------|----------------------||
--0-------------------5-2-0--0--0----|--0-------------------||
-------------------------------------|----------------------||




Duration Legend
---------------
W - whole
H - half
Q - quarter
E - 8th
S - 16th
T - 32nd
X - 64th
. - note dotted
|-n-|  - n-tuplets


Tablature Legend
----------------
L - tied note
x - dead note
g - grace note
(n) - ghost note
> - accentuded note
NH - natural harmonic
AH - artificial harmonic
TH - tapped harmonic
SH - semi harmonic
PH - pitch harmonic
h - hammer on
p - pull off
b - bend
br - bendRelease
pb - preBend
pbr - preBendRelease
brb - bendReleaseBend
\n/ - tremolo bar dip
\n - tremolo bar dive
-/n - tremolo bar Release up
/n\ - tremolo bar inverted dip
/n - tremolo bar return
-\n - tremolo bar Release down
S - shift slide
s - legato slide
/ -  slide into from below or out of upwards
\ -  slide into from above or out of downwards
~ - vibrato
W - wide vibrato
tr - trill
TP - tremolo picking
T - tapping
S - slap
P - pop
< - fade in
^ - brush up
v - brush down
comments
We did not receive enough feedback on this tab! Please rate:
print report bad tab
1 2 3 4 5
2 comments total.
-1 reply
ShortFatBoy wrote on February 4 2009, 03:43 pm

dude crossroads is by cream/eric clapton and they re did it but i dont know who it was but its definitely not Skynryd

0 reply
Teh Greek wrote on November 27 2010, 10:26 pm

Lynyrd Skynyrd released a live version of this song on their album "One More From The Road"...

I want to post or [tab]
guest
You may want to rate the tab now too:
select rating
Please do not post tabs as comments. Select "correction" instead!