Oops, an error
Loading. Please wait.

Crossroads Live Tab

ver1
ver1

Whole song

Interactive

More versions @911Tabs.com
6,935 views 9 this week
1 commentread comment
1 2 3 4 5
excellent!
x 4
Autoscroll
+/-
esc
set tempo
stop
Hey! There's an official Ultimate Guitar app which is ideal
for learning songs when you're away from computer. Get the app
WARNING: You are trying to view
                                    content from Ultimate-Guitar.com
                                    in an unauthorized application,
                                    which is prohibited.

                                    Please use an official Ultimate
                                    Guitar Tabs application for iPhone,
                                    iPad or Android to access legitimate
                                    chords, guitar, bass, and drum tabs
                                    from Ultimate-Guitar.com database.

                                    Type "ultimate guitar tabs" in Apple
                                    App Store's or Android Market's
                                    search to find the application.
Band: Lynyrd Skynyrd
Song: Crossroads (Live)
Album: One More From The Road




Allen Collins
             E  E  E  E  S S E   E   E      E  E  E  E   S S E  E  E    
E||-------|------------------------------|-----------------------------|
B||-------|---------------------(0)------|-----------------------------|
G||-------|-----2--0--2--L-0-2---0-------|-----2--0--2~--L-0-2--0------|
D||-------|--2---------------------------|-----------------------------|
A||-------|--0-----------------------3b--|--0----------------------3b--|
E||-------|------------------------------|-----------------------------|


  S S E  E  E  S S E  E  E      E  E  E  E   S S E   E   E    
-----------------------------|-------------------------------|
--2---2--0-------------------|--2--2----------------(0)------|
--2---2--0--2--L-0-2--0------|--2--2--0--2~--L-0-2---0-------|
-----------------------------|-------------------------------|
-------------------------3b--|---------------------------3b--|
-----------------------------|-------------------------------|


  E  S E  S E  E  S E  S E     E  S E  S E  E  S E  S E   
---------------2------------|---------------2------------|
-----1------------1----1----|-----1------------1----1----|
-------2----2-------2----2--|-------2----2-------2----2--|
--0-------0-----------------|--0-------0-----------------|
----------------------------|----------------------------|
----------------------------|----------------------------|


  E  E  E  E  S S E  E  E      E  E  E  E  S S E  E  E    
----------------------------|----------------------------|
--2--2----------------------|-----2--0-------------------|
--2--2--0--2--L-0-2--0------|-----2--0--2--L-0-2--0------|
---------------------0------|----------------------------|
------------------------3b--|--0---------------------3b--|
----------------------------|----------------------------|


  H        Q    E  E      S S E  E   E  S S E  E.   S  
-----------------------|------------------------------|
-----------------------|------------------------------|
-----------------------|---------5b-----7-5----5b---5-|
--2--------L----L------|----5-7------7------7---------|
--2--------L----L--3s--|--7---------------------------|
--0--------L----L------|------------------------------|


  Q     S S S S S S S S   Q       E    S E.  E   Q    E  E   
--------------5----------------|----------------------------|
------------5---8-5---5--------|-------5-5------------------|
--------5-6---------7---5g6----|-----5g6-5------------------|
--7~---------------------------|--7----------------------0--|
-------------------------------|-------------7~--L-------0--|
-------------------------------|----------------------------|


  E  E  E  E   S S E  E  E      E  E  E  E  E  E  E  E   
-----------------------------|--------------------------|
-----------------------------|--------------------------|
-----2--0--2~--L-0-2--0------|--------------------------|
-------------------------6s--|--7--7--9--7-----7--9--7--|
--0----------------------4s--|--5--5--5--5-----5--5-----|
-----------------------------|--------------------------|


  E  E  E  E   S S E  E  E      E  E  E  E   S S E  E  E    
-----------------------------|-----------------------------|
-----------------------------|-----------------------------|
-----2--0--2~--L-0-2--0------|-----2--0--2~--L-0-2--0------|
-----------------------------|-----------------------------|
--0----------------------3b--|--0----------------------3b--|
-----------------------------|-----------------------------|


  E  E  E  E  E  E  E  E     E  E  E  E  E  E  E  E   
--------------------------|--------------------------|
--------------------------|--------------------------|
--------------------------|--------------------------|
--7--7--9--7-----7--9--6--|-----7--9--7-----7--9--7--|
--5--5--5--5-----5--5--4--|-----5--5--5-----5--5-----|
--------------------------|--------------------------|


  E  E  E  E   S S E  E  E      E  E  E  E   S S E  E  E    
-----------------------------|-----------------------------|
-----------------------------|-----------------------------|
-----2--0--2~--L-0-2--0------|-----2--0--2~--L-0-2--0------|
-----------------------------|-----------------------------|
--0----------------------3b--|--0--------------------------|
-----------------------------|-------------------------3b--|


  H        Q    E  E      E  E  E  E  E  E  E  E   
-----------------------|--------------------------|
-----------------------|--------------------------|
-----------------------|-----7-----7-----7-----7--|
--2--------L----L------|-----7-----7-----7-----7--|
--2--------L----L--2s--|--5--5-----5-----5-----5--|
--0--------L----L------|--------------------------|


  E  E  E  E   S S E  E  E      H        Q    E  E     E  E  E  E  E  E  E  E   
-----------------------------|----------------------|--------------------------|
-----------------------------|----------------------|--------------------------|
-----2--0--2~--L-0-2--0------|--2--------L----L-----|--------------------------|
-----------------------------|--2--------L----L--2--|-----2--4--2-----2--4--7--|
--0----------------------3b--|--0--------L----L--0--|-----0--0--0-----0--0--5--|
-----------------------------|----------------------|--------------------------|


  E  E  E  E  E  E  E  E     E  E  E  E   S S E  E  E    
--------------------------|-----------------------------|
--------------------------|-----------------------------|
--------------------------|-----2--0--2~--L-0-2--0------|
-----7--9--7-----7--9-----|-----------------------------|
-----5--5--5-----5--5--0--|--L----------------------3b--|
--------------------------|-----------------------------|


  E  E  E  E   S S E  E  E      E  E  E  E  E  E  E  E   
-----------------------------|--------------------------|
-----------------------------|--------------------------|
-----2--0--2~--L-0-2--0------|--------------------------|
-----------------------------|--7--7--9--7-----7--9--6--|
--0----------------------3b--|--5--5--5--5-----5--5--4--|
-----------------------------|--------------------------|


  E  E  E  E  E  E  E  E     E  E  E  E   S S E  E  E    
--------------------------|-----------------------------|
--------------------------|-----------------------------|
--------------------------|-----2--0--2~--L-0-2--0------|
-----7--9--7-----7--9--7--|-----------------------------|
-----5--5--5-----5--5-----|--0----------------------3b--|
--------------------------|-----------------------------|


  E  E  E  E   S S E  E  E      H        Q    E  E    
-----------------------------|-----------------------|
-----------------------------|-----------------------|
-----2--0--2~--L-0-2--0------|-----------------------|
-----------------------------|--2--------L----L------|
--0--------------------------|--2--------L----L--2s--|
-------------------------3b--|--0--------L----L------|


  E  E  E  E  E  E  E  E     E  E  E  E   S S E  E  E    
--------------------------|-----------------------------|
--------------------------|-----------------------------|
-----7-----7-----7-----7--|-----2--0--2~--L-0-2--0------|
-----7-----7-----7-----7--|-----------------------------|
--5--5-----5-----5-----5--|--0----------------------3b--|
--------------------------|-----------------------------|


  Q    E  E  S S S S E  E     Q    E  Q    E  E   E   
---------------------------|-------------------------|
---------------------------|-------------------------|
--2----L-------------------|-------------------------|
--2----L---------7-L-7-----|--7-------7-------9b--L--|
--0----L-----7-9--------9--|-------9-------9---------|
---------------------------|-------------------------|


  E  S S E     E  E  E   S  S E     E    E   E   E   Q     S  E  S  
---------------------------------|---------------------------------|
---------------------------------|----------10--12--10----10-12--L-|
---------------------9-----------|-----/11-------------------------|
---------7--9g11--L-----11s-9----|--7------------------------------|
-----7-9----------------------9--|---------------------------------|
---------------------------------|---------------------------------|


                                |--3--|                                     
   S  E  S  S  E   S  S  E   S  S  S  S E     E   E  E   E   E  E  E   S S  
-------------------------------------------|-------------------------------|
--10-12--L-10-12---L-10-12---L-10-12-10----|--------------------8--------8-|
----------------------------------------9--|--7\--L--5/--9~--L--L--9~--L-L-|
-------------------------------------------|-------------------------------|
-------------------------------------------|-------------------------------|
-------------------------------------------|-------------------------------|


  E   S S E   S S E   S S S  S E     Q     S S Q       E   E   E   
----------------------------------|-------------------------------|
--------8-------8-------8---------|-----------------------10--12--|
--9~--L-L-9~--L-L-9~--L-L-7p-5-7--|--5~--------------/11----------|
----------------------------------|--------7-5-7~-----------------|
----------------------------------|-------------------------------|
----------------------------------|-------------------------------|


   Q     E   E   Q     Q        Q     E  E     E  E  E  E   
----------------------------|------------------------------|
--10--------12--10----10----|--12----10--L-----------------|
--------11------------------|---------------11g9--7--------|
----------------------------|------------------------9--7--|
----------------------------|------------------------------|
----------------------------|------------------------------|


  E  E  E  S S S S S S S S E     Q     S S S S S S S S S S E   
------------------------------|--------------5----------------|
-----5--8--8-5-7-5---------5--|------------5---8-5---5-----5--|
--7----------------7-5--------|--------5-6---------7---5-6----|
-----------------------7-5----|--7~---------------------------|
------------------------------|-------------------------------|
------------------------------|-------------------------------|


  E    S E.  E   Q    E  E      Q       Q    Q    Q     
----------------------------|--------------------------|
-------5-5------------------|--12br----10----L----L----|
-----5g6-5------------------|--------------------------|
--7-------------------------|--------------------------|
-------------7~--L----------|--------------------------|
----------------------------|--------------------------|


   Q       Q       Q       Q        Q     E   Q     E   S  S  E   
----------10br------------------|--------------------------------|
--12br------------12br----10----|--10----12\-----------12-10-12--|
--------------------------------|------------------11------------|
--------------------------------|--------------------------------|
--------------------------------|--------------------------------|
--------------------------------|--------------------------------|


   Q       E  E  S S E  S S E     Q    E   Q     E   E   E   
-------------------------------|----------------------------|
--10---------------------------|----------------------------|
--------11g9--7----------------|--------------------14--16--|
-----------------9-7----9-7----|--7----9\-------16----------|
---------------------9------9--|----------------------------|
-------------------------------|----------------------------|


   Q     E   Q      E   E   S  S     E   S  S  E   S  S  E   S  S  E   S  S  
---------------------------------|------------------------------------------|
-------------------20---------20-|---------20--------20--------20--------20-|
--14----16--19b--------19b--L----|--19b--L----19b--L----19b--L----19b--L----|
---------------------------------|------------------------------------------|
---------------------------------|------------------------------------------|
---------------------------------|------------------------------------------|


   E   S  S  S  S  E   E  S  S  S  S  E   
-----------------------------------------|
---------20-----------------17-20-17-----|
--19b--L----19-17-19--17-------------19--|
-----------------------------------------|
-----------------------------------------|
-----------------------------------------|


   S  S  E   S  S  E   S  S  E   E   E    
-----------------------------------------|
--20-17-----20-17-----20-17-----17--20b--|
--------19--------19--------19-----------|
-----------------------------------------|
-----------------------------------------|
-----------------------------------------|


  E  E   E    S     S  S  S  S  S  S  S  S  S  
----------------------------------------------|
--L-----20b--20pbr-17-20-17-------------------|
----------------------------19-17-19-17-------|
----------------------------------------19-17-|
----------------------------------------------|
----------------------------------------------|


   Q      S  S  S  S  S  S  S  S  S  S  S  S     E      S  E.   E   Q    E  E   
---------------------------------------------|---------------------------------|
---------------------------17-20-------------|---------------------------------|
---------------17-19-17-19-------17-19-------|---------------------------------|
--19~----17-19-------------------------17-19-|------17g19-17-------------------|
---------------------------------------------|--19-------------19~--L-------0--|
---------------------------------------------|---------------------------------|


  E  E  E  E   S S E  E  E      E  E  E  E  E  E  E  E   
-----------------------------|--------------------------|
-----------------------------|--------------------------|
-----2--0--2~--L-0-2--0------|--------------------------|
-----------------------------|-----7--9--7-----7--9-----|
--L----------------------3b--|-----5--5--5-----5--5--0--|
-----------------------------|--------------------------|


  E  E  E  E   S S E  E  E      E  E  E  E   S S E  E  E    
-----------------------------|-----------------------------|
-----------------------------|-----------------------------|
-----2--0--2~--L-0-2--0------|-----2--0--2~--L-0-2--0------|
-----------------------------|-----------------------------|
--L----------------------3b--|--0----------------------3b--|
-----------------------------|-----------------------------|


  E  E  E  E  E  E  E  E     E  E  E  E  E  E  E  E   
--------------------------|--------------------------|
--------------------------|--------------------------|
--------------------------|--------------------------|
--7--7--9--7-----7--9--6--|-----7--9--7-----7--9--7--|
--5--5--5--5-----5--5--4--|-----5--5--5-----5--5-----|
--------------------------|--------------------------|


  E  E  E  E   S S E  E  E      E  E  E  E   S S E  E  E    
-----------------------------|-----------------------------|
-----------------------------|-----------------------------|
-----2--0--2~--L-0-2--0------|-----2--0--2~--L-0-2--0------|
-----------------------------|-----------------------------|
--0----------------------3b--|--0--------------------------|
-----------------------------|-------------------------3b--|


  H        Q    E  E      E  E  E  E  E  E  E  E   
-----------------------|--------------------------|
-----------------------|--------------------------|
-----------------------|-----7-----7-----7-----7--|
--2--------L----L------|-----7-----7-----7-----7--|
--2--------L----L--2s--|--5--5-----5-----5-----5--|
--0--------L----L------|--------------------------|


  E  E  E  E   S S E  E  E      Q    Q    E   S S S S S S  
-----------------------------|------------5---5-5-5-5-5-5-|
-----------------------------|------------5---5-5-5-5-5-5-|
-----2--0--2~--L-0-2--0------|--2----L----7b--------------|
-----------------------------|--2----L--------------------|
--0----------------------3b--|--0----L--------------------|
-----------------------------|----------------------------|


  E   S S S S S S E   S S E   S S    E   S S E   S S E   S S E   S S  
--5---5-5-5-5-5-5-5---5-5-5---5-5-|--5---5-5-5---5-5-5---5-5-5---5-5-|
--5---5-5-5-5-5-5-5---5-5-5---5-5-|--5---5-5-5---5-5-5---5-5-5---5-5-|
--7b--------------7b------7b------|--7b------7b------7b------7b------|
----------------------------------|----------------------------------|
----------------------------------|----------------------------------|
----------------------------------|----------------------------------|


  E   S S E   S S E   S S E   S S    E  E  E  Q     E    E  E    
--5---5-5-5---5-5-5---5-5-5---5-5-|-----5-----------------------|
--5---5-5-5---5-5-5---5-5-5---5-5-|--8-----8--8b----8br--5--5b--|
--7b------7b------7b------7b------|-----------------------------|
----------------------------------|-----------------------------|
----------------------------------|-----------------------------|
----------------------------------|-----------------------------|


  Q    H          E  E       Q    Q      E  E  E  E     Q    Q    E  E  E  E   
--------------------------|--------------------------|------------------------|
--L----5b~--------L--5br--|--L-----------------------|------------------------|
--------------------------|-------7----7g5-----------|-------5----7--5--------|
--------------------------|-----------------7--5-----|--7---------------7--5--|
--------------------------|-----------------------7--|------------------------|
--------------------------|--------------------------|------------------------|


  E  E  E  E  Q    S S S S    E  E  Q    Q    E  E   
---------------------------|-----5------------------|
-----------------------8-L-|--L-----5----5----5-----|
--------------5----5-L-----|---------------------7--|
--------5--7---------------|------------------------|
--5--7---------------------|------------------------|
---------------------------|------------------------|


                        |-3-|                                    
  E  E  E  E  E   E     S S S E     Q    S S S S S S S S   Q     
-----7--5--5--8b--8pbr--5-8-5----|--5----------5----------------|
--7---------------------------8--|-----------5---8-5---5--------|
---------------------------------|-------5-6---------7---5g6----|
---------------------------------|------------------------------|
---------------------------------|------------------------------|
---------------------------------|------------------------------|


  E    S E.  E   Q    E  E      Q      H         Q     
----------------------------|-------------------------|
-------5-5------------------|-------------------------|
-----5g6-5------------------|--17b----17~--------L----|
--7-------------------------|-------------------------|
-------------7~--L----L-----|-------------------------|
----------------------------|-------------------------|


                        |--3--|                                      
   Q      Q     E   E   S  S  S  E      Q     E   Q     E   E   E    
------------------------------------|-------------------------------|
------------------------------------|-------------------------------|
--17b----17----14------14-16-14-----|--14--------14--------14--17b--|
-------------------16-----------16--|--------16--------16-----------|
------------------------------------|-------------------------------|
------------------------------------|-------------------------------|


  E   E    Q      S  E    S  E    E    
--------------------------------------|
--------------------------------------|
--L--17b--17b----17-17b--17-17b--17b--|
--------------------------------------|
--------------------------------------|
--------------------------------------|


   S   E    S  E    S  E    S  E    S  E    S  
----------------------------------------------|
----------------------------------------------|
--17b-17b--17-17b--17-17b--17-17b--17-17b--17-|
----------------------------------------------|
----------------------------------------------|
----------------------------------------------|


                                |--3--|                                      
   E    S  E    S  E    Q       S  S  S  E      Q     E   Q     E   E   E    
--------------------------------------------|-------------------------------|
--------------------------------------------|-------------------------------|
--17b--17-17b--17-17b--17br----14-16-14-----|--14--------14--------14--16b--|
----------------------------------------16--|--------16--------16-----------|
--------------------------------------------|-------------------------------|
--------------------------------------------|-------------------------------|


  E   E   E   S  S  E   S  S  E      E      S  E   S  E   S S   E   Q      E   
----------------------------------------|-------------------------------------|
-----17---------17--------17------------|--------------------------17---------|
--L------16b--L----16b--L----16pbr--14--|--14-16~--L-16~--L---/16--------/14--|
----------------------------------------|-------------------------------------|
----------------------------------------|-------------------------------------|
----------------------------------------|-------------------------------------|


   E    E   E   E   E   E  E  E     E  S S S S S S S S S S S S S S  
--14-------12------10------9-----|--5--L---------------------------|
---------------------------------|-------8-8-5---5-8-5---5-8-5---5-|
------\12------11------\9-----6--|-------------7-------7-------7---|
---------------------------------|---------------------------------|
---------------------------------|---------------------------------|
---------------------------------|---------------------------------|


  E    S E.  E   Q    E  E      E    S  S  S  S  S  S  E    S  S  S  S  S  S  
----------------------------|--17---17-17-17-17-17-17-17---17-17-17-17-17-17-|
-------5-5------------------|--17---17-17-17-17-17-17-17---17-17-17-17-17-17-|
-----5g6-5------------------|--19b--------------------19b--------------------|
--7----------------------0--|------------------------------------------------|
-------------7~--L-------0--|------------------------------------------------|
----------------------------|------------------------------------------------|


   E    S  S  E    S  S  E    S  S  E    S  S  
--17---17-17-17---17-17-17---17-17------------|
--17---17-17-17---17-17-17---17-17-17---17-17-|
--19b--------19b--------19b--------19b--------|
----------------------------------------------|
----------------------------------------------|
----------------------------------------------|


   Q      Q      Q     E      E      E   E   E   E   Q     E   E   
---------------------------------|--------------------------------|
--20b----20b~----L----20pbr--17--|--------------------------------|
---------------------------------|--19--17--------------------17--|
---------------------------------|----------19--17--19----19------|
---------------------------------|--------------------------------|
---------------------------------|--------------------------------|


                                       |--3--|                             
   Q       S  E   S  Q      E   E      S  S  S  E   E   E   Q     S  E  S  
-----------------------------------|--------------------------------------|
-----------------------------------|--------------------------------------|
--19br----17-19~--L-19~----19--17--|--17-19-17-----17--19-----------------|
-----------------------------------|-----------19----------19----17-19--L-|
-----------------------------------|--------------------------------------|
-----------------------------------|--------------------------------------|


                                   |--3--|                                 
   S  E  S  Q     Q     E   E      S  S  S  E   E   E   E  S  S  S  S  E   
-------------------------------|------------------------------------------|
-------------------------------|--------------------------------20-17-----|
-----------17----19----17------|-----------------------------17-------19--|
--17-19--L-----------------19--|--17-19-17-------------17-----------------|
-------------------------------|-----------19--17--19---------------------|
-------------------------------|------------------------------------------|


   S  S  E   S  S  E   S  S  E   E   E     
------------------------------------------|
--20-17-----20-17-----20-17-----20--20b~--|
--------19--------19--------19------------|
------------------------------------------|
------------------------------------------|
------------------------------------------|


  E  E   E   S  S  S  S  S  S  S  S  S  S     Q     S S S S S S S S   Q     
------------------------------------------|---------------5----------------|
--L-----20--17----------------------------|-------------5---8-5---5--------|
---------------19-17-19-17-------17-19-17-|---------5-6---------7---5g6----|
---------------------------17-19----------|--19\---------------------------|
------------------------------------------|--------------------------------|
------------------------------------------|--------------------------------|


  E    S E.  E   Q    E  E     E  E  E  E   S S E  E  E    
----------------------------|-----------------------------|
-------5-5------------------|-----------------------------|
-----5g6-5------------------|-----2--0--2~--L-0-2--0------|
--7----------------------0--|-------------------------6s--|
-------------7~--L-------0--|--0----------------------4s--|
----------------------------|-----------------------------|


  E  E  E  E  E  E  E  E     E  E  E  E   S S E  E  E    
--------------------------|-----------------------------|
--------------------------|-----------------------------|
--------------------------|-----2--0--2~--L-0-2--0------|
--7--7--9--7-----7--9--7--|-----------------------------|
--5--5--5--5-----5--5-----|--0----------------------3b--|
--------------------------|-----------------------------|


  E  E  E  E   S S E  E  E      E  E  E  E  E  E  E  E   
-----------------------------|--------------------------|
-----------------------------|--------------------------|
-----2--0--2~--L-0-2--0------|--------------------------|
-----------------------------|--7--7--9--7-----7--9--6--|
--0----------------------3b--|--5--5--5--5-----5--5--4--|
-----------------------------|--------------------------|


  E  E  E  E  E  E  E  E     E  E  E  E   S S E  E  E    
--------------------------|-----------------------------|
--------------------------|-----------------------------|
--------------------------|-----2--0--2~--L-0-2--0------|
-----7--9--7-----7--9--7--|-----------------------------|
-----5--5--5-----5--5-----|--0----------------------3b--|
--------------------------|-----------------------------|


  E  E  E  E   S S E  E  E      H        Q    E  E                            
-----------------------------|-----------------------|-----|-----|-----|-----|
-----------------------------|-----------------------|-----|-----|-----|-----|
-----2--0--2~--L-0-2--0------|-----------------------|-----|-----|-----|-----|
-----------------------------|--2--------L----L------|-----|-----|-----|-----|
--0--------------------------|--2--------L----L--2s--|-----|-----|-----|-----|
-------------------------3b--|--0--------L----L------|-----|-----|-----|-----|


                                       |-3-|                                  
  W                   H        E  E    E   Q        Q      Q      H           
-------------------|----------------------------|----------------------------|
--0----------------|--L--------L----------10----|--12b----12b----12b~--------|
--6----------------|--L--------L-----/11--------|----------------------------|
--5----------------|--L--------L----------------|----------------------------|
--0----------------|--L--------L----------------|----------------------------|
-------------------|----------------------------|----------------------------|


  H        H        E  S S    Q     Q    H          
---------------------------|----------------------||
--L--------L--------L--L---|----------------------||
---------------------------|----------------------||
---------------------------|--5\------------------||
---------------------------|--7\------------------||
---------------------------|--5\------------------||










Gary Rossington
             E  E  E  E  S S E  E  E      E  E  E  E   S S E  E  E    
E||-------|----------------------------|-----------------------------|
B||-------|----------------------------|-----------------------------|
G||-------|-----2--0--2--L-0-2--0------|-----2--0--2~--L-0-2--0------|
D||-------|--2-------------------------|-----------------------------|
A||-------|--0---------------------3b--|--0----------------------3b--|
E||-------|----------------------------|-----------------------------|


  E  E  E  E  S S E  E  E      E  E  E  E   S S E  E  E    
----------------------------|-----------------------------|
----------------------------|-----------------------------|
-----2--0--2--L-0-2--0------|-----2--0--2~--L-0-2--0------|
----------------------------|-----------------------------|
--0---------------------3b--|--0----------------------3b--|
----------------------------|-----------------------------|


  E  E  E  E  E  E  E  E     E  E  E  E  E  E  E  E   
--------------------------|--------------------------|
-----1-----1-----1-----1--|-----1-----1-----1-----1--|
-----2-----2-----2-----2--|-----2-----2-----2-----2--|
-----0-----0-----0-----0--|-----0-----0-----0-----0--|
--------------------------|--------------------------|
--------------------------|--------------------------|


  E  E  E  E  S S E  E  E      E  E  E  E   S S E  E  E    
----------------------------|-----------------------------|
----------------------------|-----------------------------|
-----2--0--2--L-0-2--0------|-----2--0--2~--L-0-2--0------|
--2-------------------------|-----------------------------|
--0---------------------3b--|--0----------------------3b--|
----------------------------|-----------------------------|


  E  E  E  E  E  E  E  E     E  E  E  E  E  E  E  E   
--------------------------|--------------------------|
--------------------------|--------------------------|
-----9--9--9--9--9--9--9--|-----7-----7-----7-----7--|
-----9--9--9--9--9--9--9--|-----7-----7-----7-----7--|
-----7--7--7--7--7--7--7--|-----5-----5-----5-----5--|
--------------------------|--------------------------|


  E  E  E  E  S S E  E  E      E  E  E  E   S S E  E  E    
----------------------------|-----------------------------|
----------------------------|-----------------------------|
-----2--0--2--L-0-2--0------|-----2--0--2~--L-0-2--0------|
--2-------------------------|-----------------------------|
--0---------------------3b--|--0----------------------3b--|
----------------------------|-----------------------------|


  E  E  E  E   S S E  E  E      E  E  E  E  E  E  E  E   
-----------------------------|--------------------------|
-----------------------------|--------------------------|
-----2--0--2~--L-0-2--0------|--------------------------|
-----------------------------|--7--7--9--7-----7--9--7--|
--0----------------------3b--|--5--5--5--5-----5--5-----|
-----------------------------|--------------------------|


  E  E  E  E   S S E  E  E      E  E  E  E   S S E  E  E    
-----------------------------|-----------------------------|
-----------------------------|-----------------------------|
-----2--0--2~--L-0-2--0------|-----2--0--2~--L-0-2--0------|
-----------------------------|-----------------------------|
--0----------------------3b--|--0----------------------3b--|
-----------------------------|-----------------------------|


  E  E  E  E  E  E  E  E     E  E  E  E  E  E  E  E   
--------------------------|--------------------------|
--------------------------|--------------------------|
--------------------------|--------------------------|
--7--7--9--7-----7--9--6--|--7--7--9--7-----7--9--7--|
--5--5--5--5-----5--5--4--|--5--5--5--5-----5--5-----|
--------------------------|--------------------------|


  E  E  E  E   S S E  E  E      E  E  E  E   S S E  E  E    
-----------------------------|-----------------------------|
-----------------------------|-----------------------------|
-----2--0--2~--L-0-2--0------|-----2--0--2~--L-0-2--0------|
-----------------------------|-----------------------------|
--0----------------------3b--|--0----------------------3b--|
-----------------------------|-----------------------------|


   E   E  E  E  E  E  E  E      E  E  E  E  E  E  E  E   
-----------------------------|--------------------------|
-----------------------------|-----3-----3-----3-----3--|
-----------------------------|-----2-----2-----2-----2--|
--(0)--2--2--2--------2------|-----0-----0-----0-----0--|
---0---2-----------2--2--3/--|--------------------------|
-------0--------0-----0------|--------------------------|


  E  E  E  E   S S E  E  E      E  E  E  E   S S E  E  E    
-----------------------------|-----------------------------|
-----------------------------|-----------------------------|
-----2--0--2~--L-0-2--0------|-----2--0--2~--L-0-2--0------|
-----------------------------|-----------------------------|
--0----------------------3b--|--0----------------------3b--|
-----------------------------|-----------------------------|


  E  E  E  E   S S E  E  E      E  E  E  E  E  E  E  E   
-----------------------------|--------------------------|
-----------------------------|--------------------------|
-----2--0--2~--L-0-2--0------|--------------------------|
-----------------------------|--7--7--9--7-----7--9--7--|
--0----------------------3b--|--5--5--5--5-----5--5-----|
-----------------------------|--------------------------|


  E  E  E  E   S S E  E  E      E  E  E  E   S S E  E  E    
-----------------------------|-----------------------------|
-----------------------------|-----------------------------|
-----2--0--2~--L-0-2--0------|-----2--0--2~--L-0-2--0------|
-----------------------------|-----------------------------|
--0----------------------3b--|--0----------------------3b--|
-----------------------------|-----------------------------|


  E  E  E  E  E  E  E  E     E  E  E  E  E  E  E  E   
--------------------------|--------------------------|
--------------------------|--------------------------|
--------------------------|--------------------------|
--7--7--9--7-----7--9--6--|--7--7--9--7-----7--9--7--|
--5--5--5--5-----5--5--4--|--5--5--5--5-----5--5-----|
--------------------------|--------------------------|


  E  E  E  E   S S E  E  E      E  E  E  E   S S E  E  E    
-----------------------------|-----------------------------|
-----------------------------|-----------------------------|
-----2--0--2~--L-0-2--0------|-----2--0--2~--L-0-2--0------|
-----------------------------|-----------------------------|
--0----------------------3b--|--0----------------------3b--|
-----------------------------|-----------------------------|


   E   E  E  E  E  E  E  E      E  E  E  E  E  E  E  E   
-----------------------------|--------------------------|
-----------------------------|-----3-----3-----3-----3--|
-----------------------------|-----2-----2-----2-----2--|
--(0)--2--2--2--------2------|-----0-----0-----0-----0--|
---0---2-----------2--2--3/--|--------------------------|
-------0--------0-----0------|--------------------------|


  E  E  E  E   S S E  E  E      E  E  E  E   S S E  E  E    
-----------------------------|-----------------------------|
-----------------------------|-----------------------------|
-----2--0--2~--L-0-2--0------|-----2--0--2~--L-0-2--0------|
-----------------------------|-----------------------------|
--0----------------------3b--|--0----------------------3b--|
-----------------------------|-----------------------------|


  E  E  E  E  E  E  E  E     E  E  E  E  E  E  E  E   
--------------------------|--------------------------|
--------------------------|--------------------------|
--------------------------|--------------------------|
-----2-----2-----2-----7--|-----7-----7-----7-----7--|
-----0-----0-----0-----5--|-----5-----5-----5-----5--|
--------------------------|--------------------------|


  E  E  E  E  E  E  E  E     E  E  E  E  E  E  E  E   
--------------------------|--------------------------|
--------------------------|--------------------------|
--------------------------|--------------------------|
-----2-----2-----2-----2--|-----2-----2-----2-----2--|
-----0-----0-----0-----0--|-----0-----0-----0-----0--|
--------------------------|--------------------------|


  E  E  E  E  E  E  E  E     E  E  E  E  E  E  E  E   
--------------------------|--------------------------|
-----7-----7-----7-----7--|-----7-----7-----7-----7--|
-----5-----5-----5-----5--|-----5-----5-----5-----5--|
-----7-----7-----7-----7--|-----7-----7-----7-----7--|
-----5-----5-----5-----5--|-----5-----5-----5-----5--|
--------------------------|--------------------------|


  E  E  E  E  E  E  E  E     E  E  E  E  E  E  E  E   
--------------------------|--------------------------|
--------------------------|--------------------------|
--------------------------|--------------------------|
-----2-----2-----2-----2--|-----2-----2-----2-----2--|
-----0-----0-----0-----0--|-----0-----0-----0-----0--|
--------------------------|--------------------------|


  E  E  E  E  E  E  E  E     E  E  E  E  E  E  E  E   
--------------------------|--------------------------|
--------------------------|--------------------------|
-----9-----------9-----9--|--------------------------|
--------9-----------9-----|--7--7--7--7--7--7--7--7--|
--7--------7--------------|--5--5--5--5--5--5--5--5--|
--------------------------|--------------------------|


  E  E  E  E  E  E  E  E     E  E  E  E  E  E  E  E   
--------------------------|--------------------------|
--------------------------|--------------------------|
--------------------------|--------------------------|
-----2-----2-----2-----2--|-----2-----2-----2-----2--|
-----0-----0-----0-----0--|-----0-----0-----0-----0--|
--------------------------|--------------------------|


  E  E  E  E  E  E  E  E     E  E  E  E  E  E  E  E   
--------------------------|--------------------------|
--------------------------|--------------------------|
--------------------------|--------------------------|
-----2-----2-----2-----7--|-----7-----7-----7-----7--|
-----0-----0-----0-----5--|-----5-----5-----5-----5--|
--------------------------|--------------------------|


  E  E  E  E  E  E  E  E     E  E  E  E  E  E  E  E   
--------------------------|--------------------------|
--------------------------|--------------------------|
--------------------------|--------------------------|
-----2-----2-----2-----2--|-----2-----2-----2-----2--|
-----0-----0-----0-----0--|-----0-----0-----0-----0--|
--------------------------|--------------------------|


  E  E  E  E  E  E  E  E     E  E  E  E  E  E  E  E   
--------------------------|--------------------------|
-----7-----7-----7-----7--|-----7-----7-----7-----7--|
-----5-----5-----5-----5--|-----5-----5-----5-----5--|
-----7-----7-----7-----7--|-----7-----7-----7-----7--|
-----5-----5-----5-----5--|-----5-----5-----5-----5--|
--------------------------|--------------------------|


  E  E  E  E  E  E  E  E     E  E  E  E  E  E  E  E   
--------------------------|--------------------------|
--------------------------|--------------------------|
--------------------------|--------------------------|
-----2-----2-----2-----2--|-----2-----2-----2-----2--|
-----0-----0-----0-----0--|-----0-----0-----0-----0--|
--------------------------|--------------------------|


  E  E  E  E  E  E  E  E     E  E  E  E  E  E  E  E   
--------------------------|--------------------------|
--------------------------|--------------------------|
-----9-----------9-----9--|--------------------------|
--------9-----------9-----|--7--7--7--7--7--7--7--7--|
--7--------7--------------|--5--5--5--5--5--5--5--5--|
--------------------------|--------------------------|


  E  E  E  E   S S E  E  E      E  E  E  E   S S E  E  E    
-----------------------------|-----------------------------|
-----------------------------|-----------------------------|
-----2--0--2~--L-0-2--0------|-----2--0--2~--L-0-2--0------|
-----------------------------|-----------------------------|
--0----------------------3b--|--0----------------------3b--|
-----------------------------|-----------------------------|


  E  E  E  E   S S E  E  E      E  E  E  E  E  E  E  E   
-----------------------------|--------------------------|
-----------------------------|--------------------------|
-----2--0--2~--L-0-2--0------|--------------------------|
-----------------------------|--7--7--9--7-----7--9--7--|
--0----------------------3b--|--5--5--5--5-----5--5-----|
-----------------------------|--------------------------|


  E  E  E  E   S S E  E  E      E  E  E  E   S S E  E  E    
-----------------------------|-----------------------------|
-----------------------------|-----------------------------|
-----2--0--2~--L-0-2--0------|-----2--0--2~--L-0-2--0------|
-----------------------------|-----------------------------|
--0----------------------3b--|--0----------------------3b--|
-----------------------------|-----------------------------|


  E  E  E  E  E  E  E  E     E  E  E  E  E  E  E  E   
--------------------------|--------------------------|
--------------------------|--------------------------|
--------------------------|--------------------------|
--7--7--9--7-----7--9--6--|--7--7--9--7-----7--9--7--|
--5--5--5--5-----5--5--4--|--5--5--5--5-----5--5-----|
--------------------------|--------------------------|


  E  E  E  E   S S E  E  E      E  E  E  E   S S E  E  E    
-----------------------------|-----------------------------|
-----------------------------|-----------------------------|
-----2--0--2~--L-0-2--0------|-----2--0--2~--L-0-2--0------|
-----------------------------|-----------------------------|
--0----------------------3b--|--0----------------------3b--|
-----------------------------|-----------------------------|


   E   E  E  E  E  E  E  E      E  E  E  E  E  E  E  E   
-----------------------------|--------------------------|
-----------------------------|-----3-----3-----3-----3--|
-----------------------------|-----2-----2-----2-----2--|
--(0)--2--2--2--------2------|-----0-----0-----0-----0--|
---0---2-----------2--2--3/--|--------------------------|
-------0--------0-----0------|--------------------------|


  E  E  E  E   S S E  E  E      E  E  E  E   S S E  E  E    
-----------------------------|-----------------------------|
-----------------------------|-----------------------------|
-----2--0--2~--L-0-2--0------|-----2--0--2~--L-0-2--0------|
-----------------------------|-----------------------------|
--0----------------------3b--|--0----------------------3b--|
-----------------------------|-----------------------------|


  E  E  E  E  E  E  E  E     E  E  E  E  E  E  E  E   
--------------------------|--------------------------|
--------------------------|--------------------------|
--------------------------|--------------------------|
-----2-----2-----2-----7--|-----7-----7-----7-----7--|
-----0-----0-----0-----5--|-----5-----5-----5-----5--|
--------------------------|--------------------------|


  E  E  E  E  E  E  E  E     E  E  E  E  E  E  E  E   
--------------------------|--------------------------|
--------------------------|--------------------------|
--------------------------|--------------------------|
-----2-----2-----2-----2--|-----2-----2-----2-----2--|
-----0-----0-----0-----0--|-----0-----0-----0-----0--|
--------------------------|--------------------------|


  E  E  E  E  E  E  E  E     E  E  E  E  E  E  E  E   
--------------------------|--------------------------|
-----7-----7-----7-----7--|-----7-----7-----7-----7--|
-----5-----5-----5-----5--|-----5-----5-----5-----5--|
-----7-----7-----7-----7--|-----7-----7-----7-----7--|
-----5-----5-----5-----5--|-----5-----5-----5-----5--|
--------------------------|--------------------------|


  E  E  E  E  E  E  E  E     E  E  E  E  E  E  E  E   
--------------------------|--------------------------|
--------------------------|--------------------------|
--------------------------|--------------------------|
-----2-----2-----2-----2--|-----2-----2-----2-----2--|
-----0-----0-----0-----0--|-----0-----0-----0-----0--|
--------------------------|--------------------------|


  E  E  E  E  E  E  E  E     E  E  E  E  E  E  E  E   
--------------------------|--------------------------|
--------------------------|--------------------------|
-----9-----------9-----9--|--------------------------|
--------9-----------9-----|--7--7--7--7--7--7--7--7--|
--7--------7--------------|--5--5--5--5--5--5--5--5--|
--------------------------|--------------------------|


  E  E  E  E  E  E  E  E     E  E  E  E  E  E  E  E   
--------------------------|--------------------------|
--------------------------|--------------------------|
--------------------------|--------------------------|
-----2-----2-----2-----2--|-----2-----2-----2-----2--|
-----0-----0-----0-----0--|-----0-----0-----0-----0--|
--------------------------|--------------------------|


  E  E  E  E  E  E  E  E     E  E  E  E  E  E  E  E   
--------------------------|--------------------------|
--------------------------|--------------------------|
--------------------------|--------------------------|
-----2-----2-----2-----7--|-----7-----7-----7-----7--|
-----0-----0-----0-----5--|-----5-----5-----5-----5--|
--------------------------|--------------------------|


  E  E  E  E  E  E  E  E     E  E  E  E  E  E  E  E   
--------------------------|--------------------------|
--------------------------|--------------------------|
--------------------------|--------------------------|
-----2-----2-----2-----2--|-----2-----2-----2-----2--|
-----0-----0-----0-----0--|-----0-----0-----0-----0--|
--------------------------|--------------------------|


  E  E  E  E  E  E  E  E     E  E  E  E  E  E  E  E   
--------------------------|--------------------------|
-----7-----7-----7-----7--|-----7-----7-----7-----7--|
-----5-----5-----5-----5--|-----5-----5-----5-----5--|
-----7-----7-----7-----7--|-----7-----7-----7-----7--|
-----5-----5-----5-----5--|-----5-----5-----5-----5--|
--------------------------|--------------------------|


  E  E  E  E  E  E  E  E     E  E  E  E  E  E  E  E   
--------------------------|--------------------------|
--------------------------|--------------------------|
--------------------------|--------------------------|
-----2-----2-----2-----2--|-----2-----2-----2-----2--|
-----0-----0-----0-----0--|-----0-----0-----0-----0--|
--------------------------|--------------------------|


  E  E  E  E  E  E  E  E     E  E  E  E  E  E  E  E   
--------------------------|--------------------------|
--------------------------|--------------------------|
-----9-----------9-----9--|--------------------------|
--------9-----------9-----|--7--7--7--7--7--7--7--7--|
--7--------7--------------|--5--5--5--5--5--5--5--5--|
--------------------------|--------------------------|


  E  E  E  E  E  E  E  E     E  E  E  E  E  E  E  E   
--------------------------|--------------------------|
--------------------------|--------------------------|
--------------------------|--------------------------|
-----2-----2-----2-----2--|-----2-----2-----2-----2--|
-----0-----0-----0-----0--|-----0-----0-----0-----0--|
--------------------------|--------------------------|


  E  E  E  E  E  E  E  E     E  E  E  E  E  E  E  E   
--------------------------|--------------------------|
--------------------------|--------------------------|
--------------------------|--------------------------|
-----2-----2-----2-----7--|-----7-----7-----7-----7--|
-----0-----0-----0-----5--|-----5-----5-----5-----5--|
--------------------------|--------------------------|


  E  E  E  E  E  E  E  E     E  E  E  E  E  E  E  E   
--------------------------|--------------------------|
--------------------------|--------------------------|
--------------------------|--------------------------|
-----2-----2-----2-----2--|-----2-----2-----2-----2--|
-----0-----0-----0-----0--|-----0-----0-----0-----0--|
--------------------------|--------------------------|


  E  E  E  E  E  E  E  E     E  E  E  E  E  E  E  E   
--------------------------|--------------------------|
-----7-----7-----7-----7--|-----7-----7-----7-----7--|
-----5-----5-----5-----5--|-----5-----5-----5-----5--|
-----7-----7-----7-----7--|-----7-----7-----7-----7--|
-----5-----5-----5-----5--|-----5-----5-----5-----5--|
--------------------------|--------------------------|


  E  E  E  E  E  E  E  E     E  E  E  E  E  E  E  E   
--------------------------|--------------------------|
--------------------------|--------------------------|
--------------------------|--------------------------|
-----2-----2-----2-----2--|-----2-----2-----2-----2--|
-----0-----0-----0-----0--|-----0-----0-----0-----0--|
--------------------------|--------------------------|


  E  E  E  E  E  E  E  E     E  E  E  E  E  E  E  E   
--------------------------|--------------------------|
--------------------------|--------------------------|
-----9-----------9-----9--|--------------------------|
--------9-----------9-----|--7--7--7--7--7--7--7--7--|
--7--------7--------------|--5--5--5--5--5--5--5--5--|
--------------------------|--------------------------|


  E  E  E  E  E  E  E  E     E  E  E  E  E  E  E  E   
--------------------------|--------------------------|
--------------------------|--------------------------|
--------------------------|--------------------------|
-----2-----2-----2-----2--|-----2-----2-----2-----2--|
-----0-----0-----0-----0--|-----0-----0-----0-----0--|
--------------------------|--------------------------|


  E  E  E  E   S S E  E  E      E  E  E  E  E  E  E  E   
-----------------------------|--------------------------|
-----------------------------|--------------------------|
-----2--0--2~--L-0-2--0------|--------------------------|
-----------------------------|--7--7--9--7-----7--9--7--|
--0----------------------3b--|--5--5--5--5-----5--5-----|
-----------------------------|--------------------------|


  E  E  E  E   S S E  E  E      E  E  E  E   S S E  E  E    
-----------------------------|-----------------------------|
-----------------------------|-----------------------------|
-----2--0--2~--L-0-2--0------|-----2--0--2~--L-0-2--0------|
-----------------------------|-----------------------------|
--0----------------------3b--|--0----------------------3b--|
-----------------------------|-----------------------------|


  E  E  E  E  E  E  E  E     E  E  E  E  E  E  E  E   
--------------------------|--------------------------|
--------------------------|--------------------------|
--------------------------|--------------------------|
--7--7--9--7-----7--9--6--|--7--7--9--7-----7--9--7--|
--5--5--5--5-----5--5--4--|--5--5--5--5-----5--5-----|
--------------------------|--------------------------|


  E  E  E  E   S S E  E  E      E  E  E  E   S S E  E  E    
-----------------------------|-----------------------------|
-----------------------------|-----------------------------|
-----2--0--2~--L-0-2--0------|-----2--0--2~--L-0-2--0------|
-----------------------------|-----------------------------|
--0----------------------3b--|--0----------------------3b--|
-----------------------------|-----------------------------|


   E   E  E  E  E  E  E  E      E  E  Q    H                           
-----------------------------|----------------------|-----|-----|-----|
-----------------------------|----------------------|-----|-----|-----|
-----------------------------|--2-------------------|-----|-----|-----|
--(0)--2--2--2--------2------|--0-------------------|-----|-----|-----|
---0---2-----------2--2--3/--|----------------------|-----|-----|-----|
-------0--------0-----0------|----------------------|-----|-----|-----|


  W                   W                   W                 
--5----------------|--L----------------|--L----------------|
--5----------------|--L----------------|--L----------------|
--6----------------|--L----------------|--L----------------|
--5----------------|--L----------------|--L----------------|
--7----------------|--L----------------|--L----------------|
--5----------------|--L----------------|--L----------------|


  W                Q       Q    Q     H          
--L----------------L----|----------------------||
--L----------------L----|----------------------||
--L----------------L----|--6----L\-------------||
--L----------------L----|--5----L\-------------||
--L----------------L----|--7----L\-------------||
--L----------------L----|--5----L\-------------||




Duration Legend
---------------
W - whole
H - half
Q - quarter
E - 8th
S - 16th
T - 32nd
X - 64th
. - note dotted
|-n-|  - n-tuplets


Tablature Legend
----------------
L - tied note
x - dead note
g - grace note
(n) - ghost note
> - accentuded note
NH - natural harmonic
AH - artificial harmonic
TH - tapped harmonic
SH - semi harmonic
PH - pitch harmonic
h - hammer on
p - pull off
b - bend
br - bendRelease
pb - preBend
pbr - preBendRelease
brb - bendReleaseBend
\n/ - tremolo bar dip
\n - tremolo bar dive
-/n - tremolo bar Release up
/n\ - tremolo bar inverted dip
/n - tremolo bar return
-\n - tremolo bar Release down
S - shift slide
s - legato slide
/ -  slide into from below or out of upwards
\ -  slide into from above or out of downwards
~ - vibrato
W - wide vibrato
tr - trill
TP - tremolo picking
T - tapping
S - slap
P - pop
< - fade in
^ - brush up
v - brush down

comments
print report bad tab
1 comment total.
0 reply
TheRudyGast wrote on June 9 2013, 08:20 am

This song is so damn easy to play

I want to post or [tab]
guest
You may want to rate the tab now too:
select rating
Please do not post tabs as comments. Select "correction" instead!