Oops, an error
Loading. Please wait.

Every Mothers Son Tab

ver1
ver1

Intro

Whole song

Interactive

More versions @911Tabs.com
8,381 views 33 this week
2 commentsread comments
1 2 3 4 5
excellent!
x 1
Autoscroll
+/-
esc
set tempo
stop
Hey! There's an official Ultimate Guitar app which is ideal
for learning songs when you're away from computer. Get the app
WARNING: You are trying to view
                                    content from Ultimate-Guitar.com
                                    in an unauthorized application,
                                    which is prohibited.

                                    Please use an official Ultimate
                                    Guitar Tabs application for iPhone,
                                    iPad or Android to access legitimate
                                    chords, guitar, bass, and drum tabs
                                    from Ultimate-Guitar.com database.

                                    Type "ultimate guitar tabs" in Apple
                                    App Store's or Android Market's
                                    search to find the application.
Guitar 1


     W                   Q    E  E  E  E  E  E     E  E  Q    S  S S S S  S E   
E||-------------------|--3----3--------2--------|------------------------------|
B||-------------------|--3-------3--------3-----|--------1-------------1-------|
G||-------------------|--0----------------------|--------0----0h-2-2-2-2p-0-0--|
D||-------------------|--0----------0-----------|-----2------------------------|
A||-------------------|--2-------------------3--|--L---------------------------|
E||-------------------|--3----------------------|------------------------------|


  Q    E  E  E  E  E  E     E  E  Q    S  S E  S  S S S  
-------3--------2--------|------------------------------|
----------3--------3-----|--------1---------------------|
-------------------------|--------0---------0-------0-0-|
-------------0-----------|-----2-------0h-2----0h-2-----|
--2-------------------3--|--L---------------------------|
--3----------------------|------------------------------|


  Q    E  E  E  E  E  E     E  E  Q    S  S E  S  S S S  
-------3--------2--------|------------------------------|
----------3--------3-----|--------1---------------------|
-------------------------|--------0---------0-------0-0-|
-------------0-----------|-----2-------0h-2----0h-2-----|
--2-------------------3--|--L---------------------------|
--3----------------------|------------------------------|


  Q    E  E  E  E  E  E     E  E  Q    S  S S S S  S E   
-------3--------2--------|------------------------------|
----------3--------3-----|--------1-------------1-------|
-------------------------|--------0----0h-2-2-2-2p-0-0--|
-------------0-----------|-----2------------------------|
--2-------------------3--|--L---------------------------|
--3----------------------|------------------------------|


  Q    E  E  E  E  E  E     E  E  Q    S  S S S S  S E   
-------3--------2--------|------------------------------|
----------3--------3-----|--------1-------------1-------|
-------------------------|--------0----0h-2-2-2-2p-0-0--|
-------------0-----------|-----2------------------------|
--2-------------------3--|--L---------------------------|
--3----------------------|------------------------------|


  Q    E  E  E  E  E  E     E  E  Q    S  S E  S  S S S  
-------3--------2--------|------------------------------|
----------3--------3-----|--------1---------------------|
-------------------------|--------0---------0-------0-0-|
-------------0-----------|-----2-------0h-2----0h-2-----|
--2-------------------3--|--L---------------------------|
--3----------------------|------------------------------|


  Q    E  E  E  E  E  E     E  E  Q    S  S S S S  S E   
-------3--------2--------|------------------------------|
----------3--------3-----|--------1-------------1-------|
-------------------------|--------0----0h-2-2-2-2p-0-0--|
-------------0-----------|-----2------------------------|
--2-------------------3--|--L---------------------------|
--3----------------------|------------------------------|


  Q    E  E  E  E  E  E     E  E  Q    S  S E  S  S S S  
-------3--------2--------|------------------------------|
----------3--------3-----|--------1---------------------|
-------------------------|--------0---------0-------0-0-|
-------------0-----------|-----2-------0h-2----0h-2-----|
--2-------------------3--|--L---------------------------|
--3----------------------|------------------------------|


  Q    E  E  E  E  E  E     E  E  Q    S  S S S S  S E   
-------3--------2--------|------------------------------|
----------3--------3-----|--------1-------------1-------|
-------------------------|--------0----0h-2-2-2-2p-0-0--|
-------------0-----------|-----2------------------------|
--2-------------------3--|--L---------------------------|
--3----------------------|------------------------------|


  Q    E  E  E  E  E  E     E  E  Q    S  S E  S  S S S  
-------3--------2--------|------------------------------|
----------3--------3-----|--------1---------------------|
-------------------------|--------0---------0-------0-0-|
-------------0-----------|-----2-------0h-2----0h-2-----|
--2-------------------3--|--L---------------------------|
--3----------------------|------------------------------|


  Q    E  E  E  E  E  E     E  E  Q    S  S S S S  S E   
-------3--------2--------|------------------------------|
----------3--------3-----|--------1-------------1-------|
-------------------------|--------0----0h-2-2-2-2p-0-0--|
-------------0-----------|-----2------------------------|
--2-------------------3--|--L---------------------------|
--3----------------------|------------------------------|


  Q    E  E  E  E  E  E     W                   Q    E  E  E  E  E  E   
-------3--------2--------|-------------------|-------------------------|
----------3--------3--1--|--L----------------|----------------7--------|
----------------------0--|--L----------------|--4-------4--7--7--x--5--|
-------------0--------2--|--L----------------|--5----5--5--7--7--x--5--|
--2-------------------3--|--L----------------|--5----5--5--5-----x--3--|
--3----------------------|-------------------|--3----3-----------------|


  E  E  Q    E  E  E  E     Q    E  E  E  E  E  E     E  E  Q    E  E  E  E   
-------------------------|-------------------------|-------------------------|
-------------------------|----------------7--------|-------------------------|
--L--x--5----x--7--x--5--|--4-------4--7--7--x--5--|--L--x--5----x--7--x--5--|
--L--x--5----x--7--x--5--|--5----5--5--7--7--x--5--|--L--x--5----x--7--x--5--|
--L--x--3----x--5--x--3--|--5----5--5--5-----x--3--|--L--x--3----x--5--x--3--|
-------------------------|--3----3-----------------|-------------------------|


  Q    E  E  E  E  E  E     E  E  Q    E  E  E  E     Q    E  E  E  E  E  E   
-------------------------|-------------------------|-------------------------|
----------------7--------|-------------------------|----------------7--------|
--4-------4--7--7--x--5--|--L--x--5----x--7--x--5--|--4-------4--7--7--x--5--|
--5----5--5--7--7--x--5--|--L--x--5----x--7--x--5--|--5----5--5--7--7--x--5--|
--5----5--5--5-----x--3--|--L--x--3----x--5--x--3--|--5----5--5--5-----x--3--|
--3----3-----------------|-------------------------|--3----3-----------------|


  W                   Q    E  E  E  E  E  E     E  E  Q    S  S S S S  S E   
-------------------|-------3--------2--------|------------------------------|
-------------------|----------3--------3-----|--------1-------------1-------|
--L----------------|-------------------------|--------0----0h-2-2-2-2p-0-0--|
--L----------------|-------------0-----------|-----2------------------------|
--L----------------|--2-------------------3--|--L---------------------------|
-------------------|--3----------------------|------------------------------|


  Q    E  E  E  E  E  E     W                   W                 
-------3--------2--------|-------------------|-------------------|
----------3--------3-----|-------------------|-------------------|
-------------------------|-------------------|-------------------|
-------------0-----------|-------------------|-------------------|
--2-------------------3--|--L----------------|-------------------|
--3----------------------|-------------------|-------------------|


  Q    E  E  E  E  E  E     E  E  Q    S  S S S S  S E   
-------3--------2--------|------------------------------|
----------3--------3-----|--------1-------------1-------|
-------------------------|--------0----0h-2-2-2-2p-0-0--|
-------------0-----------|-----2------------------------|
--2-------------------3--|--L---------------------------|
--3----------------------|------------------------------|


  Q    E  E  E  E  E  E     E  E  Q    S  S S S S  S E   
-------3--------2--------|------------------------------|
----------3--------3-----|--------1-------------1-------|
-------------------------|--------0----0h-2-2-2-2p-0-0--|
-------------0-----------|-----2------------------------|
--2-------------------3--|--L---------------------------|
--3----------------------|------------------------------|


  Q    E  E  E  E  E  E     E  E  Q    S  S S S S  S E   
-------3--------2--------|------------------------------|
----------3--------3-----|--------1-------------1-------|
-------------------------|--------0----0h-2-2-2-2p-0-0--|
-------------0-----------|-----2------------------------|
--2-------------------3--|--L---------------------------|
--3----------------------|------------------------------|


  Q    E  E  E  E  E  E     E  E  Q    S  S S S S  S E   
-------3--------2--------|------------------------------|
----------3--------3-----|--------1-------------1-------|
-------------------------|--------0----0h-2-2-2-2p-0-0--|
-------------0-----------|-----2------------------------|
--2-------------------3--|--L---------------------------|
--3----------------------|------------------------------|


  Q    E  E  E  E  E  E     E  E  Q    S  S S S S  S E   
-------3--------2--------|------------------------------|
----------3--------3-----|--------1-------------1-------|
-------------------------|--------0----0h-2-2-2-2p-0-0--|
-------------0-----------|-----2------------------------|
--2-------------------3--|--L---------------------------|
--3----------------------|------------------------------|


  Q    E  E  E  E  E  E     E  E  Q    S  S S S S  S E   
-------3--------2--------|------------------------------|
----------3--------3-----|--------1-------------1-------|
-------------------------|--------0----0h-2-2-2-2p-0-0--|
-------------0-----------|-----2------------------------|
--2-------------------3--|--L---------------------------|
--3----------------------|------------------------------|


  Q    E  E  E  E  E  E     E  E  Q    S  S S S S  S E   
-------3--------2--------|------------------------------|
----------3--------3-----|--------1-------------1-------|
-------------------------|--------0----0h-2-2-2-2p-0-0--|
-------------0-----------|-----2------------------------|
--2-------------------3--|--L---------------------------|
--3----------------------|------------------------------|


  Q    E  E  E  E  E  E     E  E  Q    S  S S S S  S E   
-------3--------2--------|------------------------------|
----------3--------3-----|--------1-------------1-------|
-------------------------|--------0----0h-2-2-2-2p-0-0--|
-------------0-----------|-----2------------------------|
--2-------------------3--|--L---------------------------|
--3----------------------|------------------------------|


  Q    E  E  E  E  E  E     E  E  Q    E  E  E  E     Q    E  E  E  E  E  E   
-------------------------|-------------------------|-------------------------|
----------------7--------|-------------------------|----------------7--------|
--4-------4--7--7--x--5--|--L--x--5----x--7--x--5--|--4-------4--7--7--x--5--|
--5----5--5--7--7--x--5--|--L--x--5----x--7--x--5--|--5----5--5--7--7--x--5--|
--5----5--5--5-----x--3--|--L--x--3----x--5--x--3--|--5----5--5--5-----x--3--|
--3----3-----------------|-------------------------|--3----3-----------------|


  E  E  Q    E  E  E  E     Q    E  E  E  E  E  E     E  E  Q    E  E  E  E   
-------------------------|-------------------------|-------------------------|
-------------------------|----------------7--------|-------------------------|
--L--x--5----x--7--x--5--|--4-------4--7--7--x--5--|--L--x--5----x--7--x--5--|
--L--x--5----x--7--x--5--|--5----5--5--7--7--x--5--|--L--x--5----x--7--x--5--|
--L--x--3----x--5--x--3--|--5----5--5--5-----x--3--|--L--x--3----x--5--x--3--|
-------------------------|--3----3-----------------|-------------------------|


  Q    E  E  E  E  E  E     W                   Q    E  E  E  E  E  E   
-------------------------|-------------------|-------3--------2--------|
----------------7--------|-------------------|----------3--------3-----|
--4-------4--7--7--x--5--|--L----------------|-------------------------|
--5----5--5--7--7--x--5--|--L----------------|-------------0-----------|
--5----5--5--5-----x--3--|--L----------------|--2-------------------3--|
--3----3-----------------|-------------------|--3----------------------|


  E  E  Q    S  S S S S  S E     Q    E  E  E  E  E  E   
------------------------------|-------3--------2--------|
--------1-------------1-------|----------3--------3-----|
--------0----0h-2-2-2-2p-0-0--|-------------------------|
-----2------------------------|-------------0-----------|
--L---------------------------|--2-------------------3--|
------------------------------|--3----------------------|


  E  E  Q    S  S S S S  S E     Q    E  E  E  E  E  E   
------------------------------|-------3--------2--------|
--------1-------------1-------|----------3--------3-----|
--------0----0h-2-2-2-2p-0-0--|-------------------------|
-----2------------------------|-------------0-----------|
--L---------------------------|--2-------------------3--|
------------------------------|--3----------------------|


  E  E  Q    S  S S S S  S E     Q    E  E  E  E  E  E   
------------------------------|-------3--------2--------|
--------1-------------1-------|----------3--------3-----|
--------0----0h-2-2-2-2p-0-0--|-------------------------|
-----2------------------------|-------------0-----------|
--L---------------------------|--2-------------------3--|
------------------------------|--3----------------------|


  E  E  Q    S  S S S S  S E     Q    E  E  E  E  E  E   
------------------------------|-------------------------|
--------1-------------1-------|----------------7--------|
--------0----0h-2-2-2-2p-0-0--|--4-------4--7--7--x--5--|
-----2------------------------|--5----5--5--7--7--x--5--|
--L---------------------------|--5----5--5--5-----x--3--|
------------------------------|--3----3-----------------|


  E  E  Q    E  E  E  E     Q    E  E  E  E  E  E     E  E  Q    E  E  E  E   
-------------------------|-------------------------|-------------------------|
-------------------------|----------------7--------|-------------------------|
--L--x--5----x--7--x--5--|--4-------4--7--7--x--5--|--L--x--5----x--7--x--5--|
--L--x--5----x--7--x--5--|--5----5--5--7--7--x--5--|--L--x--5----x--7--x--5--|
--L--x--3----x--5--x--3--|--5----5--5--5-----x--3--|--L--x--3----x--5--x--3--|
-------------------------|--3----3-----------------|-------------------------|


  Q    E  E  E  E  E  E     E  E  Q    E  E  E  E     Q    E  E  E  E  E  E   
-------------------------|-------------------------|-------------------------|
----------------7--------|-------------------------|----------------7--------|
--4-------4--7--7--x--5--|--L--x--5----x--7--x--5--|--4-------4--7--7--x--5--|
--5----5--5--7--7--x--5--|--L--x--5----x--7--x--5--|--5----5--5--7--7--x--5--|
--5----5--5--5-----x--3--|--L--x--3----x--5--x--3--|--5----5--5--5-----x--3--|
--3----3-----------------|-------------------------|--3----3-----------------|


  E  E  Q    E  E  E  E     Q    E  E  E  E  E  E     E  E  Q    E  E  E  E   
-------------------------|-------------------------|-------------------------|
-------------------------|----------------7--------|-------------------------|
--L--x--5----x--7--x--5--|--4-------4--7--7--x--5--|--L--x--5----x--7--x--5--|
--L--x--5----x--7--x--5--|--5----5--5--7--7--x--5--|--L--x--5----x--7--x--5--|
--L--x--3----x--5--x--3--|--5----5--5--5-----x--3--|--L--x--3----x--5--x--3--|
-------------------------|--3----3-----------------|-------------------------|


  Q    E  E  E  E  E  E     E  E  Q    E  E  E  E     Q    E  E  E  E  E  E   
-------------------------|-------------------------|-------------------------|
----------------7--------|-------------------------|----------------7--------|
--4-------4--7--7--x--5--|--L--x--5----x--7--x--5--|--4-------4--7--7--x--5--|
--5----5--5--7--7--x--5--|--L--x--5----x--7--x--5--|--5----5--5--7--7--x--5--|
--5----5--5--5-----x--3--|--L--x--3----x--5--x--3--|--5----5--5--5-----x--3--|
--3----3-----------------|-------------------------|--3----3-----------------|


  E  E  Q    E  E  E  E     Q    E  E  E  E  E  E     W                 
-------------------------|-------------------------|-------------------|
-------------------------|----------------7--------|-------------------|
--L--x--5----x--7--x--5--|--4-------4--7--7--x--5--|--L----------------|
--L--x--5----x--7--x--5--|--5----5--5--7--7--x--5--|--L----------------|
--L--x--3----x--5--x--3--|--5----5--5--5-----x--3--|--L----------------|
-------------------------|--3----3-----------------|-------------------|


  W                   Q    E  E  E  E  E  E     E  E  Q    S  S S S S  S E   
-------------------|-------3--------2--------|------------------------------|
-------------------|----------3--------3-----|--------1-------------1-------|
--L----------------|-------------------------|--------0----0h-2-2-2-2p-0-0--|
--L----------------|-------------0-----------|-----2------------------------|
--L----------------|--2-------------------3--|--L---------------------------|
-------------------|--3----------------------|------------------------------|


  Q    E  E  E  E  E  E     E  E  Q    S  S S S S  S E   
-------3--------2--------|------------------------------|
----------3--------3-----|--------1-------------1-------|
-------------------------|--------0----0h-2-2-2-2p-0-0--|
-------------0-----------|-----2------------------------|
--2-------------------3--|--L---------------------------|
--3----------------------|------------------------------|


  Q    E  E  E  E  E  E     E  E  Q    S  S S S S  S E   
-------3--------2--------|------------------------------|
----------3--------3-----|--------1-------------1-------|
-------------------------|--------0----0h-2-2-2-2p-0-0--|
-------------0-----------|-----2------------------------|
--2-------------------3--|--L---------------------------|
--3----------------------|------------------------------|


  Q    E  E  E  E  E  E     E  E  Q    S  S S S S  S E   
-------3--------2--------|------------------------------|
----------3--------3-----|--------1-------------1-------|
-------------------------|--------0----0h-2-2-2-2p-0-0--|
-------------0-----------|-----2------------------------|
--2-------------------3--|--L---------------------------|
--3----------------------|------------------------------|


  Q    E  E  E  E  E  E     E  E  Q    S  S S S S  S E   
-------3--------2--------|------------------------------|
----------3--------3-----|--------1-------------1-------|
-------------------------|--------0----0h-2-2-2-2p-0-0--|
-------------0-----------|-----2------------------------|
--2-------------------3--|--L---------------------------|
--3----------------------|------------------------------|


  Q    E  E  E  E  E  E     E  E  Q    S  S S S S  S E   
-------3--------2--------|------------------------------|
----------3--------3-----|--------1-------------1-------|
-------------------------|--------0----0h-2-2-2-2p-0-0--|
-------------0-----------|-----2------------------------|
--2-------------------3--|--L---------------------------|
--3----------------------|------------------------------|


  Q    E  E  E  E  E  E     E  E  Q    S  S S S S  S E   
-------3--------2--------|------------------------------|
----------3--------3-----|--------1-------------1-------|
-------------------------|--------0----0h-2-2-2-2p-0-0--|
-------------0-----------|-----2------------------------|
--2-------------------3--|--L---------------------------|
--3----------------------|------------------------------|


  Q    E  E  E  E  E  E     E  E  Q    S  S S S S  S E   
-------3--------2--------|------------------------------|
----------3--------3-----|--------1-------------1-------|
-------------------------|--------0----0h-2-2-2-2p-0-0--|
-------------0-----------|-----2------------------------|
--2-------------------3--|--L---------------------------|
--3----------------------|------------------------------|


  Q    E  E  E  E  E  E     E  E  Q    E  E  E  E     Q    E  E  E  E  E  E   
-------------------------|-------------------------|-------------------------|
----------------7--------|-------------------------|----------------7--------|
--4-------4--7--7--x--5--|--L--x--5----x--7--x--5--|--4-------4--7--7--x--5--|
--5----5--5--7--7--x--5--|--L--x--5----x--7--x--5--|--5----5--5--7--7--x--5--|
--5----5--5--5-----x--3--|--L--x--3----x--5--x--3--|--5----5--5--5-----x--3--|
--3----3-----------------|-------------------------|--3----3-----------------|


  E  E  Q    E  E  E  E     Q    E  E  E  E  E  E     E  E  Q    E  E  E  E   
-------------------------|-------------------------|-------------------------|
-------------------------|----------------7--------|-------------------------|
--L--x--5----x--7--x--5--|--4-------4--7--7--x--5--|--L--x--5----x--7--x--5--|
--L--x--5----x--7--x--5--|--5----5--5--7--7--x--5--|--L--x--5----x--7--x--5--|
--L--x--3----x--5--x--3--|--5----5--5--5-----x--3--|--L--x--3----x--5--x--3--|
-------------------------|--3----3-----------------|-------------------------|


  Q    E  E  E  E  E  E     E  Q.     S E.  S E.     Q    E  E  E  E  E  E   
-------------------------|------------------------|-------------------------|
----------------7--------|------------------------|----------------7--------|
--4-------4--7--7--x--5--|--L---------x-5---x-7---|--4-------4--7--7--x--5--|
--5----5--5--7--7--x--5--|--L---------x-5---x-7---|--5----5--5--7--7--x--5--|
--5----5--5--5-----x--3--|--L---------x-3---x-5---|--5----5--5--5-----x--3--|
--3----3-----------------|------------------------|--3----3-----------------|


  E  E  Q    E  E  E  E     Q    E  E  E  E  E  E     E  E  Q    E  E  E  E   
-------------------------|-------------------------|-------------------------|
-------------------------|----------------7--------|-------------------------|
--L--x--5----x--7--x--5--|--4-------4--7--7--x--5--|--L--x--5----x--7--x--5--|
--L--x--5----x--7--x--5--|--5----5--5--7--7--x--5--|--L--x--5----x--7--x--5--|
--L--x--3----x--5--x--3--|--5----5--5--5-----x--3--|--L--x--3----x--5--x--3--|
-------------------------|--3----3-----------------|-------------------------|


  Q    E  E  E  E  E  E     E  E  Q    E  E  E  E     Q    E  E  E  E  E  E   
-------------------------|-------------------------|-------------------------|
----------------7--------|-------------------------|----------------7--------|
--4-------4--7--7--x--5--|--L--x--5----x--7--x--5--|--4-------4--7--7--x--5--|
--5----5--5--7--7--x--5--|--L--x--5----x--7--x--5--|--5----5--5--7--7--x--5--|
--5----5--5--5-----x--3--|--L--x--3----x--5--x--3--|--5----5--5--5-----x--3--|
--3----3-----------------|-------------------------|--3----3-----------------|


  E  E  E  E  E  E  E  E     Q    E  E  E  E  E  E     E  E  Q    E  E  E  E   
--------------------------|-------------------------|-------------------------|
--------------------------|----------------7--------|-------------------------|
--L--x--5--x--7--x--5--x--|--4-------4--7--7--x--5--|--L--x--5----x--7--x--5--|
--L--x--5--x--7--x--5--x--|--5----5--5--7--7--x--5--|--L--x--5----x--7--x--5--|
--L--x--3--x--5--x--3--x--|--5----5--5--5-----x--3--|--L--x--3----x--5--x--3--|
--------------------------|--3----3-----------------|-------------------------|


  Q    E  E  E  E  E  E     E  E  Q    E  E  E  E     Q    E  E  E  E  E  E   
-------------------------|-------------------------|-------------------------|
----------------7--------|-------------------------|----------------7--------|
--4-------4--7--7--x--5--|--L--x--5----x--7--x--5--|--4-------4--7--7--x--5--|
--5----5--5--7--7--x--5--|--L--x--5----x--7--x--5--|--5----5--5--7--7--x--5--|
--5----5--5--5-----x--3--|--L--x--3----x--5--x--3--|--5----5--5--5-----x--3--|
--3----3-----------------|-------------------------|--3----3-----------------|


  E  E  Q    E  E  E  E     Q    E  E  E  E  E  E     E  Q.     S E.  S E.   
-------------------------|-------------------------|------------------------|
-------------------------|----------------7--------|------------------------|
--L--x--5----x--7--x--5--|--4-------4--7--7--x--5--|--L---------x-5---x-7---|
--L--x--5----x--7--x--5--|--5----5--5--7--7--x--5--|--L---------x-5---x-7---|
--L--x--3----x--5--x--3--|--5----5--5--5-----x--3--|--L---------x-3---x-5---|
-------------------------|--3----3-----------------|------------------------|


  Q    E  E  E  E  E  E     E  E  Q    E  E  E  E     Q    E  E  E  E  E  E   
-------------------------|-------------------------|-------------------------|
----------------7--------|-------------------------|----------------7--------|
--4-------4--7--7--x--5--|--L--x--5----x--7--x--5--|--4-------4--7--7--x--5--|
--5----5--5--7--7--x--5--|--L--x--5----x--7--x--5--|--5----5--5--7--7--x--5--|
--5----5--5--5-----x--3--|--L--x--3----x--5--x--3--|--5----5--5--5-----x--3--|
--3----3-----------------|-------------------------|--3----3-----------------|


  E  E  Q    E  E  E  E     Q    E  E  E  E  E  E     E  E  Q    E  E  E  E   
-------------------------|-------------------------|-------------------------|
-------------------------|----------------7--------|-------------------------|
--L--x--5----x--7--x--5--|--4-------4--7--7--x--5--|--L--x--5----x--7--x--5--|
--L--x--5----x--7--x--5--|--5----5--5--7--7--x--5--|--L--x--5----x--7--x--5--|
--L--x--3----x--5--x--3--|--5----5--5--5-----x--3--|--L--x--3----x--5--x--3--|
-------------------------|--3----3-----------------|-------------------------|


                                                       ^                  
  Q    E  E  E  E  E  E     E  E  E  E  E  E  E  E     W                  
-------------------------|--------------------------|--3----------------||
----------------7--------|--------------------------|--3----------------||
--4-------4--7--7--x--5--|--L--x--5--x--7--x--5--x--|--4----------------||
--5----5--5--7--7--x--5--|--L--x--5--x--7--x--5--x--|--5----------------||
--5----5--5--5-----x--3--|--L--x--3--x--5--x--3--x--|--5----------------||
--3----3-----------------|--------------------------|--3----------------||










Guitar 2



     W                   H        Q.     E     Q.     E  S  E.  S  E.   
E||-------------------|---------------------|--------------------------|
B||-------------------|---------------------|--------------------------|
G||-------------------|---------------------|--------------------------|
D||-------------------|---------------------|--------------------------|
A||-------------------|-----------5------3--|--L---------3S-5---5S-3---|
E||-------------------|---------------------|--------------------------|


  H        Q.     E     Q.     E  S  S E  S  S E     H        Q.     E   
---------------------|----------------------------|---------------------|
---------------------|----------------------------|---------------------|
---------------------|-----------------0-------0--|---------------------|
---------------------|------------0h-2----0h-2----|---------------------|
-----------5------3--|--L-------------------------|-----------5------3--|
--3------------------|----------------------------|--3------------------|


  Q.     E  S  S E  S  S E     H        Q.     E     Q.     E  S  E.  S  E.   
----------------------------|---------------------|--------------------------|
----------------------------|---------------------|--------------------------|
-----------------0-------0--|---------------------|--------------------------|
------------0h-2----0h-2----|---------------------|--------------------------|
--L-------------------------|-----------5------3--|--L---------3S-5---5S-3---|
----------------------------|--3------------------|--------------------------|


  H        Q.     E     Q.     E  S  E.  S  E.     H        Q.     E   
---------------------|--------------------------|---------------------|
---------------------|--------------------------|---------------------|
---------------------|--------------------------|---------------------|
---------------------|--------------------------|---------------------|
-----------5------3--|--L---------3S-5---5S-3---|-----------5------3--|
---------------------|--------------------------|--3------------------|


  Q.     E  S  S E  S  S E     H        Q.     E     Q.     E  S  E.  S  E.   
----------------------------|---------------------|--------------------------|
----------------------------|---------------------|--------------------------|
-----------------0-------0--|---------------------|--------------------------|
------------0h-2----0h-2----|---------------------|--------------------------|
--L-------------------------|-----------5------3--|--L---------3S-5---5S-3---|
----------------------------|---------------------|--------------------------|


  H        Q.     E     Q.     E  S  S E  S  S E     H        Q.     E   
---------------------|----------------------------|---------------------|
---------------------|----------------------------|---------------------|
---------------------|-----------------0-------0--|---------------------|
---------------------|------------0h-2----0h-2----|---------------------|
-----------5------3--|--L-------------------------|-----------5------3--|
--3------------------|----------------------------|---------------------|


  Q.     E  S  E.  S  E.     H        Q.     E     Q.     E  S  S E  S  S E   
--------------------------|---------------------|----------------------------|
--------------------------|---------------------|----------------------------|
--------------------------|---------------------|-----------------0-------0--|
--------------------------|---------------------|------------0h-2----0h-2----|
--L---------3S-5---5S-3---|-----------5------3--|--L-------------------------|
--------------------------|--3------------------|----------------------------|


  H        Q.     E     Q.     E  S  E.  S  E.     H        Q.     E   
---------------------|--------------------------|------------------0--|
---------------------|--------------------------|------------------1--|
---------------------|--------------------------|------------------0--|
---------------------|--------------------------|------------------2--|
-----------5------3--|--L---------3S-5---5S-3---|-----------5------3--|
---------------------|--------------------------|--3------------------|


  Q.     E  S  E.  S  E.     W                   W                 
--L-----------------------|-------------------|-------------------|
--L-----------------------|-------------------|-------------------|
--L-----------------------|-------------------|-------------------|
--L----------------9S-7---|-------------------|-------------------|
------------5S-7----------|-------------------|-------------------|
--------------------------|-------------------|-------------------|


  W                   W                   W                   W                 
-------------------|-------------------|-------------------|-------------------|
-------------------|-------------------|-------------------|-------------------|
-------------------|-------------------|-------------------|-------------------|
-------------------|-------------------|-------------------|-------------------|
-------------------|-------------------|-------------------|-------------------|
-------------------|-------------------|-------------------|-------------------|


  W                   W                   W                   W                 
-------------------|-------------------|-------------------|-------------------|
-------------------|-------------------|-------------------|-------------------|
-------------------|-------------------|-------------------|-------------------|
-------------------|-------------------|-------------------|-------------------|
-------------------|-------------------|-------------------|-------------------|
-------------------|-------------------|-------------------|-------------------|


  W                   W                   W                   W                 
-------------------|-------------------|-------------------|-------------------|
-------------------|-------------------|-------------------|-------------------|
-------------------|-------------------|-------------------|-------------------|
-------------------|-------------------|-------------------|-------------------|
-------------------|-------------------|-------------------|-------------------|
-------------------|-------------------|-------------------|-------------------|


  W                   W                   W                   W                 
-------------------|-------------------|-------------------|-------------------|
-------------------|-------------------|-------------------|-------------------|
-------------------|-------------------|-------------------|-------------------|
-------------------|-------------------|-------------------|-------------------|
-------------------|-------------------|-------------------|-------------------|
-------------------|-------------------|-------------------|-------------------|


  W                   W                   W                   W                 
-------------------|-------------------|-------------------|-------------------|
-------------------|-------------------|-------------------|-------------------|
-------------------|-------------------|-------------------|-------------------|
-------------------|-------------------|-------------------|-------------------|
-------------------|-------------------|-------------------|-------------------|
-------------------|-------------------|-------------------|-------------------|


  W                   W                   W                   W                 
-------------------|-------------------|-------------------|-------------------|
-------------------|-------------------|-------------------|-------------------|
-------------------|-------------------|-------------------|-------------------|
-------------------|-------------------|-------------------|-------------------|
-------------------|-------------------|-------------------|-------------------|
-------------------|-------------------|-------------------|-------------------|


  W                   W                   W                   W                 
-------------------|-------------------|-------------------|-------------------|
-------------------|-------------------|-------------------|-------------------|
-------------------|-------------------|-------------------|-------------------|
-------------------|-------------------|-------------------|-------------------|
-------------------|-------------------|-------------------|-------------------|
-------------------|-------------------|-------------------|-------------------|


  W                   W                   W                   W                 
-------------------|-------------------|-------------------|-------------------|
-------------------|-------------------|-------------------|-------------------|
-------------------|-------------------|-------------------|-------------------|
-------------------|-------------------|-------------------|-------------------|
-------------------|-------------------|-------------------|-------------------|
-------------------|-------------------|-------------------|-------------------|


  W                   W                   W                   W                 
-------------------|-------------------|-------------------|-------------------|
-------------------|-------------------|-------------------|-------------------|
-------------------|-------------------|-------------------|-------------------|
-------------------|-------------------|-------------------|-------------------|
-------------------|-------------------|-------------------|-------------------|
-------------------|-------------------|-------------------|-------------------|


  W                   W                   W                   W                 
-------------------|-------------------|-------------------|-------------------|
-------------------|-------------------|-------------------|-------------------|
-------------------|-------------------|-------------------|-------------------|
-------------------|-------------------|-------------------|-------------------|
-------------------|-------------------|-------------------|-------------------|
-------------------|-------------------|-------------------|-------------------|


  W                   W                   W                   W                 
-------------------|-------------------|-------------------|-------------------|
-------------------|-------------------|-------------------|-------------------|
-------------------|-------------------|-------------------|-------------------|
-------------------|-------------------|-------------------|-------------------|
-------------------|-------------------|-------------------|-------------------|
-------------------|-------------------|-------------------|-------------------|


  W                   W                   W                   W                 
-------------------|-------------------|-------------------|-------------------|
-------------------|-------------------|-------------------|-------------------|
-------------------|-------------------|-------------------|-------------------|
-------------------|-------------------|-------------------|-------------------|
-------------------|-------------------|-------------------|-------------------|
-------------------|-------------------|-------------------|-------------------|


  W                   W                   W                   W                 
-------------------|-------------------|-------------------|-------------------|
-------------------|-------------------|-------------------|-------------------|
-------------------|-------------------|-------------------|-------------------|
-------------------|-------------------|-------------------|-------------------|
-------------------|-------------------|-------------------|-------------------|
-------------------|-------------------|-------------------|-------------------|


  W                   W                   W                   W                 
-------------------|-------------------|-------------------|-------------------|
-------------------|-------------------|-------------------|-------------------|
-------------------|-------------------|-------------------|-------------------|
-------------------|-------------------|-------------------|-------------------|
-------------------|-------------------|-------------------|-------------------|
-------------------|-------------------|-------------------|-------------------|


  W                   W                   W                   W                 
-------------------|-------------------|-------------------|-------------------|
-------------------|-------------------|-------------------|-------------------|
-------------------|-------------------|-------------------|-------------------|
-------------------|-------------------|-------------------|-------------------|
-------------------|-------------------|-------------------|-------------------|
-------------------|-------------------|-------------------|-------------------|


  W                   W                   W                   W                 
-------------------|-------------------|-------------------|-------------------|
-------------------|-------------------|-------------------|-------------------|
-------------------|-------------------|-------------------|-------------------|
-------------------|-------------------|-------------------|-------------------|
-------------------|-------------------|-------------------|-------------------|
-------------------|-------------------|-------------------|-------------------|


  W                   W                   W                   W                 
-------------------|-------------------|-------------------|-------------------|
-------------------|-------------------|-------------------|-------------------|
-------------------|-------------------|-------------------|-------------------|
-------------------|-------------------|-------------------|-------------------|
-------------------|-------------------|-------------------|-------------------|
-------------------|-------------------|-------------------|-------------------|


  W                   W                   W                   W                 
-------------------|-------------------|-------------------|-------------------|
-------------------|-------------------|-------------------|-------------------|
-------------------|-------------------|-------------------|-------------------|
-------------------|-------------------|-------------------|-------------------|
-------------------|-------------------|-------------------|-------------------|
-------------------|-------------------|-------------------|-------------------|


  W                   W                   W                   W                 
-------------------|-------------------|-------------------|-------------------|
-------------------|-------------------|-------------------|-------------------|
-------------------|-------------------|-------------------|-------------------|
-------------------|-------------------|-------------------|-------------------|
-------------------|-------------------|-------------------|-------------------|
-------------------|-------------------|-------------------|-------------------|


  W                   W                   W                   W                 
-------------------|-------------------|-------------------|-------------------|
-------------------|-------------------|-------------------|-------------------|
-------------------|-------------------|-------------------|-------------------|
-------------------|-------------------|-------------------|-------------------|
-------------------|-------------------|-------------------|-------------------|
-------------------|-------------------|-------------------|-------------------|


  W                   W                   W                   W                 
-------------------|-------------------|-------------------|-------------------|
-------------------|-------------------|-------------------|-------------------|
-------------------|-------------------|-------------------|-------------------|
-------------------|-------------------|-------------------|-------------------|
-------------------|-------------------|-------------------|-------------------|
-------------------|-------------------|-------------------|-------------------|


  W                   W                   W                   W                 
-------------------|-------------------|-------------------|-------------------|
-------------------|-------------------|-------------------|-------------------|
-------------------|-------------------|-------------------|-------------------|
-------------------|-------------------|-------------------|-------------------|
-------------------|-------------------|-------------------|-------------------|
-------------------|-------------------|-------------------|-------------------|


  W                   W                   W                   W                 
-------------------|-------------------|-------------------|-------------------|
-------------------|-------------------|-------------------|-------------------|
-------------------|-------------------|-------------------|-------------------|
-------------------|-------------------|-------------------|-------------------|
-------------------|-------------------|-------------------|-------------------|
-------------------|-------------------|-------------------|-------------------|


  W                   W                   W                   W                 
-------------------|-------------------|-------------------|-------------------|
-------------------|-------------------|-------------------|-------------------|
-------------------|-------------------|-------------------|-------------------|
-------------------|-------------------|-------------------|-------------------|
-------------------|-------------------|-------------------|-------------------|
-------------------|-------------------|-------------------|-------------------|


  W                   W                   W                   W                 
-------------------|-------------------|-------------------|-------------------|
-------------------|-------------------|-------------------|-------------------|
-------------------|-------------------|-------------------|-------------------|
-------------------|-------------------|-------------------|-------------------|
-------------------|-------------------|-------------------|-------------------|
-------------------|-------------------|-------------------|-------------------|


  Q    E.  S S E  S  S S E     W                   W                 
----------------------------|-------------------|-------------------|
--------------------20------|-------------------|-------------------|
----------------------------|-------------------|-------------------|
----------------------------|-------------------|-------------------|
----------------------------|-------------------|-------------------|
----------------------------|-------------------|-------------------|


  W                   W                   W                   W                 
-------------------|-------------------|-------------------|-------------------|
-------------------|-------------------|-------------------|-------------------|
-------------------|-------------------|-------------------|-------------------|
-------------------|-------------------|-------------------|-------------------|
-------------------|-------------------|-------------------|-------------------|
-------------------|-------------------|-------------------|-------------------|


  W                   W                  
-------------------|-------------------||
-------------------|-------------------||
-------------------|-------------------||
-------------------|-------------------||
-------------------|-------------------||
-------------------|-------------------||









Guitar 3


     W                   W                   W                 
E||-------------------|-------------------|-------------------|
B||-------------------|-------------------|-------------------|
G||-------------------|-------------------|-------------------|
D||-------------------|-------------------|-------------------|
A||-------------------|-------------------|-------------------|
E||-------------------|-------------------|-------------------|


  W                   W                   W                   W                 
-------------------|-------------------|-------------------|-------------------|
-------------------|-------------------|-------------------|-------------------|
-------------------|-------------------|-------------------|-------------------|
-------------------|-------------------|-------------------|-------------------|
-------------------|-------------------|-------------------|-------------------|
-------------------|-------------------|-------------------|-------------------|


  W                   W                   W                   W                 
-------------------|-------------------|-------------------|-------------------|
-------------------|-------------------|-------------------|-------------------|
-------------------|-------------------|-------------------|-------------------|
-------------------|-------------------|-------------------|-------------------|
-------------------|-------------------|-------------------|-------------------|
-------------------|-------------------|-------------------|-------------------|


  W                   W                   W                   W                 
-------------------|-------------------|-------------------|-------------------|
-------------------|-------------------|-------------------|-------------------|
-------------------|-------------------|-------------------|-------------------|
-------------------|-------------------|-------------------|-------------------|
-------------------|-------------------|-------------------|-------------------|
-------------------|-------------------|-------------------|-------------------|


  W                   W                   W                   W                 
-------------------|-------------------|-------------------|-------------------|
-------------------|-------------------|-------------------|-------------------|
-------------------|-------------------|-------------------|-------------------|
-------------------|-------------------|-------------------|-------------------|
-------------------|-------------------|-------------------|-------------------|
-------------------|-------------------|-------------------|-------------------|


  W                   W                   W                   W                 
-------------------|-------------------|-------------------|-------------------|
-------------------|-------------------|-------------------|-------------------|
-------------------|-------------------|-------------------|-------------------|
-------------------|-------------------|-------------------|-------------------|
-------------------|-------------------|-------------------|-------------------|
-------------------|-------------------|-------------------|-------------------|


  W                   W                   W                 
-------------------|-------------------|-------------------|
-------------------|-------------------|-------------------|
-------------------|-------------------|-------------------|
-------------------|-------------------|-------------------|
-------------------|-------------------|-------------------|
-------------------|-------------------|-------------------|


  Q.     E  S  S E  S  E.     Q    H        Q       Q.     E  S  S S E  S S  S  
---------------------------|---------------------|-----------------------------|
---------------------------|---------------------|-----------------------------|
-----------------0--4S-2---|--0------------------|-----------------0-0--0------|
------------0h-2-----------|---------------------|------------0h-2--------2p-0-|
---------------------------|---------------------|-----------------------------|
---------------------------|---------------------|-----------------------------|


  Q    H        Q       W                   W                 
---------------------|-------------------|-------------------|
---------------------|-------------------|-------------------|
---------------------|-------------------|-------------------|
---------------------|-------------------|-------------------|
---------------------|-------------------|-------------------|
--3------------------|-------------------|-------------------|


  H.            Q         H         E   Q       E   
----------------------|----------------------------|
---------------15b----|--15~-----------------------|
----------------------|----------------14br----12--|
----------------------|----------------------------|
----------------------|----------------------------|
----------------------|----------------------------|


                                                              SH          
   Q     S  E.   S  E   S  E   E        Q    Q     E     S    E   S  E    
-------------------------------------|-----------------------------------|
-------------------------------------|-----------------------------------|
---L---------------------------------|-----------------------------------|
--------14-12------------------------|---------------------<>12----------|
----------------14-12-----12--12brb--|--L---------12br-----------12-10~--|
-----------------------14------------|------------------14---------------|


   H.           Q       H        S  S E  S  S E     Q    H        Q     
---------------------|---------------------------|---------------------|
---------------------|---------------------------|---------------------|
---------------------|----------------0-------0--|---------------------|
---------------------|-----------0h-2----0h-2----|---------------------|
---L-----------------|---------------------------|---------------------|
---------------------|---------------------------|--3------------------|


  W                   Q    H        Q       Q.     E  S  S S E  S S  S  
-------------------|---------------------|-----------------------------|
-------------------|---------------------|-----------------------------|
-------------------|---------------------|-----------------0-0--0------|
-------------------|---------------------|------------0h-2--------2p-0-|
-------------------|---------------------|-----------------------------|
-------------------|---------------------|-----------------------------|


  Q    H        Q       Q.     E  S  S S E  S S  S    Q    H        Q     
---------------------|-----------------------------|---------------------|
---------------------|-----------------------------|---------------------|
---------------------|-----------------0-0--0------|---------------------|
---------------------|------------0h-2--------2p-0-|---------------------|
---------------------|-----------------------------|---------------------|
--3------------------|-----------------------------|--3------------------|


  Q.     E  S  S S E  S S  S    Q    Q.      E    E    E   
-----------------------------|--------------10S--12S--10--|
-----------------------------|----------------------------|
-----------------0-0--0------|----------------------------|
------------0h-2--------2p-0-|----------------------------|
-----------------------------|----------------------------|
-----------------------------|--3-------------------------|


  E  Q.     S  S S E  S S  S    Q    Q.      E    E   E   
--L--------------------------|---------------------------|
-----------------------------|--------------10S--12S--8--|
-----------------0-0--0------|---------------------------|
------------0h-2--------2p-0-|---------------------------|
-----------------------------|---------------------------|
-----------------------------|--3------------------------|


  E  Q.     S  S S E  S S  S    Q    Q.      E    E    E   
-----------------------------|--------------10S--12S--10--|
--L--------------------------|----------------------------|
-----------------0-0--0------|----------------------------|
------------0h-2--------2p-0-|----------------------------|
-----------------------------|----------------------------|
-----------------------------|--3-------------------------|


  E  Q.     S  S S E  S S  S    Q    Q.      E    E   E   
--L--------------------------|---------------------------|
-----------------------------|--------------10S--12S--8--|
-----------------0-0--0------|---------------------------|
------------0h-2--------2p-0-|---------------------------|
-----------------------------|---------------------------|
-----------------------------|--3------------------------|


  E  Q.     S  E.  S  E.     W                   Q.     E  S  S E  S  E.   
--------------------------|-------------------|---------------------------|
--------------------------|-------------------|---------------------------|
--------------------------|-------------------|-----------------0--4S-2---|
-------------------9S-7---|-------------------|------------0h-2-----------|
------------5S-7----------|-------------------|---------------------------|
--------------------------|-------------------|---------------------------|


  Q    H        Q       Q.     E  S  S S E  S S  S    Q    H        Q     
---------------------|-----------------------------|---------------------|
---------------------|-----------------------------|---------------------|
--0------------------|-----------------0-0--0------|---------------------|
---------------------|------------0h-2--------2p-0-|---------------------|
---------------------|-----------------------------|---------------------|
---------------------|-----------------------------|--3------------------|


  W                   W                   Q        E   E      E   E   E  E   
-------------------|-------------------|------------------------------------|
-------------------|-------------------|------------------------------------|
-------------------|-------------------|------------------------------------|
-------------------|-------------------|-------------------------12--14-----|
-------------------|-------------------|--------------10--12g14-------------|
-------------------|-------------------|-------10g12------------------------|


   H         E   Q      E      E      E   Q.         E   E      E   
---------------------------|---------------------------------------|
-----------------------15--|------------------------15-------------|
--12~-----------14b--------|--14pbr--12--14brb----------14pbr--12--|
---------------------------|---------------------------------------|
---------------------------|---------------------------------------|
---------------------------|---------------------------------------|


   Q      Q.      Q       E     E   S  S  S  E.   S  S  S  Q    S  
-----------------------------|------------------------------------|
--15b----15------------------|------------------------------------|
-----------------14br----12--|--L--------12-12------------12------|
-----------------------------|-----12-14---------12-14-14---------|
-----------------------------|------------------------------------|
-----------------------------|------------------------------------|


  E   Q      E   E      E   Q        E   E   E    Q      Q      E   
----------------------------------|--------------------------------|
------------15-------------15b----|--L--15--15b--15~----15-----15--|
-----14b--------14pbr--12---------|---------------------14b--------|
----------------------------------|--------------------------------|
----------------------------------|--------------------------------|
----------------------------------|--------------------------------|


   E      S  S  E    E   E      S  S  E   E   
---------------------------------------------|
--15-----15-15------15-------------------15--|
--14pbr--------14b------14pbr--14-14-16------|
---------------------------------------------|
---------------------------------------------|
---------------------------------------------|


   E      E   E   E   E   E   E   E      W                  
-------------------------------------|--15~----------------|
-------------------------12--13--15--|---------------------|
--14pbr--12------12--14--------------|---------------------|
-------------14----------------------|---------------------|
-------------------------------------|---------------------|
-------------------------------------|---------------------|


  H        H           W                   W                 
--L-----------------|-------------------|-------------------|
--------------------|-------------------|-------------------|
--------------------|-------------------|-------------------|
--------------------|-------------------|-------------------|
--------------------|-------------------|-------------------|
--------------------|-------------------|-------------------|


  W                   W                   W                   W                 
-------------------|-------------------|-------------------|-------------------|
-------------------|-------------------|-------------------|-------------------|
-------------------|-------------------|-------------------|-------------------|
-------------------|-------------------|-------------------|-------------------|
-------------------|-------------------|-------------------|-------------------|
-------------------|-------------------|-------------------|-------------------|


  W                   W                   W                   W                 
-------------------|-------------------|-------------------|-------------------|
-------------------|-------------------|-------------------|-------------------|
-------------------|-------------------|-------------------|-------------------|
-------------------|-------------------|-------------------|-------------------|
-------------------|-------------------|-------------------|-------------------|
-------------------|-------------------|-------------------|-------------------|


  W                   W                   W                   W                 
-------------------|-------------------|-------------------|-------------------|
-------------------|-------------------|-------------------|-------------------|
-------------------|-------------------|-------------------|-------------------|
-------------------|-------------------|-------------------|-------------------|
-------------------|-------------------|-------------------|-------------------|
-------------------|-------------------|-------------------|-------------------|


  H        S  S E  S  S E     Q    H        Q       W                 
---------------------------|---------------------|-------------------|
---------------------------|---------------------|-------------------|
----------------0-------0--|---------------------|-------------------|
-----------0h-2----0h-2----|---------------------|-------------------|
---------------------------|---------------------|-------------------|
---------------------------|--3------------------|-------------------|


  Q    H        Q       Q.     E  S  S S E  S S  S    Q    H        Q     
---------------------|-----------------------------|---------------------|
---------------------|-----------------------------|---------------------|
---------------------|-----------------0-0--0------|---------------------|
---------------------|------------0h-2--------2p-0-|---------------------|
---------------------|-----------------------------|---------------------|
---------------------|-----------------------------|--3------------------|


  Q.     E  S  S S E  S S  S    Q    H        Q     
-----------------------------|---------------------|
-----------------------------|---------------------|
-----------------0-0--0------|---------------------|
------------0h-2--------2p-0-|---------------------|
-----------------------------|---------------------|
-----------------------------|--3------------------|


  Q.     E  S  S S E  S S  S    Q    Q.      E    E    E   
-----------------------------|--------------10S--12S--10--|
-----------------------------|----------------------------|
-----------------0-0--0------|----------------------------|
------------0h-2--------2p-0-|----------------------------|
-----------------------------|----------------------------|
-----------------------------|--3-------------------------|


  E  Q.     S  S S E  S S  S    Q    Q.      E    E   E   
--L--------------------------|---------------------------|
-----------------------------|--------------10S--12S--8--|
-----------------0-0--0------|---------------------------|
------------0h-2--------2p-0-|---------------------------|
-----------------------------|---------------------------|
-----------------------------|--3------------------------|


  E  Q.     S  S S E  S S  S    Q    Q.      E    E    E   
-----------------------------|--------------10S--12S--10--|
--L--------------------------|----------------------------|
-----------------0-0--0------|----------------------------|
------------0h-2--------2p-0-|----------------------------|
-----------------------------|----------------------------|
-----------------------------|--3-------------------------|


  E  Q.     S  S S E  S S  S    Q    Q.      E    E   E   
--L--------------------------|---------------------------|
-----------------------------|--------------10S--12S--8--|
-----------------0-0--0------|---------------------------|
------------0h-2--------2p-0-|---------------------------|
-----------------------------|---------------------------|
-----------------------------|--3------------------------|


  E  Q.     S  E.  S  E.     W                   Q.     E  S  S E  S  E.   
--------------------------|-------------------|---------------------------|
--------------------------|-------------------|---------------------------|
--------------------------|-------------------|-----------------0--4S-2---|
-------------------9S-7---|-------------------|------------0h-2-----------|
------------5S-7----------|-------------------|---------------------------|
--------------------------|-------------------|---------------------------|


  Q    H        Q       Q.     E  S  S S E  S S  S    Q    H        Q     
---------------------|-----------------------------|---------------------|
---------------------|-----------------------------|---------------------|
--0------------------|-----------------0-0--0------|---------------------|
---------------------|------------0h-2--------2p-0-|---------------------|
---------------------|-----------------------------|---------------------|
---------------------|-----------------------------|--3------------------|


  W                   W                   Q    E  E  E  E  E  E   
-------------------|-------------------|-------------------------|
-------------------|-------------------|-------------------------|
-------------------|-------------------|-------------------------|
-------------------|-------------------|-------------------------|
-------------------|-------------------|-------------------------|
-------------------|-------------------|-------------------------|


  W                   Q.     E  S  S E  S  E.     Q    H        Q     
-------------------|---------------------------|---------------------|
-------------------|---------------------------|---------------------|
-------------------|-----------------0--4S-2---|--0------------------|
-------------------|------------0h-2-----------|---------------------|
-------------------|---------------------------|---------------------|
-------------------|---------------------------|---------------------|


  Q.     E  S  S S E  S S  S    Q    H        Q       W                 
-----------------------------|---------------------|-------------------|
-----------------------------|---------------------|-------------------|
-----------------0-0--0------|---------------------|-------------------|
------------0h-2--------2p-0-|---------------------|-------------------|
-----------------------------|---------------------|-------------------|
-----------------------------|--3------------------|-------------------|


  W                   Q     Q      Q      Q      
-------------------|----------------------------|
-------------------|----------------------------|
-------------------|-------14b----14b----14b----|
-------------------|----------------------------|
-------------------|----------------------------|
-------------------|----------------------------|


   E    E   Q      E    E   E   E      E   E   Q      E    E    E    E   
------------------------------------|-----------------------------------|
-------12--------------12------12~--|--L--12------------------------12--|
--14b------14b----14b------14-------|---------14b----14b--14b--14b------|
------------------------------------|-----------------------------------|
------------------------------------|-----------------------------------|
------------------------------------|-----------------------------------|


   E    E   E   E   Q       E   E       E   E   E   S  S  S  S  S  S  S  S  E   
------------------------------------|------------------------------------------|
-------12--12--12--------------12~--|---L------12--12-12----12-12-12-----------|
--14b--------------14b~----14-------|------14------------14----------14-12-----|
------------------------------------|--------------------------------------14--|
------------------------------------|------------------------------------------|
------------------------------------|------------------------------------------|


   E   E   E   S  S  S  S  S  S  E     S  S   
---------------------------------------------|
---------------------------------------------|
--12~-----12--------12-14-12----14br--12-12~-|
--------------12-14----------14--------------|
---------------------------------------------|
---------------------------------------------|


   Q     E   S  S  S S  Q     S  S  
-----------------------------------|
-----------------------------------|
---L----12--------12---12----12-12-|
------------12-14------------------|
-----------------------------------|
-----------------------------------|


   E     Q      S  S  S  S  S  S  S  S  E     
---------------------------------------------|
--15br--15~-------15-15-15----17-15----------|
---------------16----------16-------16-14br--|
---------------------------------------------|
---------------------------------------------|
---------------------------------------------|


   S  E.    E   S  S  S  E  S  S  S  E    
-----------------------------------------|
-----------------------------------------|
--12-12~---12--------12-12----12-12------|
---------------12-14----------------14S--|
-----------------------------------------|
-----------------------------------------|


   Q       E.   S  S  E   S  S  S  E     
----------------------------------------|
--20b~----20------20-20-----20----------|
---------------21--------21----21-------|
----------------------------------19br--|
----------------------------------------|
----------------------------------------|


   E   E   E   S  S  S  S  S  S  E   E        E   E   Q.       Q       E    
-----------------------------------------|-------15--17b------17br----15~--|
-----------------------------------------|--/15----------------------------|
-----------------------------------------|---------------------------------|
--17~-----17--------17-19-17----17\--2/--|---------------------------------|
--------------17-19----------19----------|---------------------------------|
-----------------------------------------|---------------------------------|


  Q     E   E   S  S  S  E   S  S  S     Q      Q.       Q       E   
--L----15~-----------15-15--15-------|--17b----17b------17br----15--|
---------------15-17-----------17-15-|------------------------------|
-------------------------------------|------------------------------|
-------------------------------------|------------------------------|
-------------------------------------|------------------------------|
-------------------------------------|------------------------------|


  Q     Q      S   S  S  S   S  S  S   S     Q      Q.       Q       E    
--L----15~-----------15--------15--------|--17b----17b------17br----15~--|
--------------15h-17----15h-17----15h-17-|-------------------------------|
-----------------------------------------|-------------------------------|
-----------------------------------------|-------------------------------|
-----------------------------------------|-------------------------------|
-----------------------------------------|-------------------------------|


  H        H               W                   
--L-----------------|--12g15~----------------||
--------------------|------------------------||
--------------------|------------------------||
--------------------|------------------------||
--------------------|------------------------||
--------------------|------------------------||




Duration Legend
---------------
W - whole
H - half
Q - quarter
E - 8th
S - 16th
T - 32nd
X - 64th
. - note dotted
|-n-|  - n-tuplets


Tablature Legend
----------------
L - tied note
x - dead note
g - grace note
(n) - ghost note
> - accentuded note
NH - natural harmonic
AH - artificial harmonic
TH - tapped harmonic
SH - semi harmonic
PH - pitch harmonic
h - hammer on
p - pull off
b - bend
br - bendRelease
pb - preBend
pbr - preBendRelease
brb - bendReleaseBend
\n/ - tremolo bar dip
\n - tremolo bar dive
-/n - tremolo bar Release up
/n\ - tremolo bar inverted dip
/n - tremolo bar return
-\n - tremolo bar Release down
S - shift slide
s - legato slide
/ -  slide into from below or out of upwards
\ -  slide into from above or out of downwards
~ - vibrato
W - wide vibrato
tr - trill
TP - tremolo picking
T - tapping
S - slap
P - pop
< - fade in
^ - brush up
v - brush down

comments
We did not receive enough feedback on this tab! Please rate:
print report bad tab
1 2 3 4 5
2 comments total.
0 reply
deandonderer wrote on April 2 2014, 09:38 am

did you copied from the guitar tab pro app?

0 reply
caseharr33 wrote on November 2 2014, 07:48 pm

didn't like this contribution

I want to post or [tab]
guest
You may want to rate the tab now too:
select rating
Please do not post tabs as comments. Select "correction" instead!