Oops, an error
Loading. Please wait.

Free Bird Live Bass Tab

ver1
ver1

Whole song

Interactive

More versions @911Tabs.com
6,046 views 6 this week
5 commentsread comments
1 2 3 4 5
accurate
x 6
Autoscroll
+/-
esc
set tempo
stop
Contributor
Difficulty
intermediate
Hey! There's an official Ultimate Guitar app which is ideal
for learning songs when you're away from computer. Get the app
WARNING: You are trying to view
                                    content from Ultimate-Guitar.com
                                    in an unauthorized application,
                                    which is prohibited.

                                    Please use an official Ultimate
                                    Guitar Tabs application for iPhone,
                                    iPad or Android to access legitimate
                                    chords, guitar, bass, and drum tabs
                                    from Ultimate-Guitar.com database.

                                    Type "ultimate guitar tabs" in Apple
                                    App Store's or Android Market's
                                    search to find the application.
FreeBird (live)                                 


                                                           Lynyrd Skynyrd
Leon Wilkeson (bass)

This is free bird on the BASS guitar live!FREE BIRD!


                                                                              
G||------------------|------------------|------------------|------------------|
D||------------------|------------------|------------------|------------------|
A||------------------|------------------|------------------|------------------|
E||------------------|------------------|------------------|------------------|


                                                                        
-----------------------|------------------------|-----------2-5--------|
--5--------4-------4-0-|--2-----2----2----2-----|--3------3------------|
-----------------5-----|------2--------------2--|----------------------|
-----------------------|------------------------|----------------------|


                                                                              
---------7/-----------|-------------------------|----------------------------|
--0--5-7--------------|--5-------5--4-------4---|--2-----2----2----2---2--2--|
----------------------|--------5----------5---5-|------2----2----2---2-------|
----------------------|-------------------------|----------------------------|


                                                              
-------------------------0---|---------7------7-----7-----7/-|
---------------------3-2-----|--0--5-7----5-7---5-7---5-7----|
---------------3---3-------3-|-------------------------------|
--1---1-1--1-3---------------|-------------------------------|


                                                       
-------------------------|----------------------------|
--5-------5--4-------4---|--2----2----2----2----2--2--|
--------5----------5---5-|-----2----2----2----2-------|
-------------------------|----------------------------|


                                                            
-----------------------------|-----------------------------|
---------------------2-3-----|--0----0--5-7-0-5-7-0-5-7-0--|
---------------3---3-----3---|-----------------------------|
--1---1-1--1-3-------------3-|-----------------------------|


                                                      
------------------------|----------------------------|
--5------5--4-------4---|--2-----2-----2---2---2--2--|
------------------5---2-|------2-----2---2---2-------|
------------------------|----------------------------|


                                                            
---------------------2-0-----|--------------7--------------|
-------------------------2---|--0----0--5-7---5-7-0-5-7-0--|
---------------3---3-------3-|-----------------------------|
--1---1-1--1-3---------------|-----------------------------|


                                                     
------------------------|---------------------------|
--5---------4-------4---|--2-----2-----2-----2---2--|
---------5--------5---2-|------2-----2----2----2----|
------------------------|---------------------------|


                                                             
-----------------------------|---------------7-----7-----7/-|
-----------------------------|--0-----0--5-7---5-7---5-7----|
---------------3---3-----3---|------0-----------------------|
--1---1-1--1-3-------1-0---3-|------------------------------|


                                                      
------------------------|----------------------------|
--5---------4-------4---|--2-----2----2----2---2-----|
---------5--------5---2-|------2----2----2---2----2--|
------------------------|----------------------------|


                                                            
-----------------------------|--------------7-----7-----7/-|
-----------------------------|--0----0--5-7---5-7---5-7----|
---------------3---3-------3-|-----------------------------|
--1---1-1--1-3-------1-0-3---|-----------------------------|


                                                      
------------------------|----------------------------|
--5---------4-------4---|--2-----2----2----2---2-----|
---------5--------5---2-|------2----2----2---2----2--|
------------------------|----------------------------|


                                                                   
-----------------------------|---------7----14-14-16-16-17-17-17/-|
---------------------3-2-----|--0--5/7----------------------------|
---------------3---3-----3---|------------------------------------|
--1---1-1--1-3-------------3-|------------------------------------|


                                                                 
------7-5---5-------5-----5--|------------14-14-16-16-17-17-17/-|
----------7---7-------7-5----|--0----0--------------------------|
----------------3------------|----------------------------------|
--1--------------------------|----------------------------------|


                                                                   
------7-5---5-------5-----5--|------------14-14-16-16-17-17-19-19-|
----------7---7-------7-5----|--0----0----------------------------|
----------------3------------|------------------------------------|
--1--------------------------|------------------------------------|


                                                                  
------7-5---5-------5-----5---|------------14-14-16-16-17-17-17/-|
----------7---7-------7-5---7-|--0----0--------------------------|
----------------3-------------|----------------------------------|
--1---------------------------|----------------------------------|


                                                      
-------------------------|---------------------------|
--5-----5----4-------4---|--2-----2-----2---2-----2--|
----------5--------5---2-|------2-----2---2----2-----|
-------------------------|---------------------------|


                                                            
---------------------2-0-----|--------------7-----7-----7/-|
--3-----3--3-------------2---|--0----0--5-7---5-7---5-7----|
------3------3-3---3-------3-|-----------------------------|
-----------------------------|-----------------------------|


                                                     
-------------------------|--------------------------|
--5-------5--4-------4---|--2-----2-----------2-----|
--------5----------5---2-|------2-----2----2-----2--|
-------------------------|--------------0-----------|


                                                             
---------------------2-0-----|---------------7-----7-----7/-|
--3-----3--3-------------2---|--0-----0--5-7---5-7---5-7----|
------3------3-3---3-------3-|------0-----------------------|
-----------------------------|------------------------------|


                                                      
------------------------|----------------------------|
--5------5--4-------4---|--2-----2------2---2-----2--|
------------------2---2-|------2----2-2---2----2-----|
------------------------|----------------------------|


                                                           
-------------2-5---5-2-0----|--------------7-----7-----7/-|
--3-----3--3----------------|--0----0--5-7---5-7---5-7----|
------3------------------3--|-----------------------------|
----------------------------|-----------------------------|


                                                       
-------------------------|----------------------------|
--5-----5----4-------4---|--2-----2----2----2---2-----|
----------5--------5---2-|------2----2----2---2----2--|
-------------------------|----------------------------|


                                                            
-------------2-5---5-2-0-----|--------------7-----7-----7/-|
--3-----3--3-------------2---|--0----0--5-7---5-7---5-7----|
------3--------------------3-|-----------------------------|
-----------------------------|-----------------------------|


                                                       
-------------------------|----------------------------|
--5-----5-5--4-------4---|--2-----2----2----2---2-----|
-------------------5---2-|------2----2----2---2----2--|
-------------------------|----------------------------|


                                                             
-------------2-5---5-2-0-----|------------------------2-1-2-|
--3-----3--3-------------2---|----------2-1-2--4-3-4--------|
------3--------------------3-|---5-4-5----------------------|
-----------------------------|------------------------------|


                                                     
-------------------------|--------------------------|
--5-----5----4-------4---|--2-----2-----------2-----|
----------5--------5---2-|------2-----2-----2----2--|
-------------------------|--------------0-----------|


                                                             
-------------2-5---5-2-0-----|-----------7/9-7--------------|
--3-----3--3-------------2---|--0--5-7-0--------7/9-7-9/--4-|
------3--------------------3-|------------------------------|
-----------------------------|------------------------------|


                                                      
-------------------------|---------------------------|
--5-------5--4-------4---|--2-----2-----2-----2---2--|
--------5----------5---2-|------2-----2-----2---2----|
-------------------------|---------------------------|


                                                            
----------------------2-0-----|-------------7-----------7/-|
--------------------------2---|--0------5-7---5-7-0-5-7----|
----------------3--3--------3-|----------------------------|
--1-1--1--1-1-3---------------|----------------------------|


                                                                                
------------------------|--------------------------|------------2-5----2-0-----|
--5------5--4-------4---|--2-----2-----2-----2-----|--3----3--3------------2---|
------------------5---2-|------2-----2-----2-----2-|-------------------------3-|
------------------------|--------------------------|---------------------------|


                                                         
------------------------------|-------------------------|
--0-----0--5-7-0-5-7-0-5-7-0--|--5-------5--4-------4---|
------0-----------------------|--------5----------5---2-|
------------------------------|-------------------------|


                                                            
----------------------------|----------------------2-0-----|
--2-----2----2----2---2--2--|--------------------------2---|
------2----2----2---2-------|----------------3--3--------3-|
----------------------------|--1-1--1--1-1-3---------------|


                                                       
-------------7-----7-----7/-|-------------------------|
--0------5-7---5-7---5-7----|--5-------5--4-------4---|
----------------------------|--------5----------5---2-|
----------------------------|-------------------------|


                                                          
-----------0---------------|---------------------2-0-----|
--2-----2-----2-----2---2--|--3-----3----------------2---|
------2-----------2---2----|------3----3---3--3--------3-|
---------------------------|-------------1---------------|


                                                                   
---------7----14-14-16-16-17-17-17/-|------7-5---5-------5-----5--|
--0--5-7----------------------------|----------7---7-------7-5----|
------------------------------------|----------------3------------|
------------------------------------|--1--------------------------|


                                                                  
-------------14-14-16-16-17-19-19/-|------7-5---5-------5-----5--|
--0----0--0------------------------|----------7---7-------7-5----|
-----------------------------------|----------------3------------|
-----------------------------------|--1--------------------------|


                                                                   
--------------14-14-16-16-17-17-17/-|------7-5---5-------5-----5--|
--0---0-0--0------------------------|----------7---7-------7-5----|
------------------------------------|----------------3------------|
------------------------------------|--1--------------------------|


                                                                     
--------------14-14-16-16-17-17-19-19-|------7-5---5-------5-----5--|
--0---0-0--0--------------------------|----------7---7-------7-5----|
--------------------------------------|----------------3------------|
--------------------------------------|--1--------------------------|


                                                        
---------------------------|---------------------------|
--0----0----0-0-0-0-0-0----|---------------------------|
------------------------0--|--------2----1--1-1--1--1--|
---------------------------|--3---3---3----------------|


                                                       
--------------------------|---------------------------|
--------------------------|---------------------------|
--3---3-3---3-------------|--------0-2--1--1-1--1--1--|
---------------0--1--2--3-|--3---3--------------------|


                                                            
--------------------------------|--------------------------|
--------0-0-2-2-3-3-5-5-3-3-2-2-|--------------------------|
--3---3-------------------------|------------1--1--1-1--1--|
--------------------------------|--3---3-3-----------------|


                                                              
----------3-3---------------------|--------------------------|
------5-5-----5-5-----------------|--------------------------|
--3-3-------------3-3-------------|------------1--1--1-1--1--|
----------------------0-0-1-1-2-2-|--3---3-3-----------------|


                                                                      
------------------------------------------|--------------------------|
------------------------------------------|--------------------------|
--3---3/10-10-12-12-13-13-12-12-10-10-5-5-|------------1--1--1-1--1--|
------------------------------------------|--3---3-3-----------------|


                                                              
----------3-3---------------------|--------------------------|
------5-5-----5-5-----------------|--------------------------|
--3-3-------------3-3-------------|------------1--1--1-1--1--|
----------------------0-0-1-1-2-2-|--3---3-3-----------------|


                                                                    
------------------------------------|------------------------------|
------------------------------------|------------5-----------------|
--3---3/13-13-10-10-7-7-5-5-1-1-----|----------------1--1--1-1-0---|
--------------------------------3-3-|--3--3--3-3---3-------------3-|


                                                                
--------------------------------|------------------------------|
--------5-5---------------------|------------------------------|
--3--3------3-3-3-3-------------|----------------1--1--1-1-1-1-|
--------------------0-0-1-1-2-2-|--3--3--3-3-3-3---------------|


                                                                
----------------5-5-3-3---------|------------------------------|
------------------------5-5-3-3-|------------------------------|
--3--3--3-3-3-3-----------------|----------------1--1--1-1-1-1-|
--------------------------------|--3--3--3-3-3-3---------------|


                                                                
--------------------------------|------------------------------|
--------5-5-3-3-----------------|------------------------------|
--3--3----------5-5-3-3---------|----------------1--1--1-1-1-1-|
------------------------0-0-1-1-|--3--3--3-3-3-3---------------|


                                                                  
--------12-12-10-10-9-9-7-7-5-5-3-3-|----------------------------|
------------------------------------|----------------------------|
--3--3/-----------------------------|------------1--1--1-1-0-1-2-|
------------------------------------|--3---3-3-------------------|


                                                            
------------------------------|----------------------------|
------------------------------|----------------------------|
--3---3-3--3-3----------------|------------1--1--1-1-0-1-2-|
----------------0-0-1-1-2-2-3-|--3---3-3-------------------|


                                                               
-----5-5-3-3---------------------|----------------------------|
-------------5-5-----------------|----------------------------|
--3--------------3-3-------------|------------1--1--1-1-0-1-2-|
---------------------0-0-1-1-2-2-|--3---3-3-------------------|


                                                              
------------------------------|------------------3-----------|
------------------------------|----------------3-------------|
--3---3-3--3-3----------------|--------5----1------1-1-0-1-2-|
----------------0-0-1-1-2-2-3-|--3---3---3-------------------|


                                                           
-------5-3-------------------|----------------------------|
-----------5-3---------------|----------------------------|
--3--3---------3/------------|------------1--1--1-1-0-1-2-|
------------------0--1--2--3-|--3---3-3-------------------|


                                                            
------------------------------|----------------------------|
------------------------------|----------------------------|
--3-3-1-1-0-0-----------------|------------1--1--1-1-0-1-2-|
--------------3-3--0--1--2--3-|--3---3-3-------------------|


                                                          
------5-3-2-0---------------|----------------------------|
--------------3-------------|----------------------------|
--3-------------------------|------------1--1--1-1-0-1-2-|
-----------------0--1--2--3-|--3---3-3-------------------|


                                                    
------5-3-2-0---------------|----------------------|
--------------3-------------|----------------------|
--3-------------------------|------------1--1------|
-----------------0--1--2--3-|--3--3----------------|


                                                    
----------------------------|----------------------|
----------------------------|----------------------|
--3--3------3-3-------------|------------1--1------|
----------------0-0-1-1-2-2-|--3--3----------------|


                                                    
----------------------------|----------------------|
----------------2-2-3-3-4-4-|----------------------|
--3--3------3-3-------------|------------1--1------|
----------------------------|--3--3----------------|


                                                     
-----------0-5/0/5/0/8/0/3/0-|----------------------|
-----------------------------|----------------------|
--3--3-----------------------|------------1--1------|
-----------------------------|--3--3----------------|


                                                                      
-----------0-12/7/12/7/12/7/12/7-12/7-12/7-|-------------------------|
-------------------------------------------|-------------------------|
--3--3-------------------------------------|------------1--1--1-1----|
-------------------------------------------|--3---3-3----------------|


                                                              
--------------------------0-0-3-3-|--------------------------|
------------------0-0-3-3---------|--------------------------|
------0-0-1-1-3-3-----------------|------------1--1-1--1--1--|
--3-3-----------------------------|--3---3--3----------------|


                                                              
------5-5-3-3-2-2-0-0-------------|--------------------------|
----------------------3-3-2-2-0-0-|--------------------------|
--3-3-----------------------------|------------1--1--1-1--1--|
----------------------------------|--3---3-3-----------------|


                                                           
---------5-5-------------------|--------------------------|
-----3-5-----3-----------------|--------------------------|
--3------------3/--------------|------------1--1-1--1--1--|
-------------------0-0-1-1-2-2-|--3---3--3----------------|


                                                                           
---------------------------------------|----------------------3-------3---|
---------------------------------------|------5-------5-----3---3---3---3-|
--3-3-3/15-13-13-10-10-8-8-5-5-3-3-1-1-|----5---5---5---5-1-------1-------|
---------------------------------------|--3-------3-----------------------|


                                                                      
------5-------5-------5-------5---|----------------------3-------3---|
----5---5---5---5---5---5---5---5-|------5-------5-----3---3---3---3-|
--3-------3-------3-------3-------|----5---5---5---5-1-------1-------|
----------------------------------|--3-------3-----------------------|


                                                                      
------5-------5-------5-------5---|----------------------3-------3---|
----5---5---5---5---5---5---5---5-|------5-------5-----3---3---3---3-|
--3-------3-------3-------3-------|----5---5---5---5-1-------1-------|
----------------------------------|--3-------3-----------------------|


                                                                      
------5-------5-------5-------5---|----------------------3-------3---|
----5---5---5---5---5---5---5---5-|------5-------5-----3---3---3---3-|
--3-------3-------3-------3-------|----5---5---5---5-1-------1-------|
----------------------------------|--3-------3-----------------------|


                                                                      
------5-------5-------5-------5---|----------------------------------|
----5---5---5---5---5---5---5---5-|----------------------------------|
--3-------3-------3-------3-------|------------------1-1-1-1-1-1-1-1-|
----------------------------------|--3-3-3-3-3-3-3-3-----------------|


                                                                      
----------------------------------|----------------------------------|
----------------------------------|----------------------------------|
--3-3-3-3-3-3-3-3-3-3-3-3-3-3-3-3-|------------------1-1-1-1-1-1-1-1-|
----------------------------------|--3-3-3-3-3-3-3-3-----------------|


                                   
----------------------------------|
----------------------------------|
--3-3-3-3/5-5-5-5/6-6-6-6/8-8-8-8/|
----------------------------------|


                                                   
--------------------------------------------------|
--------------------------------------12-12-12-12/|
--10-10-10-10/12-12-12-12/13-13-13-13-------------|
--------------------------------------------------|


                                                   
--------------------------------------------------|
--10-10-10-10/12-12-12-12/14-14-14-14/15-15-15-15/|
--------------------------------------------------|
--------------------------------------------------|


                                                   
--------------------------------------14-14-14-14-|
--12-12-12-12/14-14-14-14/15-15-15-15-------------|
--------------------------------------------------|
--------------------------------------------------|


                                                                      
--12-14-15-14-12-14-15-17-17-17-17-17-17-17-17-17-17-19-19-19-19-19/-|
---------------------------------------------------------------------|
---------------------------------------------------------------------|
---------------------------------------------------------------------|


                                                                    
----------------------------------|--------------------------------|
--------------------3-5-3---3-5-3-|----5-7-5---5-7-5---5-7-5-------|
----5-7-5---5-7-5-1-------1-------|--3-------3-------3-------3-1---|
--3-------3-----------------------|--------------------------------|


                                                                    
----------------------------------|--------------------------------|
--------------------3-5-3---3-5-3-|----5-7-5---5-7-5---5-7-5-------|
----5-7-5---5-7-5-1-------1-------|--3-------3-------3-------3-1---|
--3-------3-----------------------|--------------------------------|


                                                                    
----------------------------------|--------------------------------|
--------------------3-5-3---3-5-3-|----5-7-5---5-7-5---5-7-5-------|
----5-7-5---5-7-5-1-------1-------|--3-------3-------3-------3-1---|
--3-------3-----------------------|--------------------------------|


                                                                      
----------------------------------|----------------------------------|
--------------------3-5-3---3-5-3-|----5-7-5---5-7-5-----------------|
----5-7-5---5-7-5-1-------1-------|--3-------3-------3-3-2-2-1-1-0-0-|
--3-------3-----------------------|----------------------------------|


                                                              
------------------------------|------------------------------|
------------5-----------------|------------------------------|
----------5-----1--1--1-1-0---|--3--3--3-3-3---3---------1---|
--3--3--3-----3-------------3-|--------------3---0-0-1-1-----|


                                                              
------------------------------|------------------------------|
------------5-----------------|------------------------------|
----------5-----1--1--1-1-0---|--3--3--3-3---3-----------1---|
--3--3--3-----3-------------3-|------------3---0-0-1-1-3-----|


                                                              
------------------------------|--------------7-12------------|
------------5-----------------|--------------------14/7------|
----------5-----1--1--1-1-0---|--3--3--3-3-3-------------1---|
--3--3--3-----3-------------3-|------------------------------|


                                                                
------------------------------|--------------------------------|
------------5-----------------|--------------------------------|
----------5-----1--1--1-1-0---|--3--3--3---3-3-----------------|
--3--3--3-----3-------------3-|----------3-----0-0-1-1-2-2-3-3-|


                                                                 
--------------------3---------|----------5-3-2-0-3-2-0---0------|
------5-----------3-----------|----2-3-5---------------3----3-2-|
----5---------0-1------1--1-2-|--3------------------------------|
--3------3--3-----------------|---------------------------------|


                                                                  
--------------------3---------|----------5-3-2-0-3-2-0---0-------|
------5-----------3-----------|----2-3-5---------------3---3-2-0-|
----5---------0-1------1--1-2-|--3-------------------------------|
--3------3--3-----------------|----------------------------------|


                                                               
------------------3---------|----------5-3-2-0-3-2-0---0------|
-----5----------------------|----2-3-5---------------3----3-2-|
-------------0-1-----1--1-2-|--3------------------------------|
--3-----3--3----------------|---------------------------------|


                                                                        
--------------------3---------|----------5-3-2-0-12-10-9----10-9-------|
------5-----------3-----------|----2-3-5-----------------12------12-10/|
----5---------0-1------1--1-2-|--3-------------------------------------|
--3------3--3-----------------|----------------------------------------|


                                                                      
----------------------------------|----------------------------------|
----------------------------------|----------------------------------|
------------------1-1-1-1-1-1-1-1-|--3-3-3-3-3-3-3-3-3-3-3-3-3-3-3-3-|
--3-3-3-3-3-3-3-3-----------------|----------------------------------|


                                                                      
----------------------------------|----------------------------------|
----------------------------------|----------------------------------|
------------------1-1-1-1-1-1-1-1-|--3-3-3-3-3-3-3-3-3-3-3-3-3-3-3-3-|
--3-3-3-3-3-3-3-3-----------------|----------------------------------|


                                                                      
----------------------------------|----------------------------------|
----------------------------------|----------------------------------|
------------------1-1-1-1-1-1-1-1-|--3-3-3-3-3-3-3-3-3-3-3-3-3-3-3-3-|
--3-3-3-3-3-3-3-3-----------------|----------------------------------|


                                                                      
----------------------------------|----------------------------------|
----------------------------------|----------------------------------|
------------------1-1-1-1-1-1-1-1-|--3-3-3-3-3-3-3-3-3-3-3-3-3-3-3-3-|
--3-3-3-3-3-3-3-3-----------------|----------------------------------|


                                                                      
----------------------------------|----------------------------------|
----------------------------------|----------------------------------|
------------------1-1-1-1-1-1-1-1-|--3-3-3-3-3-3-3-3-3-3-3-3-3-3-3-3-|
--3-3-3-3-3-3-3-3-----------------|----------------------------------|


                                                                                
----------------------------------|----------------------------------------15/-|
----------------------------------|----------10-10-10-10-10-10-10-15-17-17-----|
------------------1-1-1-1-1-1-1-1-|--3-3-3-3-----------------------------------|
--3-3-3-3-3-3-3-3-----------------|--------------------------------------------|


                                                             
-------------------------|----------------------------------|
-------------------------|----------------------------------|
------------1--1--1-1----|--3-3-1-1-0-0-----3-3-------------|
--3---3-3----------------|--------------3-3-----0-0-1-1-2-2-|


                                                            
-------------------------|--------5-3-3-2--0-0-0-0-0-0-0-0-|
-------------------------|---------------------------------|
------------1--1--1-1----|--3-3-3/-------------------------|
--3---3-3----------------|---------------------------------|


                                                           
------------------------------|---------5---5--5--5--5--5-|
------------------------------|-------5-------------------|
----5-----------1-1-1--1-1-1--|--3--3---------------------|
--3---3--3-3-3----------------|---------------------------|


                                                            
-------------------------|-------5-3-2-0-------------------|
-------------------------|---------------3-2-3-2-0---------|
------------1--1--1-1----|--3--3-------------------3-2-3-2-|
--3---3-3----------------|---------------------------------|


                                                            
-------------------------|---------------------------------|
-------------------------|------------------5-5-5-5-5-5-5/-|
------------1--1--1-1----|--3-3----------------------------|
--3---3-3----------------|------0-0-1-1-2-2----------------|


                                                           
----------------------------|-----------------------------|
----------------------------|--------------5-5-5-5-5-5-5/-|
------------1--1--1-1-0-1-2-|--3---3-3---3----------------|
--3---3-3-------------------|-----------------------------|


                                                               
----------------------------|-------5-3-3-0-0-----------------|
----------------------------|---------------------------------|
------------1--1--1-1-0-1-2-|--3--3-----------3-3-3-3-3-3-3-3-|
--3---3-3-------------------|---------------------------------|


                                                
-----------------------------------------------|
-----------------------------------------------|
-----------------------------------------------|
--3--3--3--3-3-3-3-3-3-3-3-3-3-3-3-3-3-3-3-3-3-|


                                                                              
------------------------------------------------------------------|----------|
------------------------------------------------------------------|----------|
------------------------------------------------------------------|----------|
--3-3-3-3-3-3-3-3-3-3-3-3-3-3-3-3-3-3-3-3-3-3-3-3-3-3-3-3-3-3-3-3-|--3-------|


                                                                 
----------------------------------------------------------------|
----------------------------------------------------------------|
--1-1-1-1-1-1-1-1-1-1-1-1-1-1-1-1-1-1-1-1-1-1-1-1-1-1-1-1-1-1-1-|
----------------------------------------------------------------|


                                                                   
------------------------------------------------------------------|
------------------------------------------------------------------|
--1-1-1-1-1-1-1-1-1-1-1-1-1-1-1-1-1-1-1-1-1-1-1-1-1-1-1-1-1-1-1-1-|
------------------------------------------------------------------|


                                                                              
------------------------------------------------------------------|----------|
------------------------------------------------------------------|----------|
--1-1-1-1-1-1-1-1-1-1-1-1-1-1-1-1-1-1-1-1-1-1-1-1-1-1-1-1-1-1-1-1-|--1-------|
------------------------------------------------------------------|----------|


                                         
----------------------------------------|
----------------------------------------|
--3--3/10/3/10/3/10/3/10/3/10/3/10/3/10/|
----------------------------------------|


                                                                              
------------------------------------------|--9/4/9/4/9/4/9/4/9/4/9/4/9/4/9/4/|
------------------------------------------|----------------------------------|
--3/10/3/10/3/10/3/10/3/10/3/10/3/10/3/10/|----------------------------------|
------------------------------------------|----------------------------------|


                                                                             
--9/4/9/4/9/4/9/4/9/4/9/4/9/4/9/4/|--5-------|------------------------------|
----------------------------------|----------|--5/-----5/-----5/-----5/-----|
----------------------------------|----------|------------------------------|
----------------------------------|----------|------------------------------|


                                                                  
------------------------------|----------------------------------|
--8/-----8/-----8/-----8/-----|--10/-----10/-----10/-----10/-----|
------------------------------|----------------------------------|
------------------------------|----------------------------------|


                                                 
------------------------------------------------|
------------------------------------------------|
------------------------------------------------|
--3--3--3-3-3-3-3-3-3-3-3-3-3-3-3-3-3-3-3-3-3-3-|


                                                                   
------------------------------------------------------------------|
------------------------------------------------------------------|
------------------------------------------------------------------|
--3-3-3-3-3-3-3-3-3-3-3-3-3-3-3-3-3-3-3-3-3-3-3-3-3-3-3-3-3-3-3-3-|


                                                                   
------------------------------------------------------------------|
------------------------------------------------------------------|
------------------------------------------------------------------|
--3-3-3-3-3-3-3-3-3-3-3-3-3-3-3-3-3-3-3-3-3-3-3-3-3-3-3-3-3-3-3-3-|


                                                                   
------------------------------------------------------------------|
------------------------------------------------------------------|
------------------------------------------------------------------|
--3-3-3-3-3-3-3-3-3-3-3-3-3-3-3-3-3-3-3-3-3-3-3-3-3-3-3-3-3-3-3-3-|


                                                                   
------------------------------------------------------------------|
------------------------------------------------------------------|
------------------------------------------------------------------|
--3-3-3-3-3-3-3-3-3-3-3-3-3-3-3-3-3-3-3-3-3-3-3-3-3-3-3-3-3-3-3-3-|


                                                                   
------------------------------------------------------------------|
------------------------------------------------------------------|
------------------------------------------------------------------|
--3-3-3-3-3-3-3-3-3-3-3-3-3-3-3-3-3-3-3-3-3-3-3-3-3-3-3-3-3-3-3-3-|


                                                                   
------------------------------------------------------------------|
------------------------------------------------------------------|
------------------------------------------------------------------|
--3-3-3-3-3-3-3-3-3-3-3-3-3-3-3-3-3-3-3-3-3-3-3-3-3-3-3-3-3-3-3-3-|


                                                                              
------------------------------------------------------------------|----------|
------------------------------------------------------------------|----------|
------------------------------------------------------------------|----------|
--3-3-3-3-3-3-3-3-3-3-3-3-3-3-3-3-3-3-3-3-3-3-3-3-3-3-3-3-3-3-3-3-|--3-------|


                                                            
--------------------|------------------|------------------||
--------------------|------------------|------------------||
--------------------|------------------|------------------||
--3----3/-----------|------------------|------------------||
comments
print report bad tab
5 comments total. Showing first comments.
0 reply
Mikolman wrote on July 2 2007, 04:52 pm

hey dude solid tabs but if u could put em on power tab then that would be awsome alright peace

0 reply
ninja monkey wrote on February 1 2008, 07:34 pm

so times/words every now and then would be nice.. other than that pretty good.

0 reply
jman6340 wrote on October 11 2008, 12:13 pm

Could be set up better, but it gets the job done. good job.

I want to post or [tab]
guest
You may want to rate the tab now too:
select rating
Please do not post tabs as comments. Select "correction" instead!