Oops, an error
Loading. Please wait.

Free Bird Tab

ver7
ver7
More versions @911Tabs.com
37,127 views 18 this week
11 commentsread comments
1 2 3 4 5
worth learning
x 15
add to favorites launch autoscroll
font size
0
reset
Autoscroll
+/-
esc
set tempo
stop
Contributor
WARNING: You are trying to view
                                    content from Ultimate-Guitar.com
                                    in an unauthorized application,
                                    which is prohibited.

                                    Please use an official Ultimate
                                    Guitar Tabs application for iPhone,
                                    iPad or Android to access legitimate
                                    chords, guitar, bass, and drum tabs
                                    from Ultimate-Guitar.com database.

                                    Type "ultimate guitar tabs" in Apple
                                    App Store's or Android Market's
                                    search to find the application.
Free Bird by Lynard Skynard

I only present this one.. enjoy..


G5
3 5 5 x x x  Bb5
x 1 3 3 x x  C5
x 3 5 5 x x  A5
x 0 2 2 x x
B5
x 2 4 4 x x

Gtr I (E A D G B E) - 'Rhythm - steel string acoustic'
Gtr II (E A D G B E) - 'Rhythm - overdrive electric'
Gtr III (E A D G G E) - 'Lead - dist electric w/slide'
Gtr IV (E A D G B E) - 'Lead - dist electric (right channel)'
Gtr V (E A D G B E) - 'Lead - dist electric (left channel)'
Gtr VI (E A D G B E) - 'Organ'

Intro
  Q=62
 4/4
  Gtr II
   W            W                 W             H     Q  E S S
|------------|-----------------|-------------|------------------|
|------------|-----------------|-------------|------------------|
|------------|-----------------|-------------|------------------|
|------------|-----------------|-------------|------------------|
|------------|-----------------|-------------|------------------|
|------------|-----------------|-------------|-------------0-2--|
|
| Gtr I
|  H    H       H      H          H     H       W
|-^3---------|-^0-----^0-------|-^1----^0----|-^2---------------|
|-^0---------|-^0-----^0-------|-^1----^1----|-^3---------------|
|-^0---------|-^0-----^0-------|-^2----^0----|-^2---------------|
|-^0---------|-^2-----^2-------|-^3----^2----|-^0---------------|
|-^2---------|-^2-----^2-------|-^3----^3----|------------------|
|-^3----2----|-^0-----^0-------|-^1----------|------------------|
|
| Gtr VI
|  H    H       H.        S E.    H     H       Q  Q  Q  Q
|--3----2----|--0---------0----|-------------|--3--2--0--2------|
|--3----3----|--0---------0-3--|--1-----1----|--3---------------|
|--4----2----|--0---------0----|--2-----0----|--2---------------|
|--5----4----|--2--------------|--3-----2----|--0---------------|
|------------|-----------------|-------------|------------------|
|------------|-----------------|-------------|------------------|
|-Rhy Fig 1                                       end Rhy FIg 1-|

w/Rhy FIg 1
   S S S S S S S S S S S S S S S S    S  S S S S S S S  S S S S S S  S S
|----------------------------------|-------------------------------------|
|----------------------------------|-------------------------------------|
|----------------------------------|-------------------------------------|
|------0-------0-------0-------0---|-------2-------2------2-----2------2-|
|----2-----2---------0-----0-----0-|-----2-----2-----2------2-----2------|
|--3-----3---3---3-2-----2---2-----|--0------0---0------0-----0------0---|
|-Rhy FIg 2
|
|  H               H                  H                 H
|-^3-------------------------------|-^0----------------^0----------------|
|-^0-------------------------------|-^0----------------^0----------------|
|-^0-------------------------------|-^0----------------^0----------------|
|-^0-------------------------------|-^2----------------^2----------------|
|-^2-------------------------------|-^2----------------^2----------------|
|-^3---------------2---------------|-^0----------------^0----------------|


                                                                          Gtr III
   S S S S S S S S  S S S S S S S S   H                   Q         E     E
|-----------------------------------|-----------------------------------------|
|-----------------------------------|---------3---------3---------3-------7s==|
|-----------------------0-----------|-0h=2------0h=2------0h=2------0--2--7s==|
|------3-------3------2---2-3p2---0-|-------0---------0---------0-------------|
|----3---3-3-3---0--3-----------3---|-----------------------------------------|
|--1--------------------------------|-------------------------------------0-2-|
|                                     S  S  S S S  S  S S S  S  S S S  S  S S
|                                                               end Rhy Fig 2-|
|
|  H                H                 S  S  S S S  E    S S  E    S S  E    S
|-^1---------------^0---------------|-3p(2)-----3p(2)-----3p(2)-----3p(2)-----|
|-^1---------------^1---------------|-3-----3-3-3-------3-3-------3-3-------3-|
|-^2---------------^0---------------|-2-----2-2-2---------2---------2---------|
|-^3---------------^2---------------|-0-----0-0-0---------0---------0---------|
|-^3---------------^3---------------|-----------------------------------------|
|-^1--------------------------------|-----------------------------------------|

w/Rhy Fig 2 x6
                         ~~~~~~~~~~~
     Q      +S   S  E    Q      +E.    S
||---------------------------------------|
||o-12-----(12)-11s12---11-----(11)---12-|
||--12-----(12)-11s12---11-----(11)---12-|
||---------------------------------------|
||o--------------------------------------|
||---------------------------------------|
|
|    E S S   S   E    S  S E S   S  E  S
||---3-3-3---3---3----3--2-2-2---2--2--2-|
||o--0-0-0---0---0----0--3-3-3---3--3--3-|
||---0-0-0---0---0----0--2-2-2---2--2--2-|
||---0-0-0---0---0----0--0-0-0---0--0--0-|
||o--2-2-2---2---2----2--0-0-0---0--0--0-|
||---3-3-3---3---3----3------------------|
 |-Rhy FIg 3

   S  S S S S  S S S E.    +S   S S S S
|----------------------------------------|
|-12s11s9s7s9s11---7s9-----(9)\-9s7-4-4s=|
|-12s11s9s7s9s11---7s9-----(9)\-9s7-4-4s=|
|----------------------------------------|
|----------------------------------------|
|----------------------------------------|
|
|  S  S S S S  S S S S  E.      S E   S
|--0--0-0-0-0--0-0-0-0--0-------0-0---0--|
|--0--0-0-0-0--0-0-0-0--0-------0-0---0--|
|--0--0-0-0-0--0-0-0-0--0-------0-0---0--|
|--2--2-2-2-2--2-2-2-2--2-------2-2---2--|
|--2--2-2-2-2--2-2-2-2--2-------2-2---2--|
|--0--0-0-0-0--0-0-0-0--0-------0-0---0--|


  E    S  S  S S S S +E.     S S E S
|------------------------------------|
|-5---10-10-10s9-5-------------4-5-7-|
|-5---10-10-10s9-5-------------4-5-7-|
|------------------5-(5)\---/2-------|
|------------------------------------|
|------------------------------------|
|
| S E     S  S E   S  S   E  S S E S
|-1-1-----1--1-1---1--0---0--0-0-0-0-|
|-1-1-----1--1-1---1--1---1--1-1-1-1-|
|-2-2-----2--2-2---2--0---0--0-0-0-0-|
|-3-3-----3--3-3---3--2---2--2-2-2-2-|
|-3-3-----3--3-3---3--3---3--3-3-3-3-|
|-1-1-----1--1-1---1-----------------|


  +S  S E   +Q       S  S  S  S  E    +E
|----------------------------------------------|
|-(7)s6s7---(7)S====19s17----18s19---(19)\-----|
|-(7)s6s7---(7)S====19s17----18s19---(19)\-----|
|-------------------------19-------------------|
|----------------------------------------------|
|----------------------------------------------|
|
|  S  S S S  S  E S  S  E     S  S E       T T
|--3--2---2--3--2-2--3--2-----2--3-2-------2-2-|
|--3--3------3--3----3--3--------3-3-------3-3-|
|--2--2------2--2----2--2--------2-2-------2-2-|
|--0--0-0----0--0----0--0--------0-0-------0-0-|
|----------------------------------------------|
|----------------------------------------------|


                        ~~
   E  E    +S   S  E    Q        +E     S  S
|----------------------------------------------|
|-11s12---(12)-11s12---11-------(11)s==12-12---|
|-11s12---(12)-11s12---11-------(11)s==12-12---|
|----------------------------------------------|
|----------------------------------------------|
|----------------------------------------------|
|
|  E  S S   S   S  S S  S S S S   S  S  S  T T
|--3--3-3---3---3--3-3--2-2-2-2---2--2--2--0-0-|
|--0--0-0---0---0--0-0--3-3-3-3---3--3--3--0-0-|
|--0--0-0---0---0--0-0--2-2-2-2---2--2--2--0-0-|
|--0--0-0---0---0--0-0--0-0-0-0---0--0--0--2-2-|
|--2--2-2---2---2--2-2--0-0-0-0---0--0--0--2-2-|
|--3--3-3---3---3--3-3---------------------0-0-|


   S  S E   +Q           Q       S S S S
|------------------------------------------|
|-12s11s9---(9)\-----------------9s8-4-4s==|
|-12s11s9---(9)\-----------------9s8-4-4s==|
|------------------------------------------|
|------------------------------------------|
|------------------------------------------|
|
|  S  S S S  S   S S T T S S S S S S S T T
|--0--0-0-0--0---0-0-0-0-0-0-0-0-0-0-0-1-1-|
|--0--0-0-0--0---0-0-0-0-0-0-0-0-0-0-0-1-1-|
|--0--0-0-0--0---0-0-0-0-0-0-0-0-0-0-0-2-2-|
|--2--2-2-2--2---2-2-2-2-2-2-2-2-2-2-2-3-3-|
|--2--2-2-2--2---2-2-2-2-2-2-2-2-2-2-2-3-3-|
|--0--0-0-0--0---0-0-0-0-0-0-0-0-0-0-0-1-1-|


  E    S  S  S S S S   +E.       S S E   S
|------------------------------------------|
|-5---10-10-10s9-5-----------------4-5---7-|
|-5---10-10-10s9-5-----------------4-5---7-|
|------------------5---(5)\-----/2---------|
|------------------------------------------|
|------------------------------------------|
|
| S S  S  S  S S S T T  S   S S  S S S S S
|-1-1--1--1--1-1-1-0-0--0---0-0--0-0-0-0-0-|
|-1-1--1--1--1-1-1-1-1--1---1-1--1-1-1-1-1-|
|-2-2--2--2--2-2-2-0-0--0---0-0--0-0-0-0-0-|
|-3-3--3--3--3-3-3-2-2--2---2-2--2-2-2-2-2-|
|-3-3--3--3--3-3-3-3-3--3---3-3--3-3-3-3-3-|
|-1-1--1--1--1-1-1-------------------------|


  +S  S E   +Q        S S S S +Q
|-------------------------------------||
|-(7)s6s7---(7)-------7S6---7-(7)s====||
|-(7)s6s7---(7)-------7S6---7-(7)s====||
|-------------------------7-----------||
|-------------------------------------||
|-------------------------------------||
|
|  S  S S S  S  S S S S S S S  S  E S
|--3--2------3--2---2-3-2---2--3--2-3-||
|--3--3-3-3--3--3-3-3-3-3-3-3--3--3---||
|--2--2-2-2--2--2-2-2-2-2-2-2--2------||
|--0--0-0-0--0--0-0-0-0-0-0-0--0------||
|-------------------------------------||
|-------------------------------------||
                        end Rhy FIg 3-|

 Verse
w/Rhy Fig 3 x4
  Gtr III
   S  E.  +Q   H      Q  H    S S S S
|-------------------|-----------------|
|-11s12--(12)-------|-7s=9----9s8-4-4s|
|-11s12--(12)-------|-7s=9----9s8-4-4s|
|-------------------|-----------------|
|-------------------|-----------------|
|-------------------|-----------------|


  H    S E S S E S   +S  S E +Q    S  S  S  S  E  +E
|------------------|-------------------------------------|
|-5----------4-5-7-|-(7)s6s7-(7)S=19s17----18s19-(19)\---|
|-5----------4-5-7-|-(7)s6s7-(7)S=19s17----18s19-(19)\---|
|--------2s5-------|--------------------19---------------|
|------------------|-------------------------------------|
|------------------|-------------------------------------|


    S  E.  +Q   H      Q  H    S S S S   S S E +E  +E   S E S S E  S
|--------------------|-----------------|-----------------------------|
|-/11s12--(12)-------|-7s=9----9s8-4-4s|=5s4s5-(5)-(5)\-------4-5\-7-|
|-/11s12--(12)-------|-7s=9----9s8-4-4s|=5s4s5-(5)-(5)\-------4-5\-7-|
|--------------------|-----------------|------------------2s5--------|
|--------------------|-----------------|-----------------------------|
|--------------------|-----------------|-----------------------------|


   T  T T T E Q   T  T  T  T  E  +Q
|---------------------------------------|

|--7s=6s7s6s7-7S=19s18s19s18s19-(19)\---|
|-(7)s6s7s6s7-7S=19s18s19s18s19-(19)\---|
|---------------------------------------|
|---------------------------------------|
|---------------------------------------|


    S  E.  +Q   H      Q  H    S S S S   H    S E S S E S
|--------------------|-----------------|------------------|
|-/11s12--(12)-------|-7s=9----9s8-4-4s|=5----------4-5-7-|
|-/11s12--(12)-------|-7s=9----9s8-4-4s|=5----------4-5-7-|
|--------------------|-----------------|--------2s5-------|
|--------------------|-----------------|------------------|
|--------------------|-----------------|------------------|


  +S  S E +Q    S     S     S     S    +S  E.
|----------------------------------------------|
|-(7)s6s7-(7)---7s====6-----------7----(7)-7s==|
|-(7)s6s7-(7)---7s====6-----------7----(7)-7s==|
|--------------------------/7------------------|
|----------------------------------------------|
|----------------------------------------------|
|
|Gtr III substitute this bar on repeat
|  S  S E +Q    T  T  S  a  S  a  S  a  Q
|----------------------------------------------|
|-(7)s6s7-(7)S=19s17----19s17-19s17-17s19\-----|
|-(7)s6s7-(7)S=19s17----19s17-19s17-17s19\-----|
|--------------------19------------------------|
|----------------------------------------------|
|----------------------------------------------|


  S  E.  +H     E S  S    S  S E +Q    E  E S S S S
|----------------------|----------------------------|
|-9s12--(12)--------12-|-12s11s9-(9)\----/x-9s8-4-4s|
|-9s12--(12)--------12-|-12s11s9-(9)\----/x-9s8-4-4s|
|----------------------|----------------------------|
|----------------------|----------------------------|
|----------------------|----------------------------|


  H    S E S S E S   +S  S E +Q   H
|------------------|-------------------|
|-5----------4-5-7-|-(7)s6s7-(7)-------|
|-5----------4-5-7-|-(7)s6s7-(7)-------|
|--------2s5-------|-------------------|
|------------------|-------------------|
|------------------|-------------------|


  Gtr III
    Q      S S S S +S  E   S  Q
|--------------------------------|
|-/10-----10s9-5-------------10S=|
|-/10-----10s9-5-------------10S=|
|----------------5-(5)S2s==5-----|
|--------------------------------|
|--------------------------------|
|
| Gtrs I, II
|   E S S  E   E    E    S S  Q
|---1-1-1--1---1----0----x-0--0--|
|---1-1-1--1---1----1----x-1--1--|
|---2-2-2--2---2----0----x-0--0--|
|---3-3-3--3---3----2----x-2--2--|
|---3-3-3--3---3----3----x-3--3--|
|---1-1-1--1---1-----------------|
|-Rhy Fig 4

   S     S     S     S     S     S     S     S     S     S     S     S     S     S     E
|--------------------------------------------------------------------------------------------------|
|-19s===17----------19s===17----------19s===17----------19s===17----------22s===26----19\----------|
|-19s===17----------19s===17----------19s===17----------19s===17----------22s===26----19\----------|
|-------------19----------------19----------------19----------------19-----------------------------|
|--------------------------------------------------------------------------------------------------|
|--------------------------------------------------------------------------------------------------|
|
|Gtr III substitute this bar on repeat
|  T  T  T  T  T  T  T  T  T  T  T  T  T  T  T  T  T  T  T  T  T  T  T  T  T  T  T  T  T   T  S
|--------------------------------------------------------------------------------------------------|
|-19s17----19s17----19s17----19s17----19s17----19s17----19s17----19s17----19s17----19s17-----19\---|
|-19s17----19s17----19s17----19s17----19s17----19s17----19s17----19s17----19s17----19s17-----19\---|
|-------19-------19-------19-------19-------19-------19-------19-------19-------19--------19-------|
|--------------------------------------------------------------------------------------------------|
|--------------------------------------------------------------------------------------------------|
|
|  E           S     S     E           S     S     S     S     S     S     S     S     S      S
|--2-----------x-----2-----2-----------x-----x-----2-----2-----2-----2-----2-----2-----2------x----|
|--3-----------x-----3-----3-----------x-----x-----3-----3-----3-----3-----3-----3-----3------x----|
|--2-----------x-----2-----2-----------x-----x-----2-----2-----2-----2-----2-----2-----2------x----|
|--0-----------x-----0-----0-----------x-----x-----0-----0-----0-----0-----0-----0-----0-----------|
|--0-----------x-----0-----0-----------x-----x-----0-----0-----0-----0-----0-----0-----0-----------|
|--------------------------------------------------------------------------------------------------|
                                                                                     end Rhy Fig 4-|
w/Rhy Fig 4
    Q   S S S S +S  E S S E S   +Q.   +E   Q  +Q
|-----------------------------|---------------------|
|-/10--10s9-5-----------4-5-7-|-(7)---(7)\-2--(2)S==|
|-/10--10s9-5-----------4-5-7-|-(7)---(7)\-2--(2)S==|
|-------------5-(5)S2s5-------|---------------------|
|-----------------------------|---------------------|
|-----------------------------|---------------------|


   Q   S S S S +S  E S S E S
|----------------------------|
|-10--10s9-5-----------4-5-7-|
|-10--10s9-5-----------4-5-7-|
|------------5-(5)s2s5-------|
|----------------------------|
|----------------------------|
|
|Gtr III substitute next 2 bars on repeat
|  Q   S S S S +S  E S Q

|----------------------------|
|-10--10s9-5-----------5-----|
|-10--10s9-5-----------5-----|
|------------5-(5)s2s5-------|
|----------------------------|
|----------------------------|


  +E              E              Q   S        S        S        S 
      S        E.
|--------------------------------------------------------------------------------------||
|-(7)S============6S=============7---7s=======6s=======7s=======6s=======7--------7/--o||
|-(7)S============6S=============7---7s=======6s=======7s=======6s=======7--------7/---||
|--------------------------------------------------------------------------------------||
|-------------------------------------------------------------------------------------o||
|--------------------------------------------------------------------------------------||
|
|  |------------9-------------|  |-----------9-----------|  |--3--|  |--3--|  |--3--| 
|  S   S  S  S  S    S  S  S  S  S  S  S  S  S  S  S  S  S  T  T  T  T  T  T  T  T  T 
T  T  T  T  T  T  T  T  E
|-------------------------------------------------------------------------------------
|-19s=17----19s17------19s17----19s17----19s17----19s17----19s17----19s17----19s17----
|-19s=17----19s17------19s17----19s17----19s17----19s17----19s17----19s17----19s17----
|--------19---------19-------19-------19-------19-------19-------19-------19-------19-
|-------------------------------------------------------------------------------------
|-------------------------------------------------------------------------------------

 |--3--| |--3--|  |--3--|            
 T                                   
                                     
-----------------------------------||
19s17----19s17----19s17----19\----o||
19s17----19s17----19s17----19\-----||
------19-------19-------19---------||
----------------------------------o||
-----------------------------------||

   Q      S S S S +S  E   S S E    S
|------------------------------------|
|-10-----10s9-5-------------4-5\---7-|
|-10-----10s9-5-------------4-5\---7-|
|---------------5-(5)s2s==5----------|
|------------------------------------|
|------------------------------------|
|
| Gtrs I, II
|  E S S  E   S S  E    S S E    E
|--1-x-1--1---x-0--0----x-x-0----0---|
|--1-x-1--1---x-1--1----x-x-1----1---|
|--2-x-2--2---x-0--0----x-x-0----0---|
|--3-x-3--3---x-2--2----x-x-2----2---|
|--3-x-3--3---x-3--3----x-x-3----3---|
|--1-x-1--1---x----------------------|


                                      Interlude
                                    Double Time Q=124
   S  S S S S S S S S S S S S S S S     W
|-----------------------------------||------------------|
|--7s=6s7s6s7s6s7s6s7s6s7s6s7s6s7s6s||=12---------------|
|-(7)s6s7s6s7s6s7s6s7s6s7s6s7s6s7s6s||=12---------------|
|-----------------------------------||------------------|
|-----------------------------------||------------------|
|-----------------------------------||------------------|
|
|  S  S S S S S S S S S S S S S S S     E E E E E E E E
|--2--2-2-2-2-2-2-2-2-2-2-2-2-2-2-2-||------------------|
|--3--3-3-3-3-3-3-3-3-3-3-3-3-3-3-3-||------------------|
|--2--2-2-2-2-2-2-2-2-2-2-2-2-2-2-2-||------------------|
|--0--0-0-0-0-0-0-0-0-0-0-0-0-0-0-0-||--5-5-x-5-x-5-x-8-|
|--0--0-0-0-0-0-0-0-0-0-0-0-0-0-0-0-||--5-5-x-5-x-5-x-8-|
|-----------------------------------||--3-3-x-3-x-3-x-6-|
                                     |-Rhy Fig 5

  Gtrs I, II
  E E E E E E E E    E  E E  E E  E E  E   E  E E  E E  E E  E
|-----------------|----------------------|----------------------|
|-----------------|----------------------|----------------------|
|-----------------|----------------------|----------------------|
|-x-8-x-8-x-8-x-8S|=10-10-x-10-x-10-x-10-|-x-10-x-10-x-10-x-----|
|-x-8-x-8-x-8-x-8S|=10-10-x-10-x-10-x-10-|-x-10-x-10-x-10-x-----|
|-x-6-x-6-x-6-x-6S|==8--8-x--8-x--8-x--8-|-x--8-x--8-x--8-x-(0)-|
                                                  end Rhy Fig 5-|

  E E E E E E E E   E E E E E E E E
|-----------------|-----------------|
|-----------------|-----------------|
|-----------------|-----------------|
|-5-5-x-5-x-5-x-8-|-x-8-x-8-x-8-x-8S|
|-5-5-x-5-x-5-x-8-|-x-8-x-8-x-8-x-8S|
|-3-3-x-3-x-3-x-6-|-x-6-x-6-x-6-x-6S|


   E  E E  E E  E E  E   E  E E  E E   E  E  E
|----------------------|------------------------||
|----------------------|------------------------||
|----------------------|------------------------||
|-10-10-x-10-x-10-x-10-|-x-10-x-10-x--10--x-----||
|-10-10-x-10-x-10-x-10-|-x-10-x-10-x--10--x-----||
|--8--8-x--8-x--8-x--8-|-x--8-x--8-x---8--x-(0)-||
|
| Gtrs IV, V
|  W                     H         E   E  E  E
|----------------------|-----------------15-----||
|----------------------|--------------------15--||
|----------------------|-------------/16--------||
|----------------------|------------------------||
|----------------------|------------------------||
|----------------------|------------------------||


   Guitar Solo
w/Rhy Fig 5 x4
    Gtrs IV, V
                                           ~~~~~                                   ~~~~~
     a      +E    E  a      +Q     a      +Q     E  E    E  E      +E   E  a      +Q     E  E
||---------------15-----------------------------------|---------------------------------------|
||o-18b20==(18)r----18b20==(18)r--18b20==(18)r--18-15-|-18-18pb20r(18)-15-18b20==(18)r--18-15-|
||----------------------------------------------------|---------------------------------------|
||----------------------------------------------------|---------------------------------------|
||o---------------------------------------------------|---------------------------------------|
||----------------------------------------------------|---------------------------------------|


                                                     ~~~~
   a     +E    a     +Q     E  a     +Q     E  a     +E
|--------------------------18--------------18------------|
|-18b20=(18)r-18b20=(18)r-----18b20=(18)r-----18b20=(18)-|
|--------------------------------------------------------|
|--------------------------------------------------------|
|--------------------------------------------------------|
|--------------------------------------------------------|

 1.
                    ~~~~~
   +E    E  a      +Q     a      +E     E  E  E
|-------18--------------------------------15------||
|-(18)r----18b20==(18)r--18b20==(18)r\-------15--o||
|--------------------------------------16---------||
|-------------------------------------------------||
|------------------------------------------------o||
|-------------------------------------------------||


  2.
    E   E  a      +E.   S  a      +E.   S  a      +E.   S
|------18--------------18--------------18--------------18-|
|-(18)----18b20==(18)r----18b20==(18)r----18b20==(18)r----|
|---------------------------------------------------------|
|---------------------------------------------------------|
|---------------------------------------------------------|
|---------------------------------------------------------|


    a      +E.   S  a      +E.   S  a      +E.   S  a      +E.   S   x3
||---------------18--------------18--------------18--------------18-||
||o-18b20==(18)r----18b20==(18)r----18b20==(18)r----18b20==(18)r---o||
||------------------------------------------------------------------||
||------------------------------------------------------------------||
||o----------------------------------------------------------------o||
||------------------------------------------------------------------||


   a      +E.   S  a      +E.   S  a      +E.   S  E  E
|--------------18--------------18--------------18-------|
|-18b20==(18)r----18b20==(18)r----18b20==(18)r----18-15-|
|-------------------------------------------------------|
|-------------------------------------------------------|
|-------------------------------------------------------|
|-------------------------------------------------------|


                     |--------5--------|  |--------5--------|       |--------5--------|
   S  S      +S   S  S  S      +S   S  S  S      +S   S  S  S      +S   S  S  S      +S
|----------------------------------------------------------------------------------------|
|-18-18pb20r(18)p15-18-18pb20r(18)p15-18-18pb20r(18)p15-18-18pb20r(18)p15-18-18pb20r(18)p|
|----------------------------------------------------------------------------------------|
|----------------------------------------------------------------------------------------|
|----------------------------------------------------------------------------------------|
|----------------------------------------------------------------------------------------|


   |--------5--------|                                      |--------5--------|
   S  S  S      +S   S  S  S      +S   S  S  S      +S   S  S  S      +S   S  S
|-------------------------------------------------------------------------------|
|-15-18-18pb20r(18)p15-18-18pb20r(18)p15-18-18pb20r(18)p15-18-18pb20r(18)p15-18-|
|-------------------------------------------------------------------------------|
|-------------------------------------------------------------------------------|
|-------------------------------------------------------------------------------|
|-------------------------------------------------------------------------------|


                     |--------5--------|       |----------6----------|
   S      +S   S  S  S      +S   S  S  S      +S   S  S  S      +S   S  S  S      +S   S
|----------------------------------------------------------------------------------------|
|-18pb20r(18)p15-18-18pb20r(18)p15-18-18pb20r(18)p15-18-18pb20r(18)p15-18-18pb20r(18)p15-|
|----------------------------------------------------------------------------------------|
|----------------------------------------------------------------------------------------|
|----------------------------------------------------------------------------------------|
|----------------------------------------------------------------------------------------|


   |--------5--------|  |--------5--------|
   S  S      +S   S  S  S      +S   S  S  S      +S   S  S  a      +S   +S   +S   E
|------------------------------------------------------------------------------------|
|-18-18pb20r(18)p15-18-18pb20r(18)p15-18-18pb20r(18)p15-18-18b20==(18)-(18)r(18)-15--|
|------------------------------------------------------------------------------------|
|------------------------------------------------------------------------------------|

|------------------------------------------------------------------------------------|
|------------------------------------------------------------------------------------|


  Gtrs I, II
Rhy FIg 6
         G5
           Q             Q             E       E          E     E
           |             |             |       |          |     |
           /             /             x       /          x     /

  Gtr V
   a      +Q     a      +Q             S    S  S       S  S  S  S       S
|-------------------------------------------------------------------------|
|-18b20==(18)r--18b20==(18)r----------18p==15---------15-18p15---------15-|
|---------------------------------------------17b17.5----------17b17.5----|
|-------------------------------------------------------------------------|
|-------------------------------------------------------------------------|
|-------------------------------------------------------------------------|
|
| Gtr IV
|  a      +Q     a      +Q     a      +Q                  S  S  S       S
|-------------------------------------------------------------------------|
|-18b20==(18)r--18b20==(18)r--18b20==(18)r---------------18p15---------15-|
|--------------------------------------------------------------17b17.5----|
|-------------------------------------------------------------------------|
|-------------------------------------------------------------------------|
|-------------------------------------------------------------------------|


  Bb5
   Q                Q                E     E          E     E
   |                |                |     |          |     |
   /                /                x     /          x     /

 Gtrs IV, V
   S  S  S       S  S  S  S       S  S  S  S       S  S  S  S       S
|---------------------------------------------------------------------|
|-18p15---------15-18p15---------15-18p15---------15-18p15---------15-|
|-------17b17.5----------17b17.5----------17b17.5----------17b17.5----|
|---------------------------------------------------------------------|
|---------------------------------------------------------------------|
|---------------------------------------------------------------------|

  C5
   Q                Q                E     E          E     E
   |                |                |     |          |     |
   /                /                x     /          x     /

   S  S  S       S  S  S  S       S  S  S  S       S  S  S  S       S
|----------------------------------------------------------------------|
|-18p15---------15-18p15---------15-18p15---------15-18p15---------15--|
|-------17b17.5----------17b17.5----------17b17.5----------17b17.5-----|
|----------------------------------------------------------------------|
|----------------------------------------------------------------------|
|----------------------------------------------------------------------|

                                                end Rhy Fig 6-|
   Q                Q                Q                Q
   |                |                |                |
   /                /                /                /

   S  S  S       S  S  S  S       S  S  S  S       S  E  S  S
|-------------------------------------------------------------|
|-18p15---------15-18p15---------15-18p15---------15----------|
|-------17b17.5----------17b17.5----------17b17.5----15-------|
|-------------------------------------------------------17-15-|
|-------------------------------------------------------------|
|-------------------------------------------------------------|

w/Rhy Fig 6 x3
   E  E  S  S  E  E  S  S  S  S  S  S    S  S  S  S  S  S  S  S  a     +E.   S  a     +E.   S
|-------------------------------------|-------------------------------------------------------|
|-------------------------------------|-------------------------------------18-------------18-|
|----15----------15----15-17p15-17p15-|----15-17p15-17p15----15-17b19=(17)r----17b19=(17)r----|
|-17----17p15-17----17----------------|-17----------------17----------------------------------|
|-------------------------------------|-------------------------------------------------------|
|-------------------------------------|-------------------------------------------------------|

   a      +E.   S  a      +E.  S  E.  S  a      +E.  S
|------------------------------------------------------|
|--------------18-------------15-----18-------------15-|
|-17b19==(17)r----17b19==(17)----17r----17b19==(17)----|
|------------------------------------------------------|
|------------------------------------------------------|
|------------------------------------------------------|

          |---3---|  |-----3-----|
   E.  S  E  +E   E  E      +E   E  S      +S   S  S
|--------------------------------------------------------|
|-----18---------18-------------18-------------18--------|
|-17-----17r(17)----17pb19r(17)----17pb19r(17)----17pb19r|
|--------------------------------------------------------|
|--------------------------------------------------------|
|--------------------------------------------------------|


                                               |----------------7:8----------------|
   +S   S  S      +S      S  S      +S      S  S      +S      S  S      +S      S  S
|------------------------------------------------------------------------------------------|
|------18----------------18----------------18----------------18----------------18----------|

|-(17)----17pb19r(17)b19----17pb19r(17)b19----17pb19r(17)b19----17pb19r(17)b19----17pb19r==|
|------------------------------------------------------------------------------------------|
|------------------------------------------------------------------------------------------|
|------------------------------------------------------------------------------------------|


                                             |----------------7:8----------------|
   S  S  S      +S      S  S      +S      S  S      +S      S  S      +S      S  S
|--------------------------------------------------------------------------------------|
|----18----------------18----------------18----------------18----------------18--------|
|-17----17pb19r(17)b19----17pb19r(17)b19----17pb19r(17)b19----17pb19r(17)b19----17pb19r|
|--------------------------------------------------------------------------------------|
|--------------------------------------------------------------------------------------|
|--------------------------------------------------------------------------------------|


                                             |--------------6:8---------------|
   S  S  S      +S      S  S      +S      S  S      +S      S  S      +S      S
|-------------------------------------------------------------------------------|
|----18----------------18----------------18----------------18----------------18-|
|-17----17pb19r(17)b19----17pb19r(17)b19----17pb19r(17)b19----17pb19r(17)b19----|
|-------------------------------------------------------------------------------|
|-------------------------------------------------------------------------------|
|-------------------------------------------------------------------------------|


   a      +E.   S  a      +E.   S  a      +E.  S  a      +E   S  S
|------------------------------------------------------------------|
|--------------18--------------18-------------18-------------------|
|-17b19==(17)r----17b19==(17)r----17b19==(17)----17pb19r(17)p15----|
|---------------------------------------------------------------17-|
|------------------------------------------------------------------|
|------------------------------------------------------------------|


   E  S  S  E  E  S  S  E  E  S  S    E  E  S  S  E  E  S  S  E  E
|----------------------------------|-------------------------------|
|-15----------15----------15-------|----15----------15-------------|
|-15----------15----------15-------|----15----------15-------------|
|----17p15-------17p15-------17p15-|-------17p15-------17p15----15-|
|----------17----------17----------|-17----------17----------17----|
|----------------------------------|-------------------------------|


   Q   E  S  S  S  S  S  S  S  S  S  S
|--------------------------------------|
|--------------------------------------|
|-----------------------------------15-|
|-17--15----15-17p15----15-17p15----15-|
|--------17----------17----------17----|
|--------------------------------------|


  Gtr V
   Q   E  S  S  S  S  S  S  S  S  S  S
|--------------------------------------|
|--------------------------------------|
|--------------------------------------|
|-17--15----15-17p15----15-17p15----15-|
|--------17----------17----------17----|
|--------------------------------------|
|
| Gtr IV
|  Q   E  S  S  E     S  S  S  S  S  S
|--------------------------------------|
|--------------------------------------|
|--------------------------------------|
|-17--15----15-15----17p15-17p15----15-|
|--------17----------------------17----|
|--------------------------------------|

w/Rhy Fig 5 x3
   Q   E  E  E     E     S  S  E    Q   E  S  S  S  S  S  S  S  S  S  S
|--------------------------------|--------------------------------------|
|--------------------------------|--------------------------------------|
|--------------------------------|--------------------------------------|
|-17--15----15----17----17p15----|-17--15----15-17p15----15-17p15----15-|
|--------17-------------------17-|--------17----------17----------17----|
|--------------------------------|--------------------------------------|
|
|  Q   E  E  S  S  S  S  S  S  E    Q   E  E     E     S  S  S  S  S  S
|--------------------------------|--------------------------------------|
|--------------------------------|--------------------------------------|
|--------------------------------|--------------------------------------|
|-17--15----15-17p15----17p15----|-17--15-------15----17p15-17p15----15-|
|--------17----------17-------17-|--------17----------------------17----|
|--------------------------------|--------------------------------------|


  Gtrs IV, V
   Q   E  S  S  Q   E  S  S    Q   E  S  S  Q   E  a      +E
|---------------------------|----------------------------------|
|---------------------------|----------------------------------|
|-----15----15-----15----15-|-----15----15-----15-17b19==(17)r-|
|-17--15-------17--15-------|-17--15-------17--15--------------|
|--------17-----------17----|--------17------------------------|
|---------------------------|----------------------------------|


   S  S  S  S  a      +E    S  S  S  S  a      +E    S  S  S  S
|----------------------------------------------------------------|
|----------------------------------------------------------------|
|-17p15-------17b19==(17)r-17p15-------17b19==(17)r-17p15--------|
|-------17p15--------------------17p15--------------------17p15--|
|----------------------------------------------------------------|
|----------------------------------------------------------------|


   a      +E    S  S  S  S  a      +E    S  S  S  S  a      +E    S  S
|----------------------------------------------------------------------|
|----------------------------------------------------------------------|
|-17b19==(17)r-17p15-------17b19==(17)r-17p15-------17b19==(17)r-17p15-|
|--------------------17p15--------------------17p15--------------------|
|----------------------------------------------------------------------|
|----------------------------------------------------------------------|


   S  S  a      +E    S  S  S  S  a      +E    S  S  S  S  a      +E
|---------------------------------------------------------------------|
|---------------------------------------------------------------------|
|-------17b19==(17)r-17p15-------17b19==(17)r-17p15-------17b19==(17)-|
|-17p15--------------------17p15--------------------17p15-------------|
|---------------------------------------------------------------------|
|---------------------------------------------------------------------|


  Gtr V
   E     E             E    E     E            +E    E     E
|---------------------------------------------------------------|
|---------------------------------------------------------------|
|-17----17------------17---17----17r==========(17)--17----17----|
|---------------------------------------------------------------|
|---------------------------------------------------------------|
|---------------------------------------------------------------|
|
| Gtr IV
|  S  S  S  S  a      +E    S  S  S  S  a      +E    S  S  S  S
|---------------------------------------------------------------|
|---------------------------------------------------------------|
|-17p15-------17b19==(17)r-17p15-------17b19==(17)r-17p15-------|
|-------17p15--------------------17p15--------------------17p15-|
|---------------------------------------------------------------|
|---------------------------------------------------------------|


           Q          E             E   a    +Q                     E  E
|------------------------------------------------------------------------|
|-----------------------------------3---6b8==(6)r-------------------6--3-|
|--------------------/4--------------------------------------------------|
|---------17\------------------------------------------------------------|
|------------------------------------------------------------------------|
|------------------------------------------------------------------------|
|

|  a      +E    S  S  S  S  a      +E         S    S  S  S  a      +Q
|------------------------------------------------------------------------|
|------------------------------------------------------------------------|
|-17b19==(17)r-17p15-------17b19==(17)r------17p==15-------17b19==(17)---|
|--------------------17p15---------------------------17p15---------------|
|------------------------------------------------------------------------|
|------------------------------------------------------------------------|


                                         ~~~~
           E   E            +E   E a    +Q       E  E
|-----------------------------------------------------|
|----------6---6pb8r========(6)p=3-6b8==(6)r-----6--3-|
|-----------------------------------------------------|
|-----------------------------------------------------|
|-----------------------------------------------------|
|-----------------------------------------------------|
|
|  a      +Q         a      +Q           E    E  E  E
|-----------------------------------------------------|
|-----------------------------------------------------|
|-17b19==(17)r------17b19==(17)r--------17---17-17-15-|
|-----------------------------------------------------|
|-----------------------------------------------------|
|-----------------------------------------------------|


   E a    +Q       E a    +Q     E a    +E     +E    E a    +E   a     +E  +E     E E E
|------------------6-------------6----------|--------6------------------------------3----|
|--6-6b8==(6)r-------6b8==(6)r-----6b8==(6)-|--(6)r----6b8==(6)r(6)b8==(6)-(6)r\------3--|
|-------------------------------------------|------------------------------------/4------|
|-------------------------------------------|--------------------------------------------|
|-------------------------------------------|--------------------------------------------|
|-------------------------------------------|--------------------------------------------|
|
|  Q            E  E       Q     E       E     +E    E       Q              E     E E E
|-------------------------------------------|---------------------------------------3----|
|-------------------------------------------|-----------------------------------------3--|
|-----------------15------------15----------|-------15---------------------------/4------|
|-17-----------17---------17------------17--|-(17)----------17-------------17------------|
|-------------------------------------------|--------------------------------------------|
|-------------------------------------------|--------------------------------------------|


w/ 1st 3 bars of Rhy Fig 5
  Gtrs IV, V
                    ~~~~       ~~~~
  a    +E   E a    +Q    a    +Q    E E
|-----------3---------------------------|
|-6b8==(6)r---6b8==(6)r--6b8==(6)r--6-3-|
|---------------------------------------|
|---------------------------------------|
|---------------------------------------|
|---------------------------------------|


                     ~~~~
  E E    +E  E a    +Q    E E   E a    +Q    E a    +Q    E a    +E
|-----------------------------|--------------6------------6----------|
|-6-6pb8r(6)p3-6b8==(6)r--6-3-|-6-6b8==(6)r----6b8==(6)r----6b8==(6)-|
|-----------------------------|--------------------------------------|
|-----------------------------|--------------------------------------|
|-----------------------------|--------------------------------------|
|-----------------------------|--------------------------------------|


  C5   E       F             F#       |-continue prev. 4 bars x3
  Gtrs I, II
   E   Q        Q             Q    E
   |   |        |             |    |
   /   o        o             o    /

  Gtrs IV, V
                              ~~~~     ~      ~
  +E   Q  a     E  +E   a     Q    E   Q  E E Q  E  E
|------6--------6--(6)--------6------|-------------(6)-|
|-(6)r----6b8==(6)-(6)r-6b8==(6)r--6-|-8--8-6-8--8--6--|
|------------------------------------|-----------------|
|------------------------------------|-----------------|
|------------------------------------|-----------------|
|------------------------------------|-----------------|


  W                 W
  ~      ~          ~      ~
  Q  E E Q  E  E    Q  E E Q  E  E
|-------------(6)-|-------------(6)---|
|-8--8-6-8--8--6--|-8--8-6-8--8--6----|
|-----------------|-------------------|
|-----------------|-------------------|
|-----------------|-------------------|
|-----------------|-------------------|


                                             Gtr V
                                               ~      ~
  E a     +Q    a     +E  +E   a     +Q    E   Q  E E Q  E   E
|--------------------------------------------|-------------------|
|-8-8b11==(8)r--8b11==(8)-(8)r-8b11==(8)r--6-|-8--8-6-8--8---6---|
|--------------------------------------------|-------------------|
|--------------------------------------------|-------------------|
|--------------------------------------------|-------------------|
|--------------------------------------------|-------------------|
|
|                                            Gtr IV
| W                                            Q  E E Q  S S S S
|--------------------------------------------|-------------6-7-8-|
|--------------------------------------------|-8--8-6-8--8-------|
|--------------------------------------------|-------------------|
|--------------------------------------------|-------------------|
|--------------------------------------------|-------------------|
|--------------------------------------------|-------------------|


                                              Gtrs IV, V
         ~~~~                                   ~      ~
                                 |--3---|
         Q        S S S S a     +E  +E  E E E   Q  E E Q  E E
|-------------------6-7-8-8b10==(8)r(8)-6-----|----------------|
|--------8--------8-----------------------8-8-|-8--8-6-8--8-6--|
|---------------------------------------------|----------------|
|---------------------------------------------|----------------|
|---------------------------------------------|----------------|
|---------------------------------------------|----------------|
|
|        |--3---|
| a     +E  +E  E E   E          Q        E E   W
|-8b10==(8)r(8)-6-----------------------------|----------------|
|-----------------8---6----------8--------8-6-|----------------|
|---------------------------------------------|----------------|
|---------------------------------------------|----------------|
|---------------------------------------------|----------------|
|---------------------------------------------|----------------|


  E a     +Q    a     +E  +E   a     +Q     E
|----------------------------------------------|
|-8-8b11==(8)r--8b11==(8)-(8)r-8b11==(8)r------|
|----------------------------------------------|
|------------------------------------------13\-|
|----------------------------------------------|
|----------------------------------------------|


   ~~                           ~~     ~~
   Q   E  E  +E   E  S  S  E    Q   E  E  +E   E  S  S  E
|----------------------------|----------------------------|
|----------------------------|----------------------------|
|-12-----12-(12)-12-14p12----|-12-----12-(12)-12-14p12----|
|-----14------------------14-|-----14------------------14-|
|----------------------------|----------------------------|
|----------------------------|----------------------------|


  Gtr V
   ~~~          ~~                      ~~~~~~~~~~
   Q      E     E  +E   E      E  E    +E   Q   E  +E    E   E  S  S
|-----------------------------------|--------------------------------|
|-----------------------------------|--------------------------------|
|-12-----------12-(12)--------12-12-|-(12)-12--12-(12)------12-15p12-|
|--------14------------14-----------|------------------/14-----------|
|-----------------------------------|--------------------------------|
|-----------------------------------|--------------------------------|
|
| Gtr IV

|  E.  S  S  S  E   E   Q.             +H          +E   +E   E  E
|-----------------------------------|--------------------------------|
|-----------------------------------|--------------------------------|
|-12--12-15p12-----12--15b19========|=(15)--------(15)r(15)-12-------|
|--------------15-------------------|--------------------------15----|
|-----------------------------------|--------------------------------|
|-----------------------------------|--------------------------------|


  Gtrs I, II
|-Rhy Fig 7
  G5
   Q           Q           H
   |           |
   /           /

  Gtrs IV, V
   S  S  S  S  S  S  S  S  S  S  S  S  S  S  S  S
|-------------------------------------------------|
|-------------------------------------------------|
|-14p12----12-15p12-14p12----12-15p12-14p12----12-|
|-------15----------------14----------------14----|
|-------------------------------------------------|
|-------------------------------------------------|


  Bb5
   Q           Q           H
   |           |
   /           /

   S  S  S  S  S  S  S  S  S  S  S  S  S  S  S  S
|-------------------------------------------------|
|-------------------------------------------------|
|-15p12-14p12----12-15p12-14p12----12-15p12-14p12-|
|-------------15----------------15----------------|
|-------------------------------------------------|
|-------------------------------------------------|


  C5
   Q           Q           H
   |           |
   /           /

   S  S  S  S  S  S  S  S  S  S  S  S  S  S  S  S
|-------------------------------------------------|
|-------------------------------------------------|
|----12-15p12-14p12----12-15p12-14p12----12-15p12-|
|-15----------------15----------------15----------|
|-------------------------------------------------|
|-------------------------------------------------|

                                   end Rhy Fig 7-|
   E     S  S  E     S  S  E     S  S E   S  S
   |     |  |  |     |  |  |     |  | |   |  |
   /     /  /  /     /  /  /     /  / /   /  /

   S  S  S  S  S  S  S  S  S  S  E    E   S  S
|-------------------------------------------15--|
|-----------------------------------------------|
|-14p12----12-15p12-14p12-12-12-12\---x-/16-----|
|-------15--------------------------------------|
|-----------------------------------------------|
|-----------------------------------------------|

w/Rhy Fig 7 x3
     S  S  S  S  S  S  S  S  S  S  S  S  S  S  S  S
||-----------15----------15----------15----------15-|
||o-18p15-------18p15-------18p15-------18p15-------|
||--------17----------17----------17----------17----|
||--------------------------------------------------|
||o-------------------------------------------------|
||--------------------------------------------------|


   S  S  S  S  S  S  S  S  S  S  S  S  S  S  S  S
|----------15----------15----------15----------15--|
|-18p15-------18p15-------18p15-------18p15--------|
|-------17----------17----------17----------17-----|
|--------------------------------------------------|
|--------------------------------------------------|
|--------------------------------------------------|


   S  S  S  S  S  S  S  S  S  S  S  S  S  S  S  S
|----------15----------15----------15----------15-|
|-18p15-------18p15-------18p15-------18p15-------|
|-------17----------17----------17----------17----|
|-------------------------------------------------|
|-------------------------------------------------|
|-------------------------------------------------|


   S  S  S  S  S  S  S  S  S  S  S  S  S  S  S  S
|----------15----------15----------15----------15--||
|-18p15-------18p15-------18p15-------18p15-------o||
|-------17----------17----------17----------17-----||
|--------------------------------------------------||
|-------------------------------------------------o||
|--------------------------------------------------||


                           |-----5-----|  |-----5-----|
   S  S  S  S  S  S  S  S  S  S  S  S  S  S  S  S  S  S
|-18p15----18p15----18p15----18p15----18p15----18p15----|
|-------15-------15-------15-------15-------15-------15-|
|-------------------------------------------------------|
|-------------------------------------------------------|
|-------------------------------------------------------|
|-------------------------------------------------------|


   |------------11:8-------------|  |----------10:8------------|
   S  S  S  S  S  S  S  S  S  S  S  S  S  S  S  S  S  S  S  S  S
|-18p15----18p15----18p15----18p15----18p15----18p15----18p15-----|
|-------15-------15-------15-------15-------15-------15-------15--|
|-----------------------------------------------------------------|
|-----------------------------------------------------------------|
|-----------------------------------------------------------------|
|-----------------------------------------------------------------|


               |--------8:6---------|  |--------8:6---------|
   S  S  S  S  S  S  S  S  S  S  S  S  S  S  S  S  S  S  S  S
|-------------------------------------------------------------|
|-15----18p15----18p15----18p15----18p15----18p15----18p15----|
|----15-------15-------15-------15-------15-------15-------15-|
|-------------------------------------------------------------|
|-------------------------------------------------------------|
|-------------------------------------------------------------|


                           |----------9:8----------|
   S  S  S  S  S  S  S  S  S  S  S  S  S  S  S  S  S
|-----------------------------------------------------|
|-18p15----18p15----18p15----18p15----18p15----18p15--|
|-------15-------15-------15-------15-------15--------|
|-----------------------------------------------------|
|-----------------------------------------------------|
|-----------------------------------------------------|

w/Rhy Fig 5 x4
   a       Q     a       Q     a       Q     a       E   E
|---------15------------15------------15------------15-----|
|-18b20==(18)r--18b20==(18)r--18b20==(18)r--18b20==(18)-18-|
|----------------------------------------------------------|
|----------------------------------------------------------|
|----------------------------------------------------------|
|----------------------------------------------------------|


   E  +E   E  E  E  E  E  E    a       Q    E  E  E  +E   E  E
|-15------15-15-15----15-15-|--------------15-15-15------------|
|-18r(18)-18-18-18p15-15-15-|---------15---15-15-15------------|
|---------------------------|-17b19==(17)--17-17-17r(17)-17-17-|
|---------------------------|----------------------------------|
|---------------------------|----------------------------------|
|---------------------------|----------------------------------|


   E  E  E  E  E  E  E  E    Q   Q   E  S  S  S  S  S  S
|-15----15-15-15-15-15-15-|------------------------------|
|-15----15-15-15-15-15-15-|------------------------------|
|-17p15-15-15-15-15-15-15-|---------15-15-15-15-------15-|
|-------------------------|-17--17--17-17-17-17p15-------|
|-------------------------|------------------------17----|
|-------------------------|------------------------------|


   a       Q    E  E  E  +E   E  E
|--------------15-15-15------------|
|---------15---15-15-15------------|
|-17b19==(17)--17-17-17r(17)-17-17-|
|----------------------------------|
|----------------------------------|
|----------------------------------|


  Gtr V
   Q  S  S  S  S  S  S  S  S  S  S  S  S    S  S  S  S  S  S  S  S  S  S  E     E         E
|----------------------------------------|----------------------------------------------------|
|----------------------------------------|----------------------------------------------------|
|-------------15-------------------------|----------------------------------------------------|
|-17-17p15-------17p15----15-17p15----15-|-17p15----15-17p15----15-17p15-------15--------17\--|
|----------17----------17----------17----|-------17----------17----------17-------------------|
|----------------------------------------|----------------------------------------------------|
|
| Gtr IV
|  Q  S  S  S  S  E     S  S  S  S  S  S    Q           S  S  S  S  E     S  S  E  a     +E
|----------------------------------------|----------------------------------------------------|
|----------------------------------------|----------------------------------------------------|
|-------------15----------------------15-|----------------------15----------15----17b19=(17)r-|
|-17-17p15-------17-------15-17p15-------|-17----------17p15-------17----17----15-------------|
|----------17----------17----------17----|-------------------17-------------------------------|
|----------------------------------------|----------------------------------------------------|


    Q                   E    E     +E             E    S  S  E
|-----------------------------------------------------------------|
|-----------------------------------------------------------------|
|---------------------------12----(12)----------------14p12-------|
|-/14------------------14------------------------14---------14----|
|-----------------------------------------------------------------|
|-----------------------------------------------------------------|
|
|   S  S  S  S  a      +E    S  S   S  S  a      +E    S  S  S  S
|-----------------------------------------------------------------|
|-----------------------------------------------------------------|
|--17p15-------17b19==(17)r-17p15--------17b19==(17)r-17p15-------|
|--------17p15---------------------17p15--------------------17p15-|
|-----------------------------------------------------------------|
|-----------------------------------------------------------------|


           ~~~~~                    ~~~~~~~~~
           Q          E             E    +Q                   E    E
|-----------------------------------------------------------------------|
|-----------------------------------------------------------------------|
|---------12-----------------------12---(12)-----------------12---12----|
|--------------------14-------------------------------------/14---14----|
|-----------------------------------------------------------------------|
|-----------------------------------------------------------------------|
|
|  a      +E    S  S  S  S  a      +E     S  S  S  S  a      +E    S  S
|-----------------------------------------------------------------------|
|-----------------------------------------------------------------------|
|-17b19==(17)r-17p15-------17b19==(17)r--17p15-------17b19==(17)r-17p15-|
|--------------------17p15---------------------17p15--------------------|
|-----------------------------------------------------------------------|
|-----------------------------------------------------------------------|


   ~~~                                    ~~~~~~~~
   Q                  E     E             E   +E   a       Q
|-----------------------------------------------------------------|
|---------------------------------------------------------15------|
|-12-----------------------12------------12--(12)-14b16==(14)-----|
|--------------------14-------------------------------------------|
|-----------------------------------------------------------------|
|-----------------------------------------------------------------|
|
|  S  S  a      +E    S  S  S  S  a      +E    E           E   E
|-----------------------------------------------------------------|
|-----------------------------------------------------------------|
|-------17b19==(17)r-17-15-------17b19==(17)--17----------17--17r-|
|-17p15--------------------17-15----------------------------------|
|-----------------------------------------------------------------|
|-----------------------------------------------------------------|


   +E            E        E   E   E   E  E  E
|---------------------------------------------|
|-(15)----------15-------15--15--15--15-------|
|-(14)r---------14pb15===14--14r(14)-12-14----|
|------------------------------------------14-|
|---------------------------------------------|
|---------------------------------------------|
|
|   E    a      +E       +E   E   E   E  E  E
|---------------------------------------------|
|--18-----------------------------------------|
|-------17b18==(17)r====(17)-15--17-----15----|
|------------------------------------17----17-|
|---------------------------------------------|
|---------------------------------------------|

    ~~~      ~~                              ~~~~~
    Q     E  E  +E   E  S  S          E      Q       E  E  +E   E  S  S  E
|----------------------------------------|---------------------------------|
|----------------------------------------|---------------------------------|
|--12-------12-(12)-12-15p12-------------|--12---------12-(12)-12-15p12----|
|--------14--------------------------14--|----------14------------------15-|
|----------------------------------------|---------------------------------|
|----------------------------------------|---------------------------------|
|
|                ~~~~
|   E  E  E  E   Q      E     a      +E     +E    E  E  E   E   E  E     E
|----------------------------------------|---------------------------------|
|----------------------------------------|---------------------------------|
|-----12-12-----12-----------14b16==(14)-|-(14)r-12-14-----12--14-12-------|
|-/14-------14---------14----------------|-------------14---------------14-|
|----------------------------------------|---------------------------------|
|----------------------------------------|---------------------------------|


   E.   S   S  S  E   S   S  E          S   S   E
|--------------------------------------------------|
|--------------------------------------------------|
|-12--(12)-15p12-----15p=12------------15p=12------|
|----------------15---------15-----------------15--|
|--------------------------------------------------|
|--------------------------------------------------|
|
|  ~~~            ~~
|  Q        E     E  +E      E  a      +E      +E
|--------------------------------------------------|
|------------------------------15b17==(15)r===(15)-|
|-12-------------12-(12)----12---------------------|
|----------14--------------------------------------|
|--------------------------------------------------|
|--------------------------------------------------|

           S   S   E   a      +Q      +E    a      +E    E  E
|--------------------------------------------------------------|
|--------------------------------------------------------------|
|---------15p=12------15b17==(15)----(15)r-15b17==(15)r-12-----|
|-----------------15---------------------------------------15--|
|--------------------------------------------------------------|
|--------------------------------------------------------------|
|
|  a      +E      +E           E   E   E            E    E  E
|--------------------------------------------------------------|
|--------------------------------------------------------------|
|-14b15==(14)r===(14)---------12--14--12-----------14---12-----|
|----------------------------------------------------------14--|
|--------------------------------------------------------------|
|--------------------------------------------------------------|


  Gtrs I, II
|-Rhy Fig 8
  G5                                                Bb5
   E S S  E  S S   E   S S          E     S  S        E   S S  E  S S   E   S S  E     S S
   | | |  |  | |   |   | |          |     |  |        |   | |  |  | |   |   | |  |     | |
   / / /  /  / /   /   / /          /     /  /        /   / /  /  / /   /   / /  /     / /

   ~~                                                          ~~
   Q      E  E    +E   E    a      +E.       S    a  +E   E    Q        E   E    E     E
|----------------------------------------------|-------------------------------------------|
|-------------------------------------------15-|-------------------------------------------|
|-12--------12---(12)-12---14b16==(14)---------|-14r(14)-12---12-------12-------12----14---|
|--------14------------------------------------|---------------------------14--------------|
|----------------------------------------------|-------------------------------------------|
|----------------------------------------------|-------------------------------------------|
|
|  ~~                                                 ~~~~
|  Q      E  E    +E   E            S  S  E           Q        E  E    +E   E    S  S  E
|----------------------------------------------|-------------------------------------------|
|----------------------------------------------|-------------------------------------------|
|-12--------12---(12)-12-----------14p12-------|-----12----------12---(12)-12---14p12------|
|--------14------------------------------14----|--------------14----------------------14---|
|----------------------------------------------|-------------------------------------------|
|----------------------------------------------|-------------------------------------------|


  C5
   E S S  E  S S   E   S S          E   S  S
   | | |  |  | |   |   | |          |   |  |
   / / /  /  / /   /   / /          /   /  /

   ~~
   Q      E  E    +E   E    a      +Q
|--------------------------------------------|
|--------------------------------------------|
|-12--------12---(12)-12---14b16==(14)r------|
|--------14----------------------------------|
|--------------------------------------------|
|--------------------------------------------|
|
|  ~~
|  Q      E  E    +E   E    a      +E.     S
|--------------------------------------------|
|-----------------------------------------15-|
|-12--------12---(12)-12---14b16==(14)r------|
|--------14----------------------------------|
|--------------------------------------------|
|--------------------------------------------|

                                                            end Rhy Fig 8-|
           E   S  S          E   S  S          E   S  S       E     S S
           |   |  |          |   |  |          |   |  |       |     | |
           /   /  /          /   /  /          /   /  /       /     / /

   a       Q         a       Q         a       Q          a   S  S  E
|--------------------------------------------------------------------------|
|---------15----------------15----------------15--------(15)---------------|
|-14b16==(14)r------14b16==(14)r------14b16==(14)-------(14)r14p12---------|
|------------------------------------------------------------------14------|
|--------------------------------------------------------------------------|
|--------------------------------------------------------------------------|
|
|  a      +E.     S  a      +E.     S  a      +E.     S       S  S  E
|--------------------------------------------------------------------------|
|----------------15----------------15----------------15--------------------|
|-14b16==(14)r------14b16==(14)r------14b16==(14)r-----------14p12---------|
|------------------------------------------------------------------14------|
|--------------------------------------------------------------------------|
|--------------------------------------------------------------------------|


w/Rhy Fig 8 x5
   Q           E     E     +E      E     S   S   E
|-----------------------------------------------------|
|-----------------------------------------------------|
|-12----------------12----(12)----12----14p=12--------|
|-------------14--------------------------------14----|
|-----------------------------------------------------|
|-----------------------------------------------------|
|
|  Q           E     E     +E      E     S   S   E
|-----------------------------------------------------|
|-----------------------------------------------------|
|-12----------------12----(12)----12----14p(12)-------|
|-------------14--------------------------------14----|
|-----------------------------------------------------|
|-----------------------------------------------------|
|
| Gtr II
|  S  S  S  S  S  S  S  S   S   S  S  S  S   S   S  S
|-----------------------------------------------------|
|-15-15-15-15-15-15-15-15--15--15-15-15-15--15--15-15-|
|-12-12-12-12-12-12-12-12--12--12-12-12-12--12--12-12-|
|-----------------------------------------------------|
|-----------------------------------------------------|
|-----------------------------------------------------|
|-Rhy Fig 11                           end Rhy Fig 11-|

w/Rhy Fig 11 x27
   Q           E     E     +E      E      E     E
|------------------------------------------------------|
|------------------------------------------------------|
|-12----------------12----(12)----12-----------12------|
|-------------14------------------------/14------------|
|------------------------------------------------------|
|------------------------------------------------------|
|
|  Q           E     E     +E      E      S  S  S   S
|------------------------------------------------------|
|------------------------------------------------------|
|-12----------------12----(12)-----------------12h(14)-|
|-------------14------------------12-----12h14---------|
|------------------------------------------------------|
|------------------------------------------------------|


   Q   E  E     +E   E  a       Q
|-----------------------------------------|
|------------------------------15---------|
|-12-----12----(12)-12-14b16==(14)r-------|
|-----14----------------------------------|
|-----------------------------------------|
|-----------------------------------------|
|
|  Q   E  S  S   Q              E    S  S
|-----------------------------------------|
|-----------------------------------------|
|-12-----12h14--12------------------12h14-|
|-----14-----------------------14---------|
|-----------------------------------------|
|-----------------------------------------|


   a       Q     a       Q                a       Q        a       E       E
|----------------------------------------------------------------------------|
|---------15------------15-----------------------15---------------15---------|
|-14b16==(14)r--14b16==(14)r-------------14b16==(14)r-----14b16==(14)r----14-|
|----------------------------------------------------------------------------|
|----------------------------------------------------------------------------|
|----------------------------------------------------------------------------|
|
|          Q             E    a       E          +E    E           S    S  E
|----------------------------------------------------------------------------|
|------------------------------------15---------(15)--15----------15---------|
|---------12-----------------14b16==(14)--------(14)--14r---------14p==12-14-|
|-----------------------14---------------------------------------------------|
|----------------------------------------------------------------------------|
|----------------------------------------------------------------------------|


   Q   E  E  +E   E  a      E    +E
|------------------------------------|
|-15--15-15-(15)-15--------15--------|
|-12--14-12-(12)-12-14b16=(14)r=(14)-|
|------------------------------------|
|------------------------------------|
|------------------------------------|
|
|  Q   E  E  +E   E  a      Q
|------------------------------------|
|--------------------------15--------|
|-12-----12-(12)-12-14b16=(14)r------|
|-----14-----------------------------|
|------------------------------------|
|------------------------------------|

           Q             E    E         +E    E  a       E    +E
|-----------------------------------------------------------------|
|---------15------------15---15--------(15)--15---------15--------|
|---------12------------14---12--------(12)--12-14b16==(14)r=(14)-|
|-----------------------------------------------------------------|
|-----------------------------------------------------------------|
|-----------------------------------------------------------------|
|
|  a       Q     a       Q       a       Q       a       Q
|-----------------------------------------------------------------|
|---------15------------15--------------15--------------15--------|
|-14b16==(14)r--14b16==(14)r----14b16==(14)r----14b16==(14)r------|
|-----------------------------------------------------------------|
|-----------------------------------------------------------------|
|-----------------------------------------------------------------|


   Q   E          E   +E   E   a       Q
|------------------------------------------------|
|-15--15---------15--(15)-15----------15---------|
|-12--14---------12--(12)-12--14b16==(14)r-------|
|------------------------------------------------|
|------------------------------------------------|
|------------------------------------------------|
|
|  Q   E  a       E   +E   E           S    S  E
|------------------------------------------------|
|----------------15--(15)-15----------15---------|
|-12-----14b16==(14)-(14)-14r---------14p==12-14-|
|-----14-----------------------------------------|
|------------------------------------------------|
|------------------------------------------------|

   a       Q     a       E    E          Q             S   S   E
|-------------------------------------------------------------------|
|---------15------------15--------------15------------15------------|
|-14b16==(14)r--15b17==(15)r-14---------12------------14p=12--------|
|-------------------------------------------------------------14----|
|-------------------------------------------------------------------|
|-------------------------------------------------------------------|
|
|  a       Q     a       Q       a       Q     a       E      +E
|-------------------------------------------------------------------|
|---------15------------15--------------15------------15------------|
|-14b16==(14)r--14b16==(14)r----14b16==(14)r--14b16==(14)r===(14)---|
|-------------------------------------------------------------------|
|-------------------------------------------------------------------|
|-------------------------------------------------------------------|


   Q   E  E  +E   E  a      Q          a      +E    E         Q          Q           E    E
|-----------------------------------|---------------------------------------------------------|
|-15-----15-(15)-15--------15-------|-15-----(15)------------15----------15----------15---15--|
|-12-----12-(12)-12-14b16=(14)r-----|-14pb16r(14)p=12--------12----------12----------12---12--|
|-----14----------------------------|---------------------------------------------------------|
|-----------------------------------|---------------------------------------------------------|
|-----------------------------------|---------------------------------------------------------|
|
|  Q   E  E  +E   E  a     E   +E     a       Q       a      Q    a      Q    a      E   +E
|-----------------------------------|---------------------------------------------------------|
|-15--15-15-(15)-15--------15-------|---------15-------------15----------15----------15-------|
|-12--14-12-(12)-12-14b16=(14)r(14)-|-14b16==(14)r----14b16=(14)r-14b16=(14)r-14b16=(14)r(14)-|
|-----------------------------------|---------------------------------------------------------|
|-----------------------------------|---------------------------------------------------------|
|-----------------------------------|---------------------------------------------------------|


   a       Q     a       Q     a       Q     a       Q
|------------------------------------------------------------|
|---------15------------15------------15------------15-------|
|-14b16==(14)r--14b16==(14)r--14b16==(14)r--14b16==(14)r-----|
|------------------------------------------------------------|
|------------------------------------------------------------|
|------------------------------------------------------------|
|
|  a       Q     a       Q     a       Q     a       E   +E
|------------------------------------------------------------|
|---------15------------15------------15------------15-------|

|-14b16==(14)r--14b16==(14)r--14b16==(14)r--14b16==(14)r(14)-|
|------------------------------------------------------------|
|------------------------------------------------------------|
|------------------------------------------------------------|

           ~~~~~         ~~~~~           ~~~~~
   a       Q     a       Q       a       E   +E   E  E
|------------------------------------------------------|
|---------15------------15--------------15-------15----|
|-14b16==(14)r--14b16==(14)r----14b16==(14)r(14)-12----|
|---------------------------------------------------14-|
|------------------------------------------------------|
|------------------------------------------------------|
|
|          Q             E    E         +E    E   Q
|------------------------------------------------------|
|---------15------------15---15--------(15)--15--15----|
|---------12------------14---12--------(12)--12--14----|
|------------------------------------------------------|
|------------------------------------------------------|
|------------------------------------------------------|


  Gtrs IV, V
                                                 ~~~~~
   a      +Q     E  a      +E   +E    E  a      +Q
|-------------------------------------------------------|
|---------------18-------------------18-----------------|
|-17b19==(17)r-----17b19==(17)-(17)r----17b19==(17)r----|
|-------------------------------------------------------|
|-------------------------------------------------------|
|-------------------------------------------------------|
             ~~~~~            ~~~~~         ~~~~~
   E  a      +Q     E  a      +Q     a      +Q
|--------------------------------------------------|
|-18---------------18------------------------------|
|----17b19==(17)r-----17b19==(17)r--17b19==(17)r---|
|--------------------------------------------------|
|--------------------------------------------------|
|--------------------------------------------------|


   a      +E.   S  a      +E.   S  a      +E.   S  a      +E.   S
|-----------------------------------------------------------------|
|--------------18--------------18--------------18--------------18-|
|-17b19==(17)r----17b19==(17)r----17b19==(17)r----17b19==(17)r----|
|-----------------------------------------------------------------|
|-----------------------------------------------------------------|
|-----------------------------------------------------------------|


   a      +E.   S  a      +E.   S  a      +E.   S  a      +E   E
|--------------------------------------------------------------0-|
|--------------18--------------18--------------18--------------0-|
|-17b19==(17)r----17b19==(17)r----17b19==(17)r----17b19==(17)r---|
|----------------------------------------------------------------|
|----------------------------------------------------------------|
|----------------------------------------------------------------|


   a      +Q     E  a      +E   +E    E  a      +Q
|---------------18-------------------18---------------|
|-18b20==(18)r-----18b20==(18)-(18)r----18b20==(18)r--|
|-----------------------------------------------------|
|-----------------------------------------------------|
|-----------------------------------------------------|
|-----------------------------------------------------|

              ~~~~~            ~~~~~
   E  a      +Q     E  a      +Q     E  a      +E
|-18---------------18---------------18-------------|
|----18b20==(18)r-----18b20==(18)r-----18b20==(18)-|
|--------------------------------------------------|
|--------------------------------------------------|
|--------------------------------------------------|
|--------------------------------------------------|


                    ~~~~~           ~~~~~
   +E.   S  a      +E.   S  a      +E.   S  a      +E.   S
|-------18--------------18--------------18--------------18-|
|-(18)r----18b20==(18)r----18b20==(18)r----18b20==(18)r----|
|----------------------------------------------------------|
|----------------------------------------------------------|
|----------------------------------------------------------|
|----------------------------------------------------------|

          ~~~~~           ~~~~~           ~~~~~
   a      +E.   S  a      +E.   S  a      +E.   S  a      +E   E
|--------------18--------------18--------------18-------------18---|
|-18b20==(18)r----18b20==(18)r----18b20==(18)r----18pb20r(18)------|
|------------------------------------------------------------------|
|------------------------------------------------------------------|
|------------------------------------------------------------------|
|------------------------------------------------------------------|


  Gtrs I, II
         G5
           S   S S S  S S          S  S   S   S  S S          S   S S S
           |   | | |  | |          |  |   |   |  | |          |   | | |
           /   / / /  / /          /  /   /   /  / /          /   / / /

   a      +Q          E    a      +E     +E      E    a      +Q
|--------------------22-------------------------22----------------------|
|-22b24==(22)r------------22b24==(22)---(22)r--------22b24==(22)r-------|
|-----------------------------------------------------------------------|
|-----------------------------------------------------------------------|
|-----------------------------------------------------------------------|
|-----------------------------------------------------------------------|

  Bb5
  S S          S   S S S  S S          S   S S S  S S          S  S
  | |          |   | | |  | |          |   | | |  | |          |  |
  / /          /   / / /  / /          /   / / /  / /          /  /

  E    a      +Q          E    a      +Q          E    a      +E
|-22----------------------22----------------------22-----------------|
|------22b24==(22)r------------22b24==(22)r------------22b24==(22)---|
|--------------------------------------------------------------------|
|--------------------------------------------------------------------|
|--------------------------------------------------------------------|
|--------------------------------------------------------------------|


  C5
    S   S S  S          S   S S  S          S   S S  S          S   S S  S
    |   | |  |          |   | |  |          |   | |  |          |   | |  |
    /   / /  /          /   / /  /          /   / /  /          /   / /  /

   +E.       S  a      +E.       S  a      +E.       S  a      +E.       S
|-----------22------------------22------------------22------------------22-|
|-(22)r--------22b24==(22)r--------22b24==(22)r--------22b24==(22)r--------|
|--------------------------------------------------------------------------|
|--------------------------------------------------------------------------|
|--------------------------------------------------------------------------|
|--------------------------------------------------------------------------|


           S   S S  S          S   S S  S          S   S S  S          S   S S  S
           |   | |  |          |   | |  |          |   | |  |          |   | |  |
           /   / /  /          /   / /  /          /   / /  /          /   / /  /

   a      +E.       S  a      +E.       S  a      +E.       S  a      +E.       S
|------------------22------------------22------------------22------------------22-|
|-22b24==(22)r--------22b24==(22)r--------22b24==(22)r--------22b24==(22)r--------|
|---------------------------------------------------------------------------------|
|---------------------------------------------------------------------------------|
|---------------------------------------------------------------------------------|
|---------------------------------------------------------------------------------|

           G5
           S   S S  S          S   S S  S          S   S S  S          S   S S  S
           |   | |  |          |   | |  |          |   | |  |          |   | |  |
           /   / /  /          /   / /  /          /   / /  /          /   / /  /

   a      +E.       S  a      +E.       S  a      +E.       S  a      +E.       S
|------------------22------------------22------------------22------------------22-|
|-22b24==(22)r--------22b24==(22)r--------22b24==(22)r--------22b24==(22)r--------|
|---------------------------------------------------------------------------------|
|---------------------------------------------------------------------------------|
|---------------------------------------------------------------------------------|
|---------------------------------------------------------------------------------|


         Bb5
           S   S S  S          S   S S  S          S   S S  S          S   S S  S
           |   | |  |          |   | |  |          |   | |  |          |   | |  |
           /   / /  /          /   / /  /          /   / /  /          /   / /  /

   a      +E.       S  a      +E.       S  a      +E.       S  a      +E.       S
|------------------22------------------22------------------22------------------22---|
|-22b24==(22)r--------22b24==(22)r--------22b24==(22)r--------22b24==(22)r----------|
|-----------------------------------------------------------------------------------|
|-----------------------------------------------------------------------------------|
|-----------------------------------------------------------------------------------|
|-----------------------------------------------------------------------------------|


         C5
           S   S S S          S   S S S          S   S S S          S   S S S
           |   | | |          |   | | |          |   | | |          |   | | |
           /   / / /          /   / / /          /   / / /          /   / / /

           TP                 TP                 TP                 TP
   a       Q          a       Q          a       Q          a       Q
|---------22-----------------22-----------------22-----------------22---------|
|-22b24==(22)r-------22b24==(22)r-------22b24==(22)r-------22b24==(22)r-------|
|-----------------------------------------------------------------------------|
|-----------------------------------------------------------------------------|
|-----------------------------------------------------------------------------|
|-----------------------------------------------------------------------------|


           S   S S S          S   S S S          S  S S S   Q
           |   | | |          |   | | |          |  | | |   |
           /   / / /          /   / / /          /  / / /   /

           TP                 TP                 TP
   a       Q          a       Q          a       Q         +Q
|---------22-----------------22-----------------22--------(22)---|
|-22b24==(22)r-------22b24==(22)r-------22b24==(22)-------(22)r--|
|----------------------------------------------------------------|
|----------------------------------------------------------------|
|----------------------------------------------------------------|
|----------------------------------------------------------------|

|-Rhy Fig 9
    G5
    E          E   E  E   E   E  E  E
    |          |   |  |   |   |  |  |
    /          /   /  /   /   /  /  /

    E  a      +Q      E  +E   E  E  E
|---------------------------------------|
|---------------------------------------|
|-/19-15b16==(15)r-----------15----17---|
|--------------------17-(17)----17------|
|---------------------------------------|
|---------------------------------------|


  Bb5
    E   E  E  E  E  E       E  E
    |   |  |  |  |  |       |  |
    /   /  x  /  /  /       x  /

   +E   E  E  E  E  E       E  E
|--------------------------------|
|--------------------------15----|
|-(17)-15-17----15-17b17.5----15-|
|------------17------------------|
|--------------------------------|
|--------------------------------|

                                                                  end Rhy Fig 9-|
  C5                                                                     Bb5
   E  E          E    E          E    E  E  E    E  E          E   E  Q   Q

   |  |          |    |          |    |  |  |    |  |          |   |  |   |
   /  /          x    /          /    /  x  /    /  /          x   /  /   /

   E  E  a      +E    E  a      +E    E  E  E    E  E  a      +Q      Q   Q
|---------------------------------------------|-------------------------------|
|---------------------------------------------|-------------------------------|
|-17----15b16==(15)r-17-15b16==(15)r----17----|-15-17-15b16==(15)r-------15\--|
|----17------------------------------17----17-|----------------------17-------|
|---------------------------------------------|-------------------------------|
|---------------------------------------------|-------------------------------|

w/Rhy Fig 9 x2
   E  E  S  S  S  S  S  S  S  S  S  S  S  S
|----15----------15----------15----------15-|
|-------18p15-------18p15-------18p15-------|
|-18----------17----------17----------17----|
|-------------------------------------------|
|-------------------------------------------|
|-------------------------------------------|


     S  S  S  S  S  S  S  S  S  S  S  S  S  S  S  S   x3
||-----------15----------15----------15----------15-||
||o-18p15-------18p15-------18p15-------18p15------o||
||--------17----------17----------17----------17----||
||--------------------------------------------------||
||o------------------------------------------------o||
||--------------------------------------------------||


  Gtr V
           S    S  S  S          S   S  S  S  S  S  S  S  S   S  S  S
|--------------------15-------------------15----------15-----------15-|
|---------18p==15---------------18p=15-------18p15-------18p=15-------|
|-----------------17-------------------17----------17-----------17----|
|---------------------------------------------------------------------|
|---------------------------------------------------------------------|
|---------------------------------------------------------------------|
|
| Gtr IV
|  a      +Q             a       Q            Q           Q
|-------------------------------15------------------------------------|
|-18b20==(18)r----------18b20==(18)----------18----------18r----------|
|---------------------------------------------------------------------|
|---------------------------------------------------------------------|
|---------------------------------------------------------------------|
|---------------------------------------------------------------------|


           S   S   S   S  S  S  S  S  S  S  S  S  S  S  S  S
|---------------------15----------15----------15----------15-|
|---------18p=15---------18p15-------18p15-------18p15-------|
|-----------------17-----------17----------17----------17----|
|------------------------------------------------------------|
|------------------------------------------------------------|
|------------------------------------------------------------|
|
|  a      +E      +E      E     E     E     E     E     E
|------------------------15----15----------15----15----15----|
|-18b20==(18)r===(18)----18----18----18----15----15----15----|
|------------------------------------------------------------|
|------------------------------------------------------------|
|------------------------------------------------------------|
|------------------------------------------------------------|


   a       Q     a       Q       a       Q    E   a       E
|---------15------------15--------------15---15----------15--|
|---------15------------15--------------15---15----------15--|
|-17b19==(17)r--17b19==(17)r----17b19==(17)--17r-17b19==(17)-|
|------------------------------------------------------------|
|------------------------------------------------------------|
|------------------------------------------------------------|
|
|  a      +Q             E    E          Q    E           E
|------------------------------------------------------------|
|-----------------------15---15---------15---------------15--|
|-17b19==(17)-----------17---17---------17---17----------17--|
|------------------------------------------------------------|
|------------------------------------------------------------|
|------------------------------------------------------------|


   +E   E  a       Q       a       Q      +E      E
|-(15)-15---------15--------------15-----(15)\------|
|-(15)-15---------15--------------15-----(15)\------|
|-(17)r---17b19==(17)r----17b19==(17)----(17)r\-----|
|-----------------------------------------------/14-|
|---------------------------------------------------|
|---------------------------------------------------|
|
|  +E   E          E    E          E   E   E      E
|---------------------------------------------------|
|-(15)------------15---15---------15--15------------|
|-(17)r17---------17---17---------17--17--17-----17-|
|---------------------------------------------------|
|---------------------------------------------------|
|---------------------------------------------------|

w/ 1st 3 bars of Rhy Fig 9
   ~~~      ~~                        ~~~~      ~~
   Q     E  E  +E   E     S  S  E     Q      E  E     +E   E     S  S  E
|---------------------------------|-----------------------------------------|
|---------------------------------|-----------------------------------------|
|-12-------12-(12)-12----14p12----|--12--------12----(12)-12----14p12-------|
|-------14---------------------14-|---------14------------------------14----|
|---------------------------------|-----------------------------------------|
|---------------------------------|-----------------------------------------|
|
|        ~~
|  E  E  Q     +E.     S  E     E    +E   E  E  S  S   E   S  S  S  S  S  S
|---------------------------------|-----------------------------------------|
|---------------------15----------|-----------------------------------------|
|-15----15----(15)-------15-------|------15-15-15-15--15--15-15----------15-|
|-15h17-17----(17)-------------17-|-(17)-17-17-17-17--17--17-17-17p15-------|
|---------------------------------|-----------------------------------17----|
|---------------------------------|-----------------------------------------|


   ~~             ~~
   Q        E     E     +E   E     a      +E      +E
|--------------------------------------------------------|
|---------------------------------15b17==(15)r===(15)----|
|-12-------------12----(12)-12---------------------------|
|----------14--------------------------------------------|
|--------------------------------------------------------|
|--------------------------------------------------------|
|
|  E  S  S  S  S  S  S   E   S  S          S   S   S   S
|--------------------------------------------------------|
|--------------------------------------------------------|
|-15-15-15----------15--15--15-15---------------------15-|
|-17-17-17-17p15--------17--17-17---------17p=15---------|
|----------------17-------------------------------17-----|
|--------------------------------------------------------|


  Gtrs I, II                               |-Rhy Fig 10
         C5        B5    Bb5      A5          G5
           E    E   E  E  E  E     E     E     Q     Q      E      E             E       E
           |    |   |  |  |  |     |     |     |     |      |      |             |       |
           /    /   /  /  /  /     /     /     /     /      /      /             /       /

   a      +E   +E   E  E  E  S  S  S  S  E     E  E  E  E   S   S  S  S  a      +E       E
|-------------------------------------------|----------------------------------------------|
|-------------------------------------------|----------------------------------------------|
|-14b16==(14)r(14)-12----12-14p12-14p12-----|-12-------12---------12h14-14b16==(14)r----14-|
|---------------------14----------------14--|----14-14-----12h=14--------------------------|
|-------------------------------------------|----------------------------------------------|
|-------------------------------------------|----------------------------------------------|
|
|          Q        Q     Q        E     E     Q     E  E  +Q                    S    S  E
|---------------------------------------(0)-|----------------------------------------------|
|---------------------------------------(0)-|----------------------------------------------|
|---------15-------15----15-------15--------|-12-------12-(12)------------------14p==12----|
|---------17-------17----17-------17--------|-------14----------------------------------14-|
|-------------------------------------------|----------------------------------------------|
|-------------------------------------------|----------------------------------------------|


  Bb5
   Q                   Q        E      E             E       E
   |                   |        |      |             |       |
   /                   /        /      /             /       /

   S  S  S  S  a      +Q        S   S  S  S  a       Q
|---------------------------------------------------------------|
|---------------------------------------------------15----------|
|-------12h14-14b16==(14)r------------12h14-14b16==(14)r--------|
|-12h14------------------------12h=14---------------------------|
|---------------------------------------------------------------|
|---------------------------------------------------------------|
|
|  Q                   E    E  +E      E             S    S  E
|---------------------------------------------------------------|
|---------------------------------------------------------------|
|-12-----------------------12-(12)----12------------15p==12-----|
|---------------------14------------------------------------15--|
|---------------------------------------------------------------|
|---------------------------------------------------------------|


  C5
   Q   Q         E   E             E       E
   |   |         |   |             |       |
   /   /         /   /             x       /

   ~~
   Q   E     E  +E   E     a      +E.         S
|-----------------------------------------------|
|--------------------------------------------15-|
|-12--------12-(12)-12----14b16==(14)r----------|
|-----14----------------------------------------|
|-----------------------------------------------|
|-----------------------------------------------|
|
|  Q   S  S  E   E.     S          S    S  E
|-----------------------------------------------|
|-----------------------------------------------|
|-12--15p12-----12-----12---------15p==12-------|
|-----------15----------------------------15----|
|-----------------------------------------------|
|-----------------------------------------------|

                                                               Bb5
           E       E             E       E             E       Q.     end Rhy Fig 10-|
           |       |             |       |             |       |
           /       /             x       /             x       /

   a      +E.         S  a      +E.         S  a      +E.          S  a      +E.   S
|------------------------------------------------------------------------------------|
|--------------------15--------------------15---------------------15--------------15-|
|-14b16==(14)r----------14b16==(14)r----------14b16==(14)r-----------14b16==(14)r----|
|------------------------------------------------------------------------------------|
|------------------------------------------------------------------------------------|
|------------------------------------------------------------------------------------|
|
|                 S    S  E             S    S  E             S    S  E      a      +Q
|------------------------------------------------------------------------------------|
|------------------------------------------------------------------------------------|
|---------15p==12---------------15p==12---------------15p==12--------15b17==(15)r----|
|-----------------15--------------------15--------------------15---------------------|
|------------------------------------------------------------------------------------|
|------------------------------------------------------------------------------------|


w.Rhy Fig 10 to fade
   a      +Q       a      +Q     a      +Q     E  E
|---------------------------------------------------|
|------------------------------------------------12-|
|-14b16==(14)r----14b16==(14)r--14b15==(14)r--14----|
|---------------------------------------------------|
|---------------------------------------------------|
|---------------------------------------------------|
|
|                          ~~~~~~~~~~~~~~~~~~
|          E    E          Q             Q     E  E
|---------------------------------------------------|
|---------------------------------------------------|
|---------15--------------12------------12-------12-|
|--------------15-----------------------------15----|
|---------------------------------------------------|
|---------------------------------------------------|


    E   E      +Q      Q   E  +E     E  E  E       E  E          E    E          E
|---------------------------------|-------------------------------------------------|
|--13--15b17==(15)----15--15r(15)-|-15p13-13p=====12-12---------13---12-------------|
|---------------------------------|-------------------------------------------------|
|---------------------------------|---------------------------------------------14--|
|---------------------------------|-------------------------------------------------|
|---------------------------------|-------------------------------------------------|
|
|       ~~~~~~
|  +E   Q           E  Q   E   E     E  E  E       E  E  a      +Q       a      +E
|---------------------------------|-------------------------------------------------|
|---------------------------------|-------------------------------------------------|
|-(12)-12-------------12--12------|-12-15-13b13.5----12-15b17==(15)r----15b18==(15)-|
|------------------15---------15--|---------------15--------------------------------|
|---------------------------------|-------------------------------------------------|
|---------------------------------|-------------------------------------------------|


    ~~~~~                        ~~~~~
    Q                 E          E           +E    E   S  S  E
|---------------------------------------------------------------*|
|---------------------------------------------------------------*|
|--12---------------------------12----------(12)--12--14p12-----*|
|--------------------14-------------------------------------14--*|
|---------------------------------------------------------------*|
|---------------------------------------------------------------*|
|
|  +E    a      +Q       a      +E    a      +E   +E   E     E
|---------------------------------------------------------------*|
|---------------------------------------------------------------*|
|-(15)r-15b18==(15)r----15b18==(15)r-15b19==(15)r(15)-12--------*|
|-----------------------------------------------------------15--*|
|---------------------------------------------------------------*|
|---------------------------------------------------------------*|
comments
print report bad tab
11 comments total. Showing first comments.
0 reply
mikeyharms wrote on January 11 2005, 12:00 am

anyone that spends this amount of effort is like amazing, it seems pretty solid to although i have already learnt it, its kindof confusing whith like 5 guitar parts when there is only 3 on stage, as in you could change it in too three parts, but i suppose then it wouldnt be the track, welldone man 5stars

0 reply
TheMutts wrote on January 11 2005, 12:00 am

didn't do much, its the official tab for it..

0 reply
Turtles-r-cool wrote on January 11 2005, 12:00 am

its long and must have took a lot of work, but there arent 5 guitar part?
its not that accurate to the actual book thing of it
good work at introducing it to ug though

I want to post or [tab]
guest
You may want to rate the tab now too:
select rating
Please do not post tabs as comments. Select "correction" instead!