Oops, an error
Loading. Please wait.

Gimme Three Steps Bass Tab

ver3
ver3

Whole song

More versions @911Tabs.com
12,091 views 15 this week
1 commentread comment
1 2 3 4 5
accurate
x 4
Autoscroll
+/-
esc
set tempo
stop
Contributor
WARNING: You are trying to view
                                    content from Ultimate-Guitar.com
                                    in an unauthorized application,
                                    which is prohibited.

                                    Please use an official Ultimate
                                    Guitar Tabs application for iPhone,
                                    iPad or Android to access legitimate
                                    chords, guitar, bass, and drum tabs
                                    from Ultimate-Guitar.com database.

                                    Type "ultimate guitar tabs" in Apple
                                    App Store's or Android Market's
                                    search to find the application.
-------------------------------------------------------------------------------
		     Gimme Three Steps - Lynyrd Skynyrd
-------------------------------------------------------------------------------

Tabbed By : Drew Howard
e-mail: HowardB5@shawnee.edu

Tuning: Standard (EADG)

Intro - (0:07)
G|---------------------------------------------------------------------------|
D|-12-12-1212-1112-1112-121112\--77------7-------------------97--------------|
A|---------------------------------9-7-9---9-5--5-------5-5----9-0-----------|
E|-------------------------------------------------055-7---------------------|

G|----------------------|----------------------------------------------------|
D|----------------------|----------------------------------------------------|
A|-5--------5-5---------|---------------47-----------------------------------|
E|---7-55-7-----7-5-787-|-5-2-00-2-5--57--575--------------------------------|

G|----------------------|----------------------------------------------------|
D|----------------------|-----------2----------------------------------------|
A|-5--------5-5---------|-------2-4---4-0~--12\------------------------------|
E|---7-55-7-----7-5-787-|-0-3-4----------------------------------------------|

G|----------------------|----------------------------------------------------|
D|----------------------|----------------------------------------------------|
A|-5--------5-5---------|----------5/7-7-7-7-7-7-7-0-------------------------|
E|---7-55-7-----7-5-787-|-33333210-------------------------------------------|

G|----------------------|----------------------------------------------------|
D|----------------------|------------------------------97--------------------|
A|-5--------5-5---------|--------------5--5------5--5\---9-0-----------------|
E|---7-55-7-----7-5-787-|-5--5-0-5-7-0-------557-----------------------------|

Verse 1 (0:47)
G|----------------------|----------------------------------------------------|
D|----------------------|----------------------------------------------------|
A|-5--------5-5---------|---------------47-----------------------------------|
E|---7-55-7-----7-5-787-|-5-2-00-2-5--57--575--------------------------------|

G|----------------------|----------------------------------------------------|
D|----------------------|-----------2-----------2----------------------------|
A|-5--------5-5---------|-------2-4---4-0~--3-4---4p0-0-2--------------------|
E|---7-55-7-----7-5-787-|-0-3-4----------------------------------------------|

G|----------------------|----------------------------2-----------------------|
D|----------------------|----------------------2-2h4-------------------------|
A|-5--------5-5---------|----------------2-2h4-------------------------------|
E|---7-55-7-----7-5-787-|-3~~~3210-0-2h4-------------------------------------|

G|----------------------|----------------------------------------------------|
D|----------------------|--------------------------7---------97--------------|
A|-5--------5-5---------|---------------5--5--0-5h7--7-5-5\----9-0-----------|
E|---7-55-7-----7-5-787-|-5-0-5-0-5-7-0--------------------------------------|

Break (1:18)
G|----------------------|----------------------------------------------------|
D|----------------------|----------------------------------------------------|
A|-5--------5-5---------|---------------47-----------------------------------|
E|---7-55-7-----7-5-787-|-5-2-00-2-5--57--575--------------------------------|

G|----------------------|----------------------------------------------------|
D|----------------------|------------------------------97--------------------|
A|-5--------5-5---------|--------------5--5------5--5\---9-0-----------------|
E|---7-55-7-----7-5-787-|-5--5-0-5-7-0-------557-----------------------------|

Verse 2 (1:34)
G|----------------------|----------------------------------------------------|
D|----------------------|----------------------------------------------------|
A|-5--------5-5---------|---------------47-----------------------------------|
E|---7-55-7-----7-5-787-|-5-2-00-2-5--57--575--------------------------------|

G|----------------------|----------------------------------------------------|
D|----------------------|-----------2-----------2----------------------------|
A|-5--------5-5---------|-------2-4---4-0~--3-4---4p0-0-2--------------------|
E|---7-55-7-----7-5-787-|-0-3-4----------------------------------------------|

G|----------------------|----------------------------2-----------------------|
D|----------------------|----------------------2-2h4-------------------------|
A|-5--------5-5---------|----------------2-2h4-------------------------------|
E|---7-55-7-----7-5-787-|-3~~~3210-0-2h4-------------------------------------|

G|----------------------|--------------------------------7-------------------|
D|----------------------|--------------------------7--------97---------------|
A|-5--------5-5---------|---------------5--5--0-5h7--7-5------9-0------------|
E|---7-55-7-----7-5-787-|-5-0-5-0-5-7-0--------------------------------------|

Chorus (2:05)
G|---------------------|-----------------------------------------------------|
D|---------------------|-----------------------------------------------------|
A|-55---55---55---55---|-----------------47----------------------------------|
E|---57---57---57---87-|-55-02-55-02-5-57--575-------------------------------|

G|---------------------|--------------------------------7--------------------|
D|---------------------|--------------------------7--------97----------------|
A|-55---55---55---55---|---------------5--5--0-5h7--7-5------9-0-------------|
E|---57---57---57---87-|-5-0-5-0-5-7-0---------------------------------------|

Bridge/Solo (2:21)
G|---------------------|-----------------------------------------------------|
D|---------4---------4-|-----------------------------------------------------|
A|-55---557--55---557--|---------------47------------------------------------|
E|---75--------75------|-5-2-00-2-5--57--575---------------------------------|

G|---------------------|-----------------------------------------------------|
D|----4---------4------|-----------2-----------------------------------------|
A|-557--55---557--55---|-------2-4---4-0~--12\-------------------------------|
E|--------75--------75-|-0-3-4-----------------------------------------------|

G|-------------------------|-------------------------------------------------|
D|---------4---------------|-------------------------------------------------|
A|-55---557--55------------|-------------------------------------------------|
E|---75--------0-0-1-1-2-2-|-3-3-3210~--12~----------------------------------|

G|---------------------|-----------------------------7--7--------------------|
D|---------4-----------|-------------------------7--------97-----------------|
A|-55---557--55---55---|-----------8-7-5--5-0-5h7--7--------9-0--------------|
E|---75--------75---75-|-8-7-5-8-7-------------------------------------------|

Verse 3 (2:51)
G|----------------------|----------------------------------------------------|
D|----------------------|----------------------------------------------------|
A|-5--------5-5---------|---------------47-----------------------------------|
E|---7-55-7-----7-5-787-|-5-2-00-2-5--57--575--------------------------------|

G|----------------------|----------------------------------------------------|
D|----------------------|-----------2-----------2----------------------------|
A|-5--------5-5---------|-------2-4---4-0~--3-4---4p0-0-2--------------------|
E|---7-55-7-----7-5-787-|-0-3-4----------------------------------------------|

G|----------------------|----------------------------2-----------------------|
D|----------------------|----------------------2-2h4-------------------------|
A|-5--------5-5---------|----------------2-2h4-------------------------------|
E|---7-55-7-----7-5-787-|-3~~~3210-0-2h4-------------------------------------|

G|----------------------|------------------------------7-7/11----------------|
D|----------------------|--------------------------7----------97-------------|
A|-5--------5-5---------|---------------5--5--0-5h7--7----------9-0----------|
E|---7-55-7-----7-5-787-|-5-0-5-0-5-7-0--------------------------------------|

Chorus (3:22)
G|---------------------|-----------------------------------------------------|
D|---------------------|-------------------7---------------------------------|
A|-55---55---55---55---|-----------------47-7--------------------------------|
E|---57---57---57---87-|-55-02-55-02-5-57----5-------------------------------|

G|---------------------|-----------------------------------------------------|
D|---------------------|------------------------------97---------------------|
A|-55---55---55---55---|---------------5--5------5-5\---9-0------------------|
E|---57---57---57---87-|-5-0-5-0-5-7-0-------557-----------------------------|

Outro (Play until fade out)- (3:33)
G|----------------------|----------------------------------------------------|
D|----------------------|-----------------7----------------------------------|
A|-5--------5-5---------|---------------47-7---------------------------------|
E|---7-55-7-----7-5-787-|-5-2-00-2-5--57----5--------------------------------|

G|----------------------|----------------------------------------------------|
D|----------------------|-----------2----------------------------------------|
A|-5--------5-5---------|-------2-4---4-0~--12\------------------------------|
E|---7-55-7-----7-5-787-|-0-3-4----------------------------------------------|

G|----------------------|----------------------------------------------------|
D|----------------------|----------------------------------------------------|
A|-5--------5-5---------|----------------------------------------------------|
E|---7-55-7-----7-5-787-|-33333210~--12\-------------------------------------|

G|----------------------|----------------------------------------------------|
D|----------------------|-------------------------7-------97-----------------|
A|-5--------5-5---------|--------------5--5--0-5h7--7-5\----9--0-------------|
E|---7-55-7-----7-5-787-|-5--5-0-5-7-0---------------------------------------|

| /  slide up
| \  slide down
| h  hammer-on
| p  pull-off
| ~  vibrato
| +  harmonic
| x  Mute note
===============================================================================
comments
print report bad tab
1 comment total.
0 reply
68lpjr wrote on May 17 2010, 11:26 am

wow!!!!! this is really good man, 5*

I want to post or [tab]
guest
You may want to rate the tab now too:
select rating
Please do not post tabs as comments. Select "correction" instead!