Oops, an error
Loading. Please wait.

I Aint The One Bass Tab

2,252 views 6 this week
no commentswrite comment
1 2 3 4 5
accurate
x 1
Autoscroll
+/-
esc
set tempo
stop
WARNING: You are trying to view
                                    content from Ultimate-Guitar.com
                                    in an unauthorized application,
                                    which is prohibited.

                                    Please use an official Ultimate
                                    Guitar Tabs application for iPhone,
                                    iPad or Android to access legitimate
                                    chords, guitar, bass, and drum tabs
                                    from Ultimate-Guitar.com database.

                                    Type "ultimate guitar tabs" in Apple
                                    App Store's or Android Market's
                                    search to find the application.
Band: Lynyrd Skynyrd
Song: I Ain't The One
Album: Pronounced (1973)


     H        Q    Q       E  E  S S  S S E  E  S S  S S  
G||---------------------|--------------------------------|
D||---------------------|--------------------------------|
A||----------------3----|--0--0--0-3h-4-0----0--0-3h-4-0-|
E||---------------------|--------------------------------|


  E  E  S S  S S Q    Q       E  E  S S  S S E  E  S S  S S  
---------------------------|--------------------------------|
---------------------------|--------------------------------|
-----0--0-3h-4-0------3----|--0--0--0-3h-4-0----0--0-3h-4-0-|
---------------------------|--------------------------------|


  E  E  S S S S E  E  S E.     E  S S S S  S S Q    E  E   
----------------------------|-----------------------------|
----------------------------|-----------------------------|
-----0--0-----0---------7---|--0----0-0-3h-4-0-L----3--3--|
-------------------5--L-----|-----------------------------|


  E  S S S S  S S Q    Q       E  S S S S  S S Q    E  E   
----------------------------|-----------------------------|
----------------------------|-----------------------------|
--0----0-0-3h-4-0-L---------|--0----0-0-3h-4-0-L----3--3--|
-----------------------3----|-----------------------------|


  E  S S S S  E  S E  S S E  S    E  S S S S  S S E.  S S  S S  S  
-------------------------------|----------------------------------|
-----------------7-5--5--------|----------------------------------|
--0----0-0-3h-4---------7-5--5-|--0----0-0-3h-4-0-L---0-3p-0-3p-0-|
-------------------------------|----------------------------------|


  E  S S S S  S S Q    Q       E  S S S S  S S E.  S S  S S  S  
----------------------------|----------------------------------|
----------------------------|----------------------------------|
--0----0-0-3h-4-0-L---------|--0----0-0-3h-4-0-L---0-3p-0-3p-0-|
-----------------------3----|----------------------------------|


  E  S S S S  E  S E  S S E  S    E  S S S S S  S  E   E  S E  S   
-------------------------------|----------------------------------|
-----------------7-5--5--------|-------------5h-7-10--10--9-7--7S-|
--0----0-0-3h-4---------7-5--5-|--5--5-5-5-7----------------------|
-------------------------------|----------------------------------|


  E  S S S S S  S  S  S  S  S  S  E.     E  S S S S  S S E.  S S  S S  S  
--------------------------------------|----------------------------------|
-------------5h-7-10-10-10----10-12---|----------------------------------|
--5--5-5-5-7---------------12---------|--0----0-0-3h-4-0-L---0-3p-0-3p-0-|
--------------------------------------|----------------------------------|


  E  S S S S  S S Q    Q        E  S S S  S S S  S E.  E  S S  
-----------------------------|--------------------------------|
-----------------------------|--------------------------------|
--0----0-0-3h-4-0-L----------|---------5p-4---4p-2--------2-4-|
-----------------------3b----|--0--0-0------0------3---4------|


  E  S S S  S S S  S E.   E  E     E  S S S  S S S  S E.   E  S S  
--------------------------------|---------------------------------|
--------------------------------|---------------------------------|
---------5p-4---4p-2---------2--|---------5p-4---4p-2---------2-4-|
--0--0-0------0------3b---4-----|--0--0-0------0------3b---4------|


  E  S S S  S S S  S S E  S E.     E  S S S S  S S E.  S S  S S  S  
--------------------------------|----------------------------------|
--------------2-----------------|----------------------------------|
---------5p-4---4p-2---5----3---|--0----0-0-3h-4-0-L---0-3p-0-3p-0-|
--0--0-0-------------0----------|----------------------------------|


  E  S S S S  S S Q    Q       E  S S S S  S S E.  S S  S S  S  
----------------------------|----------------------------------|
----------------------------|----------------------------------|
--0----0-0-3h-4-0-L---------|--0----0-0-3h-4-0-L---0-3p-0-3p-0-|
-----------------------3----|----------------------------------|


  E  S S S S  E  S E  S S E  S    E  S S S S  S S E.  S S  S S  S  
-------------------------------|----------------------------------|
-----------------7-5--5--------|----------------------------------|
--0----0-0-3h-4---------7-5--5-|--0----0-0-3h-4-0-L---0-3p-0-3p-0-|
-------------------------------|----------------------------------|


  E  S S S S  S S Q    Q       E  S S S S  S S E.  S S  S S  S  
----------------------------|----------------------------------|
----------------------------|----------------------------------|
--0----0-0-3h-4-0-L---------|--0----0-0-3h-4-0-L---0-3p-0-3p-0-|
-----------------------3----|----------------------------------|


  E  S S S S  E  S E  S S E  S    E  S S S S S  S  E   E  S E  S   
-------------------------------|----------------------------------|
-----------------7-5--5--------|-------------5h-7-10--10--9-7--7S-|
--0----0-0-3h-4---------7-5--5-|--5--5-5-5-7----------------------|
-------------------------------|----------------------------------|


  E  S S S S S  S  S  S  S  S  S  E.     E  S S S S  S S E.  S S  S S  S  
--------------------------------------|----------------------------------|
-------------5h-7-10-10-10----10-12---|----------------------------------|
--5--5-5-5-7---------------12---------|--0----0-0-3h-4-0-L---0-3p-0-3p-0-|
--------------------------------------|----------------------------------|


  E  S S S S  S S Q    Q        E  S S S  S S S  S E.  E  S S  
-----------------------------|--------------------------------|
-----------------------------|--------------------------------|
--0----0-0-3h-4-0-L----------|---------5p-4---4p-2--------2-4-|
-----------------------3b----|--0--0-0------0------3---4------|


  E  S S S  S S S  S E.   E  E     E  S S S  S S S  S E.   E  S S  
--------------------------------|---------------------------------|
--------------------------------|---------------------------------|
---------5p-4---4p-2---------2--|---------5p-4---4p-2---------2-4-|
--0--0-0------0------3b---4-----|--0--0-0------0------3b---4------|


  E  S S S  S S S  S S E  S E.     W                 
--------------------------------|-------------------|
--------------2-----------------|-------------------|
---------5p-4---4p-2---5----3---|-------------------|
--0--0-0-------------0----------|-------------------|


  H         E    E   S  S  S  S    S S S S S S S S S S S S S S S S  
-----------14S--16--16-16-14-12-|----------------------------------|
--------------------------------|----------------------------------|
--------------------------------|--0-0-0-0-0-0-0-0-0-0-0-0-0-0-0-0-|
--------------------------------|----------------------------------|


  S S S S S S S S S S S S S S E     E  S S S S S S  S S S S S S E   
---------------------------------|-----2---0-----------------------|
---------------------------------|-----------2---4p-2--------------|
--0-0-0-0-0-0-0-0---0---0-5-6-7--|--0----0-----0------3-3-3-3-3-0--|
---------------------------------|---------------------------------|


  E  S S S S S S  S S S S S S E     E  S S S S S S  S S S S S S E   
-----2---0-----------------------|-----2---0-----------------------|
-----------2---4p-2-----------0--|-----------2---4p-2-----------0--|
--0----0-----0------3-3-3-3-3----|--0----0-----0------3-3-3-3-3----|
---------------------------------|---------------------------------|


  E  S S S S S S S S E  S E.     E  S S S S S S S S S S S S E   
-----2---0-----------2--L-----|--------------------------------|
-----------2---4-2---0--L-----|--0--0-0------------------------|
--0----0-----0------------3---|--------------------------------|
------------------------------|-----------------1-1-1-1-1-1-3--|


  E  S S S S S S S S E  S E.     E  S S S S S S  S S S S S S E   
------------------------------|-----2---0-----------------------|
--0--0-0----------------------|-----------2---4p-2--------------|
---------------------3--L-5---|--0----0-----0------3-3-3-3-3-0--|
------------------------------|---------------------------------|


  E  S S S S S S  S S S  S S S S S    E  S S S S S S  S S S S S S S  S  
-----2---0-------------------------|-----------------------------------|
-----------2---4p-2--------2-4-2---|---------0---2---------------------|
--0----0-----0------0-3h-4-------4-|-----------2---4p-2----------------|
-----------------------------------|--0--0-0------------3-3-3-3-3-3h-4-|


  E  S S S S S S  S S S S S S S  S    E  S S S S S S  S S S S S S S  S  
-----------------------------------|-----------------------------------|
---------0-------------------------|---------0-------------------------|
-----------2---4p-2----------------|-----------2---4p-2----------------|
--0--0-0-----0------3-3-3-3-3-3h-4-|--0--0-0-----0------3-3-3-3-3-3h-4-|


  E  S S S S S S  S S S S Q       W                 
----------------------2--------|-------------------|
---------0------------0--------|-------------------|
-----------2---4p-2-------3----|-------------------|
--0--0-0-----0------0----------|-------------------|


  E  S S S S S S S S S S S S S S S S    E  S S S S  S S E.  S S  S S  S  
-------------------------------------|----------------------------------|
-------------------------------------|----------------------------------|
-----0-0-0-0-0-0-0-0-0-0-0-0-3-3-3-3-|--0----0-0-3h-4-0-L---0-3p-0-3p-0-|
-------------------------------------|----------------------------------|


  E  S S S S  S S Q    Q       E  S S S S  S S E.  S S  S S  S  
----------------------------|----------------------------------|
----------------------------|----------------------------------|
--0----0-0-3h-4-0-L---------|--0----0-0-3h-4-0-L---0-3p-0-3p-0-|
-----------------------3----|----------------------------------|


  E  S S S S  E  S E  S S E  S    E  S S S S  S S E.  S S  S S  S  
-------------------------------|----------------------------------|
-----------------7-5--5--------|----------------------------------|
--0----0-0-3h-4---------7-5--5-|--0----0-0-3h-4-0-L---0-3p-0-3p-0-|
-------------------------------|----------------------------------|


  E  S S S S  S S Q    Q       E  S S S S  S S E.  S S  S S  S  
----------------------------|----------------------------------|
----------------------------|----------------------------------|
--0----0-0-3h-4-0-L---------|--0----0-0-3h-4-0-L---0-3p-0-3p-0-|
-----------------------3----|----------------------------------|


  E  S S S S  E  S E  S S E  S    E  S S S S S  S  E   E  S E  S   
-------------------------------|----------------------------------|
-----------------7-5--5--------|-------------5h-7-10--10--9-7--7S-|
--0----0-0-3h-4---------7-5--5-|--5--5-5-5-7----------------------|
-------------------------------|----------------------------------|


  E  S S S S S  S  S  S  S  S  S  E.     E  S S S S  S S E.  S S  S S  S  
--------------------------------------|----------------------------------|
-------------5h-7-10-10-10----10-12---|----------------------------------|
--5--5-5-5-7---------------12---------|--0----0-0-3h-4-0-L---0-3p-0-3p-0-|
--------------------------------------|----------------------------------|


  E  S S S S  S S Q    Q        E  S S S  S S S  S E.  E  S S  
-----------------------------|--------------------------------|
-----------------------------|--------------------------------|
--0----0-0-3h-4-0-L----------|---------5p-4---4p-2--------2-4-|
-----------------------3b----|--0--0-0------0------3---4------|


  E  S S S  S S S  S E.   E  E     E  S S S  S S S  S E.   E  S S  
--------------------------------|---------------------------------|
--------------------------------|---------------------------------|
---------5p-4---4p-2---------2--|---------5p-4---4p-2---------2-4-|
--0--0-0------0------3b---4-----|--0--0-0------0------3b---4------|


  E  S S S  S S S  S S E  S E.     E  E  S S  S S E  E  S S  S S  
--------------------------------|--------------------------------|
--------------2-----------------|--------------------------------|
---------5p-4---4p-2---5----3---|--0--0--0-3h-4-0----0--0-3h-4-0-|
--0--0-0-------------0----------|--------------------------------|


  E  E  S S  S S  S S S  S S S  S S    E  E  S S  S S E  E  S S  S S  
---------------2p-0---2p-0---2p-0---|--------------------------------|
------------------------------------|--------------------------------|
-----0--0-3h-4------0------0------0-|--0--0--0-3h-4-0----0--0-3h-4-0-|
------------------------------------|--------------------------------|


                                   TP                TP   TP   TP   TP    
  E  Q    S S  S S Q    E     Q    Q    Q    Q       Q    Q    Q    Q     
---------------------------|----------------------|----------------------|
-------------------7----5--|--2-------------------|----------------------|
-----0----0-3h-4-0-5----3--|--0-------------------|----------------------|
---------------------------|-------3----L----3----|--5----5----5----5----|


  TP                                         
  H        H           Q     Q    H          
--------------------|----------------------||
--------------------|----------------------||
--------------------|----------------------||
--5--------L--------|--5\------------------||




Duration Legend
---------------
W - whole
H - half
Q - quarter
E - 8th
S - 16th
T - 32nd
X - 64th
. - note dotted
|-n-|  - n-tuplets


Tablature Legend
----------------
L - tied note
x - dead note
g - grace note
(n) - ghost note
> - accentuded note
NH - natural harmonic
AH - artificial harmonic
TH - tapped harmonic
SH - semi harmonic
PH - pitch harmonic
h - hammer on
p - pull off
b - bend
br - bendRelease
pb - preBend
pbr - preBendRelease
brb - bendReleaseBend
\n/ - tremolo bar dip
\n - tremolo bar dive
-/n - tremolo bar Release up
/n\ - tremolo bar inverted dip
/n - tremolo bar return
-\n - tremolo bar Release down
S - shift slide
s - legato slide
/ -  slide into from below or out of upwards
\ -  slide into from above or out of downwards
~ - vibrato
W - wide vibrato
tr - trill
TP - tremolo picking
T - tapping
S - slap
P - pop
< - fade in
^ - brush up
v - brush down
comments
We did not receive enough feedback on this tab! Please rate:
print report bad tab
1 2 3 4 5
I want to post or [tab]
guest
You may want to rate the tab now too:
select rating
Please do not post tabs as comments. Select "correction" instead!