Oops, an error
Loading. Please wait.

I Know A Little Tab

ver2
ver2

Whole song

Interactive

More versions @911Tabs.com
30,485 views 27 this week
3 commentsread comments
1 2 3 4 5
accurate
x 8
Autoscroll
+/-
esc
set tempo
stop
Contributor
Difficulty
advanced
Hey! There's an official Ultimate Guitar app which is ideal
for learning songs when you're away from computer. Get the app
WARNING: You are trying to view
                                    content from Ultimate-Guitar.com
                                    in an unauthorized application,
                                    which is prohibited.

                                    Please use an official Ultimate
                                    Guitar Tabs application for iPhone,
                                    iPad or Android to access legitimate
                                    chords, guitar, bass, and drum tabs
                                    from Ultimate-Guitar.com database.

                                    Type "ultimate guitar tabs" in Apple
                                    App Store's or Android Market's
                                    search to find the application.
Gtr I, II, III (E A D G B E) - 'clean electric'
Gtr IV (E A E A C# E) - 'Lead w/dist'
Gtr V (E A D G B E) - 'Lead w/dist'

Intro
  Q=220(8=s8)
                                               Bb9 A9
 4/4
  Gtrs II, III
  W            W                   H         E E E E
                                               |   |
                                               /   /

   Gtr I
                   |-3-|           |-3-|
  Wx4          E E E E E E E E E   E E E E E H
|------------|-----------5-5-----|-------5-5---------|
|------------|-------5-7---------|---5-7-------------|
|------------|---5-6-----------5-|-6-----------------|
|------------|-------------------|-------------------|
|------------|-------------------|-------------------|
|------------|-------------------|-------------------|


                                  Eb9 D9
  W                   H         E E E E   W
                                  |   |
                                  /   /

      |-3-|           |-3-|                   |-3-|
  E E E E E E E E E   E E E E E H         E E E E E E E E E
|-----------5-5-----|-------5-5---------|-------5---5-5-----|
|-------5-7---------|---5-7-------------|---5-7---7-------5-|
|---5-6-----------5-|-6-----------------|-------------------|
|-------------------|-------------------|-------------------|
|-------------------|-------------------|-------------------|
|-------------------|-------------------|-------------------|


              Bb9 A9                                  F9  E9
  H         E E E E   W                   H         E E E E
              |   |                                   |   |
              /   /                                   /   /

  |-3-|                   |-3-|           |-3-|
  E E E E E H         E E E E E E E E E   E E E E E H
|---5---5-5---------|-----------5-5-----|-------5-5---------|
|-7---7-------------|-------5-7---------|---5-7-------------|
|-------------------|---5-6-----------5-|-6-----------------|
|-------------------|-------------------|-------------------|
|-------------------|-------------------|-------------------|
|-------------------|-------------------|-------------------|


            Eb9 D9                   A
  H       E E E E   W                 Q       Q      H         W
            |   |                     |
            /   /                     /

                                      |-3--|  |-3-|
  E E E E E E Q     E E E E E E Q     E  E E  E E E  q  Q      E E E E E E Q
|-------7-7-7-----|-------5-5-5----|-12------11-----10--8b9--|-5-----5---5---|
|---4s9-----------|---3s7----------|----10------9------------|---8p5---------|
|-----------------|----------------|-------8------7----------|---------------|
|-----------------|----------------|-------------------------|---------------|
|-----------------|----------------|-------------------------|---------------|
|-----------------|----------------|-------------------------|---------------|


  A9
  Q   Q     H           W                    Q     Q     H
  |                                          |
  /                                          /

                                ~~~~~~
      |-3-|             |-3-|                |-3-| |-3-| |-3-| |-3-|
  E E E E E E Q     E   E E E E E +Q   E E   E E E E E E E E E E E E
|-----------5-------5-|--------------------|-----5-----7-5-----------|
|---5-8p7p5---8b10----|--------------------|---5---8-5-----8-5-------|
|---------------------|-8p7p5---5-(5)----5h|=6-----------------8-7-5-|
|---------------------|-------7------------|-------------------------|
|---------------------|--------------------|-------------------------|
|---------------------|--------------------|-------------------------|


  W                  Q       Q        H
                     |
                     /

      ~
         |-3-|       |-3-|   |-3-|    |-3-|    |-3--|
  E E Q  E E E E E   S S S E S S S E  S S S E  S  S S  E
|------------------|-8p7p5---9p8p6---10p9p7---11p10p8----|
|----------------5-|-------6-------7--------8---------11-|
|-7---5------------|-------------------------------------|
|---7----7p5-------|-------------------------------------|
|------------7-----|-------------------------------------|
|------------------|-------------------------------------|


   W
              ~~~~~~~     ~~
   E  E    E  E  +Q    E  E
|-12-------------------------|
|----12b14---10-(10)-----10--|
|---------------------11-----|
|----------------------------|
|----------------------------|
|----------------------------|


  Gtr I
    ~~~~
   +Q     E      +E   +Q     Q
|--------------------------------|
|-(10)---12b14==(12)-(12)r-------|
|--------------------------------|
|--------------------------------|
|--------------------------------|
|--------------------------------|
|
| Gtr II
|-Rhy Fig 1
|   E  E  E       E    E   E E E
|------5----------x----5---5---x-|
|------5----------x----5---5---x-|
|------5----------x----5---5---x-|
|------4----------x----4---4---x-|
|------5----------x----5---5---x-|
|--------------------------------|
|
| Gtr III
|-Rhy Fig 1A
|   E  E  E       E    E   E E E
|------5----------x----5---5---x-|
|------5----------x----5---5---x-|
|------5----------x----5---5---x-|
|------4----------x----4---4---x-|
|------5----------x----5---5---x-|
|--------------------------------|


                                         ~~
  E  Q       E  E   Q    E   Q      E E  Q    E E
|---12b14---12-10--12---10-|-8b9------------------|
|--------------------------|-------10---10--------|
|--------------------------|----------9------\7p5-|
|--------------------------|----------------------|
|--------------------------|----------------------|
|--------------------------|----------------------|
|
| Q       E  E +E   E E  E   E   E  Q    E E  Q
|-5-------x--5-(5)--5----x-|-----5---------5------|
|-5-------x--5-(5)--5----x-|-----5---------5------|
|-5-------x--5-(5)--5----x-|-------------6--------|
|-4-------x--4-(4)--4----x-|-------------7--------|
|-5-------x--5-(5)--5----x-|----------------------|
|--------------------------|----------------------|
|
| Q       E  E +E   E E  E   E   E  E E  E E  E E
|-5-------x--5-(5)--5----x-|----------------------|
|-5-------x--5-(5)--5----x-|----------------------|
|-5-------x--5-(5)--5----x-|--------------------2-|
|-4-------x--4-(4)--4----x-|-------------2-2--4---|
|-5-------x--5-(5)--5----x-|-0---0--3-4-----------|
|--------------------------|----------------------|


                        ~~~~~~~~
                                                      |--3--|
  E E   E E     E   E E E   +Q    Q     H         E E E E   E  E   E E E
|-------------------------|---------------------|--------------5---5-----|
|-------------------------|---------------------|-------5---7--------8-7-|
|-7-5b6-------------------|-------5b7-----------|---5-6------------------|
|-------7-------5---7-7-7-|-(7)-----------------|------------------------|
|---------7---------------|---------------------|------------------------|
|-------------------------|---------------------|------------------------|
|
| Q     E E    +Q     Q      E  E E   E E E E E   Q   E   E   +Q     Q
|-5-----------------------|--x--5-----x-5-5-x---|-5---x---5---(5)\-------|
|-5-----------------------|--x--5-----x-5-5-x---|-5---x---5---(5)\-------|
|---------5b6==(5)r-------|--x--5-----x-5-5-x---|-5---x---5---(5)\-------|
|-------7-----------------|--x--4-----x-4-4-x---|-4---x---4---(4)\-------|
|-------------------------|--x--5-----x-5-5-x---|-5---x---5---(5)\-------|
|-------------------------|---------------------|------------------------|
|
| E E   E E     E   E E E    E  E E   E E E E E   Q   E   E   +E   E E E
|-------------------------|-----5-----x-5-5---x-|-5---x---5---(5)--5---x-|
|-------------------------|-----5-----x-5-5---x-|-5---x---5---(5)--5---x-|
|-----------------------2-|-----5-----x-5-5---x-|-5---x---5---(5)--5---x-|
|---------------2---2-4---|-----4-----x-4-4---x-|-4---x---4---(4)--4---x-|
|-0-0---3-4---------------|-----5-----x-5-5---x-|-5---x---5---(5)--5---x-|
|-------------------------|---------------------|------------------------|


         |--3---|                 |--3--|
  E E   +E  E   E q   E E   Q     E E   E E E E E   E E E E E E  E E
|-------------------------|-----------------------|-------------------|
|-5-----------------------|-----------------------|-------------------|
|---7b8r(7)-5-----7---5-7p|=5b6-------------------|-------------------|
|---------------7---------|-------7p5-----5-7-5---|---7-9-----7----7--|
|-------------------------|-------------7-------7s|=9-----9------9----|
|-------------------------|-----------------------|-------------------|
|
| E E    Q        Q   Q     Q     E   Q     Q   E   E Q   E E Q.
|---5-------------5-------|-----------------------|---0-------0-------|
|-------------------------|-8---------8-----7-----|-------0h3---------|
|-------------------------|---------------------0h|=1-----------------|
|-------------------------|-----------------------|-------------------|
|-------------------------|-----------------------|-------------------|
|-------------------------|-----------------------|-------------------|
|
| E E    E    E   E E E E   E   E E   E   E E E E   E E E E E E  E E
|-------------------------|-----------------------|-------------------|
|-------------------------|-----------------------|---5-x-x-x-5----5--|
|-----------------------2-|---------------------2-|---7-x-x-x-7----7--|
|-----------------2-2-4---|---------------2-2-4---|---6-x-x-x-6----6--|
|-0-0----3----4-----------|-0---0-3---4-----------|---7-x-x-x-7----7--|
|-------------------------|-----------------------|-------------------|


  Q   Q      Q   E E    E Q   E E Q   E   E E E E E E Q
|---------------------|-----------------|----------------|
|---------------------|-----------------|----------------|
|---------------------|-----------------|----------------|
|-----9b11---7---5-7\-|---5---5---6---6-|---7---7---7----|
|---------------------|---5---5---6---6-|---7---7---7----|
|---------------------|-3-3---3-4-4---4-|-5-5---5---5----|
|
| E Q      E E E Q      E Q.    E Q.      E E E E E E Q
|---------------------|-----------------|----------------|
|---------------------|---0-------1-----|----------------|
|---5------5-5-5------|---0-------1-----|---2---2---2----|
|---------------------|---0-------1-----|---2---2---2----|
|---------------------|-----------------|---0---0---0----|
|---------------------|-----------------|----------------|
|                                          end Rhy Fig 1-|
|
| Q   E    E E E Q      E Q   E E Q   E   E E E E E E Q
|---------------------|-----------------|-----------5----|
|----------3-3-3------|-----------------|-----------5----|
|----------5-5-5------|-----------------|---6---6---6----|
|----------4-4-4------|---5---5---6---6-|---7---7---7----|
|----------5-5-5------|---5---5---6---6-|---7---7---7----|
|---------------------|-3-3---3-4-4---4-|-5-5---5---5----|
                                          end Rhy Fig 1A-|

  Gtrs I, II
  |-3-| |-3-|                              |-3-| |-3-|
  E E E E E E E   E Q    E E E E +Q   Q    E E E E E E E   E Q
|----------------------|-----------------|-----------------------||
|----------------------|-----------------|-----------------------||
|-4p2p0-----------2----|-2-----2-(2)-----|-4p2p0-----------2-----||
|-------4p2p0-----2----|-2-----2-(2)-----|-------4p2p0-----2-----||
|-------------3b4------|---3h4-----------|-------------3b4-------||
|----------------------|-----------------|-----------------------||
|-Rhy Fig 2                                        end Rhy Fig 2-|
|
| Gtr III
| W                      Q   E E +Q   Q    W
|----------------------|-----------------|-----------------------||
|----------------------|-2-----2-(2)-----|-----------------------||
|----------------------|-2-----2-(2)-----|-----------------------||
|----------------------|-2-----2-(2)-----|-----------------------||
|----------------------|-0-----0-(0)-----|-----------------------||
|----------------------|-----------------|-----------------------||
|-Rhy Fig 2A                                      end Rhy Fig 2A-|

   Verse 1, 2 & 3
    $
      Gtr I
    E E Q   Q   Q     Q   E E   +E  E E E
||----5-----5-------|-5-------------------|
||o-----------------|---------------------|
||----2-----2-------|-2-----4b6r(4)p2---2-|
||------------------|-----------------4---|
||o-----------------|---------------------|
||------------------|---------------------|
| -Riff A                      end Riff A-|
|
|   Gtrs II, III
|   E E E E E E E E   E E E E    E  E E E
||------------------|---------------------|
||o-----------------|---------------------|
||----------------2-|-------------------2-|
||----------2-2-4---|------------2--2-4---|
||o-0-0-3-4---------|-0-0-3-4-------------|
||------------------|---------------------|
 |-Riff A1                    end Riff A1-|

Riff A & A1 both x3



 Chorus
Rhy Fig 1 & 1A ->To Coda on D.S.



                        1.
  Gtrs I, II
w/Rhy Fig 2A
  |-3-| |-3-|                              |-3-| |-3-|
  E E E E E E E   E Q    E E E E +Q   Q    E E E E E E E   E Q
|----------------------|-----------------|------------------------||
|----------------------|-----------------|-----------------------o||
|-4p2p0-----------2----|-2-----2-(2)-----|-4p2p0-----------2------||
|-------4p2p0-----2----|-2-----2-(2)-----|-------4p2p0-----2------||
|-------------3b4------|---3h4-----------|-------------3b4-------o||
|----------------------|-----------------|------------------------||



  2.
  Gtr IV
w/Rhy Fig 2 & 2A last 2 bars only
    Q   E   E  +H         +Q      +Q      E   E a E E
|-/12-----/12-(12)-----|-(12)----(12)s====7\--------3-||
|-/12-----/12-(12)-----|-(12)----(12)s====7\--1-1s3---||
|-/12-----/12-(12)-----|-(12)----(12)s====7\----------||
|----------------------|------------------------------||
|----------------------|------------------------------||
|----------------------|------------------------------||



 Guitar Solo
w/Riff A1 x8
  Gtr IV
  +H        +E   E E E    H         E  E E E
|-(3)-------(3)--------|---------------------|
|----------------------|---------------------|
|---------------/5s3p0-|-[3]s======[4]p0-----|
|----------------------|-----------------0-3s|
|----------------------|---------------------|
|----------------------|---------------------|
|
| Gtr II
|  E  E Q    Q     Q      Q    E Q     E Q
|-----5------5---------|--5------5-----------|
|----------------------|---------------------|
|-----2------2---------|--2------2-----------|
|----------------------|---------------------|
|----------------------|---------------------|
|----------------------|---------------------|


  ~                 ~
  Q   E E E E E E   Q   E E E E Q
|-----------------|------------------|
|-----------------|-----------1s3----|
|-----0---3p0-----|-----0---0--------|
|-5-----0-------3s|=5-----0----------|
|-----------------|------------------|
|-----------------|------------------|
|
| E E Q   Q   Q     Q   E Q   E Q
|---5-----5-------|-5-----5----------|
|-----------------|------------------|
|---2-----2-------|-2-----2----------|
|-----------------|------------------|
|-----------------|------------------|
|-----------------|------------------|


                              ~~~~~~
          |--3--|
  H       E E   E E E   E E E E +Q    E E
|-3-------------------|-------------------|
|---------------------|-------------------|
|---------5s3p==0-3s4-|-0-------------0---|
|---------------------|---0-3s5-(5)-----0-|
|---------------------|-------------------|
|---------------------|-------------------|
|
| E E Q   Q       Q     Q   E Q     E Q
|---5-----5-----------|-5-----5-----------|
|---------------------|-------------------|
|---2-----2-----------|-2-----2-----------|
|---------------------|-------------------|
|---------------------|-------------------|
|---------------------|-------------------|


  E E E E E E E E   +Q.     E E E E E
|-----------------|--------------------|
|-----------------|--------------------|
|-----------------|-------------0-3p0--|
|-3p0-3-0---------|---------3s4--------|
|---------3p0-3-0-|-(0)---------0-3p0--|
|-----------------|---------3s4--------|
|
| E E Q   Q   Q      Q    E Q   E Q
|---5-----5-------|--5------5----------|
|-----------------|--------------------|
|---2-----2-------|--2------2----------|
|-----------------|--------------------|
|-----------------|--------------------|
|-----------------|--------------------|


                                                                          ~
  E E E E +E  E E E   E E E E +E  E E E   E E E E +E  E Q     E E E E Q   Q
|-------------------|-------------------|-------------------|------------------|
|-------------------|-------------------|-------------------|------------------|
|-3p0---0-(0)-0-3p0-|-3p0---0-(0)-0-3p0-|-3p0---0-(0)-------|-------3----------|
|-----3-------------|-----3-------------|-----3-------------|-0---3---3---5----|
|-3p0---0-(0)-0-3p0-|-3p0---0-(0)-0-3p0-|-3p0---0-(0)-3s5---|---0--------------|
|-----3-------------|-----3-------------|-----3-------------|------------------|
|
| E E Q    Q    Q     Q   E Q     E Q     E E Q    Q    Q     Q   E Q   E Q
|---5------5--------|-5-----5-----------|---5------5--------|-5-----5----------|
|-------------------|-------------------|-------------------|------------------|
|---2------2--------|-2-----2-----------|---2------2--------|-2-----2----------|
|-------------------|-------------------|-------------------|------------------|
|-------------------|-------------------|-------------------|------------------|
|-------------------|-------------------|-------------------|------------------|


   ~~~
  +Q    E E E E E E   E E E E E E E E
|-------------------|-----------------|
|-------------------|-----------------|
|-------0---3p0---4p|=0---5p0---6p0---|
|-(5)-----0-----0---|---0-----0-----0-|
|-------------------|-----------------|
|-------------------|-----------------|
|
|  E  E Q   Q   Q     Q   E Q   E Q
|-----5-----5-------|-5-----5---------|
|-------------------|-----------------|
|-----2-----2-------|-2-----2---------|
|-------------------|-----------------|
|-------------------|-----------------|
|-------------------|-----------------|


                              ~~
      |---3---|
  E E E E   a E E E a E E   E Q.     E E  Q
|-------------------------|--------------------||
|-------------------------|--------------/5----||
|-7S0-3p0---3s4-0---------|----------0---------||
|-----------------0-5s3-0-|-3-5--------0-------||
|-------------------------|--------------------||
|-------------------------|--------------------||
|
| E E Q         Q     Q     Q    E E Q    Q
|---5-----------5---------|-3------3-3---------||
|-------------------------|-2------2-2---------||
|---2-----------2---------|--------------------||
|-------------------------|--------------------||
|-------------------------|--------------------||
|-------------------------|--------------------||

w/Rhy Fig 1 & 1A
                    ~~~~~~~~                                        ~~
   H         E  Q   E   +H        E  E   Q      Q.      E  E   Q    E
|--5------------------|----------------------|-12------11s10----------|
|-(5)-------\3--------|----------------/12---|---------------/12---12-|
|--------------/5---5-|-(5)------\3p=0-------|---------------------12-|
|---------------------|----------------------|------------------------|
|---------------------|----------------------|------------------------|
|---------------------|----------------------|------------------------|



    ~~~~~~~~
   +Q     Q       E   E Q
|---------------------------|
|-(12)----------------------|
|-(12)---12------12\--0-----|
|---------------------------|
|---------------------------|
|---------------------------|



                                       ~~~~
   E  E  E  E  E  E  E  E    Q   E  E  E    E  E  E
|-15----15----15----15----|-15--15----15------15----|
|----15----15----15----15-|--------15------15----15-|
|-------------------------|-------------------------|
|-------------------------|-------------------------|
|-------------------------|-------------------------|
|-------------------------|-------------------------|



                        ~~~~~~~~~~~~~~~~~~~~~
    Q    Q     Q     E  E    +Q.      E  +E   E E   E
|-/17---15\---------------|-----------------------/17-|
|-------------14---/12----|---------------------------|
|----------------------12-|-(12)-----12-(12)-12S0-----|
|-------------------------|---------------------------|
|-------------------------|---------------------------|
|-------------------------|---------------------------|



          ~~~~~~~~~~~~~
   +Q     Q    +E   Q.
|-(17)---17---(17)-17------|
|--------------------------|
|--------------------------|
|--------------------------|
|--------------------------|
|--------------------------|



                                       ~~~~~~~~~~~~~~~~~
   E  E  E  E  E  E  Q     E  E   Q    Q.      E    +W
|-15----15--------------|------------------------|-------------------||
|----15----15s13-11s12--|------------------------|-------------------||
|-----------------------|-12-----12---12------12-|-(12)--------------||
|-----------------------|----12-------12------12-|-(12)--------------||
|-----------------------|------------------------|-------------------||
|-----------------------|------------------------|-------------------||


w/Rhy Fig 2 & 2A
    ~~~~
   +H            +H            Q   E   E  +H         +W
|--------------------------|-/12-----/12-(12)-----|-(12)\---------------------|
|--------------------------|-/12-----/12-(12)-----|-(12)\---------------------|
|-(12)----------(12)\------|-/12-----/12-(12)-----|-(12)\---------------------|
|-(12)----------(12)\------|----------------------|---------------------------|
|--------------------------|----------------------|---------------------------|
|--------------------------|----------------------|---------------------------|



  A
  Gtrs II, III
  q  Q   H         W
  |  |
  /  /

  Gtr V
  H      Q   Q     Q   E  E      +E   +E       +q
|---------------|------------------------------------|
|-------10------|-10-----12b14==(12)r(12)b14==(12)r--|
|-----------11--|-----11-----------------------------|
|---------------|------------------------------------|
|---------------|------------------------------------|
|---------------|------------------------------------|


  q      Q    H         W
  |      |
  /      /

              |-3--|    |-3-|
  Q  a a E E +Q  Q Q    Q Q Q Q  Q
|---------------------|---------------|
|--------5------------|---------------|
|--------5------------|---------------|
|------x---7-(7)-5----|-------7-------|
|----x-------------7--|-6-5s4---------|
|---------------------|---------------|


  Gtr III
  q   Q              H         W
  |   |
  /   /

      |-----3-----|
  Q   E      +E   E  q   q     q   q   q   q
|---------------------------|-----------------|
|----20pb22r(20)p17-20--19--|-17--------------|
|---------------------------|-----19--17------|
|---------------------------|-------------19--|
|---------------------------|-----------------|
|---------------------------|-----------------|


   q   Q   H           W
   |   |
   /   /

   q   q   q     q     q   q   q   q
|-------------------|-----------------||
|-17----------------|-----------------||
|-----20--19----17--|-----16--17--18--||
|-------------------|-19--------------||
|-------------------|-----------------||
|-------------------|-----------------||
|
|Gtr II
|  H      +H           W
|--9------(9)\------|-----------------||
|--8------(8)\------|-----------------||
|--9------(9)\------|-----------------||
|--7------(7)\------|-----------------||
|-------------------|-----------------||
|-------------------|-----------------||


 Piano Solo
w/Rhy Fig 1 & 1A
  Gtr V
   Q    +Q     H         W                  W
|----------------------|------------------|-----------------|
|----------------------|------------------|-----------------|
|-19---(19)\-----------|------------------|-----------------|
|----------------------|------------------|-----------------|
|----------------------|------------------|-----------------|
|----------------------|------------------|-----------------|

continue w/Rhy Fig 1 & 1A

Rhy Fig 2 & 2A ->D.S. al Coda



  &
w/last 2 bars of Rhy Fig 1 & 1A x2 both



  Gtrs I, II
  |-3-| |-3-|
  E E E E E E E   E Q    W
|----------------------|------|
|----------------------|------|
|-4p2p0-----------2----|------|
|-------4p2p0-----2----|------|
|-------------3b4------|------|
|----------------------|------|


                         A5
  Gtr III
  W                      Q   E E +H
                         |     |  |
                         /     /  /

  |-3-| |-3-|
  E E E E E E E   E Q    E E E E +H
|----------------------|----------------*|
|----------------------|----------------*|
|-4p2p0-----------2----|-2-----2-(2)----*|
|-------4p2p0-----2----|-2-----2-(2)----*|
|-------------3b4------|---3h4----------*|
|----------------------|----------------*|
comments
print report bad tab
3 comments total.
0 reply
aig91 wrote on March 22 2007, 02:18 pm

Awesome job!!! Great tab. Very accurate.

0 reply
jor_guitar wrote on September 5 2012, 08:19 am

Great job. Most of the tabs are good, but in the wrong place. In the solo, you're really going off. You'd better first discover the way he's playing. And make sure he's playing on the whole neck

0 reply
RobTerry2705 wrote on February 6 2013, 02:08 pm

always wanted to play this. Thanks!

I want to post or [tab]
guest
You may want to rate the tab now too:
select rating
Please do not post tabs as comments. Select "correction" instead!