Oops, an error
Loading. Please wait.

Pronounced Leh-Nerd Skin-Nerd Tab

1,538 views 3 this week
no commentswrite comment
1 2 3 4 5
excellent!
x 2
Autoscroll
+/-
esc
set tempo
stop
Contributor
Hey! There's an official Ultimate Guitar app which is ideal
for learning songs when you're away from computer. Get the app
WARNING: You are trying to view
                                    content from Ultimate-Guitar.com
                                    in an unauthorized application,
                                    which is prohibited.

                                    Please use an official Ultimate
                                    Guitar Tabs application for iPhone,
                                    iPad or Android to access legitimate
                                    chords, guitar, bass, and drum tabs
                                    from Ultimate-Guitar.com database.

                                    Type "ultimate guitar tabs" in Apple
                                    App Store's or Android Market's
                                    search to find the application.
Lynyrd Skynyrd - Pronounced Leh-nerd Skin-nerd - Album

Track Listing:

1. I Ain't The One
2. Tuesday's Gone
3. Gimme Three Steps
4. Simple Man
1. Things Goin' On
2. Mississippi Kid
3. Poison Whiskey
4. Free Bird


I ain't the one

h - hammer on
p - pull off
b - bend string up
bb- 1 1/2 tone bend
H - hold bend
r - release bend
/ - slides
v - vibrato
t - right hand tap
x - play 'note' with heavy damping

 
 Intro

E----------------------------------------------------------|
B----------------------------------------------------------|
G----5-----2-2-----2----2-2-----2-----2-2-----2----5-------|
D----7-----2-2-----2----2-2-----2-----2-2-----2----5-------|
A--------0-----3h4----------3h4-----------3h4------3-------|
E----------------------------------------------------------|

E----------------------------------------------------------|
B----------------------------------------------------------|
G-----2-2-----2----2-2-----2----2-2-----2-----7--9---------|
D-----2-2-----2----2-2-----2----2-2-----2-----7--9---------|
A---0-----3h4----------3h4----------3h4-------5--7---------|
E----------------------------------------------------------|



 Main riff

E----------------------------------------------------------|
B----------------------------------------------------------|
G-------------------2----------------2---------------------|
D----------------2--2------5p0--5p0--2---------------------|
A---0---0---3h4---------0--3p0--3p0--0---------------------|
E----------------------------------------------------------|

E----------------------------------------------------------|
B----------------------------------------------------------|
G-----------------2----------------------------------------|
D---------------2-2-----5----------------------------------|
A---0----0-3h4----------5----------------------------------|
E-----------------------3----------------------------------|

E----------------------------------------------------------|
B----------------------------------------------------------|
G------------------2-------------------2-------------------|
D---------------2--2-------5p0---5p0---2-------------------|
A--0-----0-3h4---------0---3p0---3p0---0-------------------|
E----------------------------------------------------------|

E----------------------------------------------------------|
B----------------------------------------------------------|
G-------------------2--------------------------------------|
D-----------------2-2----7--5------------------------------|
A---0-----0-3h4-----------------7---5---3------------------|
E----------------------------------------------------------|


 Verse 1 repeat main riff

now

E----------------------------------------------------------|
B-----------------------5--5-------------------------------|
G-----------------------5--5---9--7v-----------------------|
D-----------------5--7---------9--7v-----------------------|
A----5--5--5-5h7-------------------------------------------|
E----------------------------------------------------------|

E----------------------------------------------------------|
B------------------5-5-5-----5-----------------------------|
G------------------5-5-5--7--5--7v-------------------------|
D-----------5--7----------7-----7v-------------------------|
A----5-5h7-------------------------------------------------|
E----------------------------------------------------------|

E----------------------------------------------------------|
B----------------------------------------------------------|
G-------------------2----------------2---------------------|
D----------------2--2------5p0--5p0--2---------------------|
A---0---0---3h4---------0--3p0--3p0--0---------------------|
E----------------------------------------------------------|


E----------------------------------------------------------|
B----------------------------------------------------------|
G------------------2---------------------------------------|
D---------------2--2---------------------------------------|
A---0----0-3h4---------------------------------------------|
E----------------------3-----------------------------------|



  Chorus


E----------------------------------------------------------|
B----------------------------------------------------------|
G----------------------------------------------------------|
D----------------------------------------------------------|
A---------------4p2-----4p2--------2h4---------------------|
E---0--0----3--------3-------3--4--------------------------|

E----------------------------------------------------------|
B----------------------------------------------------------|
G----------------------------------------------------------|
D----------------------------------------------------------|
A--------------4p2-----4p2--------2------------------------|
E---0--0----3-------3-------3--4---------------------------|

E----------------------------------------------------------|
B----------------------------------------------------------|
G----------------------------------------------------------|
D----------------------------------------------------------|
A---------------4p2-----4p2--------2h4---------------------|
E---0--0----3--------3-------3--4--------------------------|


E----------------------------------------------------------|
B----------------------------------------------------------|
G---------------------------7---5------2-------------------|
D---------------------------7---5------2-------------------|
A----------------4p2--------5---3------0-------------------|
E---0----0---3---------------------------------------------|


 Solo 1 (Intro)

E----15b---15b----17-15---------12-------------------------|
B------------------------13-15-----13v---13b---------------|
G---------------------------------------------14v----------|
-----------------------------------------------------------|
A----------------------------------------------------------|
E----------------------------------------------------------|

E---------------------/17-20b--20---17-20-17----17---------|
B-------13----13b----------------------------20----20-20bv-|
G---/14----14----------------------------------------------|
D----------------------------------------------------------|
A----------------------------------------------------------|
E----------------------------------------------------------|


 Solo 2 (after chorus 1)

E----------------------------------------------------------|
B-------------------17bv-----------------------------------|
G----16bp14-16-14v--------16bp14-16brbv--------------------|
D----------------------------------------------------------|
A----------------------------------------------------------|
E----------------------------------------------------------|

E---15b----------------------------------------------------|
B---------15-13-15b---15-13--15----------------------------|
G--------------------------------14v-----------------------|
D----------------------------------------------------------|
A----------------------------------------------------------|
E----------------------------------------------------------|



 Solo


E----------------------------------------------------------|
B----------------------------------------------------------|
G----17-17-17--14-17-17-14-17-14-17-17----17-14----17-14---|
D-----------------------------------------------14------14-|
A----------------------------------------------------------|
E----------------------------------------------------------|


E----------------------------------------------------------|
B----------------------------------------------------------|
G------------------------------------------------13--------|
D----17-14------17b-17b-----17b---17b---14-12-14----14v----|
A----------14----------------------------------------------|
E----------------------------------------------------------|


E----------------------------------------------------------|
B----------------------------------------------------------|
G----------------------------------------------------------|
D--------------------------------------13------------------|
A----17b-17b-17b-17b---17b---14-12-14------14-12-14v-------|
E----------------------------------------------------------|


E----------------------------------------------------------|
B--------15-17-15-17b----17b-17b-17bp15-17b-17b-17bp15-----|
G----/16---------------------------------------------------|
D----------------------------------------------------------|
A----------------------------------------------------------|
E----------------------------------------------------------|


E----------------------------------------------------------|
B----17b-17b-17bp15---17b-17b-17bp15--17-15----------------|
G----------------------------------------------------------|
D----------------------------------------------------------|
A----------------------------------------------------------|
E----------------------------------------------------------|


E----15b-------12-15-----12-15-----------------------------|
B----------15b-------15b-------15brp13----13h15-13b--------|
G--------------------------------------14-----------14v----|
D----------------------------------------------------------|
A----------------------------------------------------------|
E----------------------------------------------------------|



E--------12--------------15br--15--12----12----------------|
B-----------12-15p12------------------15----15b------------|
G---/13--------------14------------------------------------|
D----------------------------------------------------------|
A----------------------------------------------------------|
E----------------------------------------------------------|


E----------------------------------------------------------|
B---15-12-----12-15--------------------------------15------|
G---------14b-------14br-p12----14----12-14-12-14b----14b--|
D----------------------------14----14----------------------|
A----------------------------------------------------------|
E----------------------------------------------------------|


E----------------------------------------------------------|
B----------------------------------------------------------|
G-------12-14-14b-p12-14----12-14-12v----------------------|
D---/14------------------14--------------------------------|
A----------------------------------------------------------|
E----------------------------------------------------------|


E----------------------------------------------------------|
B-------15-12-----12-15------------------------------------|
G---14b-------14b--------14b-12----14----12-14-12v---------|
D-------------------------------14----14-------------------|
A----------------------------------------------------------|
E----------------------------------------------------------|



E---------12-15-----12-15----------------------------------|
B----15b--------15b-------15br-13----15-13-----------------|
G---------------------------------14-------14-12-----------|
D------------------------------------------------14/12p10--|
A----------------------------------------------------------|
E----------------------------------------------------------|



E----------------------------------------------------------|
B----------------------------------------------------------|
G----------------------------------------------------------|
D----------------------------------------------------------|
A-12v------------------------------------------------------|
E----------------------------------------------------------|



Tuesday's Gone


INTRO: 
        (guitar 1, electric)                                                                
||-9---9-10-9-7---9-7-7-5--7-9------5-7-5-7-9---9-10-9-9-7---9-7------12-10-12-10-12-10-12-10-|
||-----------------------------7--------------------------------------------------------------|
||--------------------------------------------------------------------------------------------|
||--------------------------------------------------------------------------------------------|
||--------------------------------------------------------------------------------------------|
||--------------------------------------------------------------------------------------------|
||      (guitar 2, acoustic)                                                                  |
||-0--0-0-0---0-0---0--2--2-2-2--2-2---------0--0-0-0---0-0------------0-----0-----0-----0----|
||-2--2-2-2---0-0---0--2--2-2-2--3-3---------2--2-2-2---0-0--------------3-----3-----3-----3--|
||-2--2-2-2---1-1---1--2--2-2-2--2-2---------2--2-2-2---1-1-----------------------------------|
||-2--2-2-2---2-2---2--4--4-4-4--0-0---------2--2-2-2---2-2-----------------------------------|
||-0--0-0-0---2-2---2--4--4-4-4--0-0---------0--0-0-0---2-2----------0-----0-----0-----0------|
||-0--0-0-0---0-0---0------------------------0--0-0-0---0-0-----------------------------------|
||      (guitar 3, electric)                                                                  |
||--------------------------------------------------------------------------------------------|
||-2--2-3-2--0--0-2-0-------0--------------------2--------2/3---------------------------------|
||-2--2-4-2--1--1-2-1--2--2-1-2------------------2--------2/4---------------------------4^^-2-|
||---------------------4--4---4--4------------------------------------------------------------|
||-------------------------------5------------------------------------------------------------|
||--------------------------------------------------------------------------------------------|

        (guitar 3 cont.)
|--------------------------------------------------------------------------------------------||
|------------------------------------5--5---------------------5-3---5-3---5-3---5-3----------||
|-4^^-----4^^`----2--------------2>4-4^-6\4-2----4-4---4-------------------------------------||
|----2--------4---------------2>4-------------2--4-4>6-4-------------------------------------||
|-------------------5\4/5--2>4---------------------------------------------------------------||
|--------------------------------------------------------------------------------------------||
|       (guitar 2)                                                                           ||
|-0--0-0-0---0-0---0--2--2-2-2--2-2-----0--0-0-0---0-0------0-----0-----0-----0--------------||
|-2--2-2-2---0-0---0--2--2-2-2--3-3-----2--2-2-2---0-0--------3-----3-----3-----3--2-3-5-2---||
|-2--2-2-2---1-1---1--2--2-2-2--2-2-----2--2-2-2---1-1-------------------------------------2-||
|-2--2-2-2---2-2---2--4--4-4-4--0-0-----2--2-2-2---2-2---------------------------------------||
|-0--0-0-0---2-2---2--4--4-4-4--0-0-----0--0-0-0---2-2----0-----0-----0-----0----------------||
|-0--0-0-0---0-0---0--------------------0--0-0-0---0-0---------------------------------------||
|       (guitar 1)                                                                           ||
|-0----------0-----------2----------2----------0----------0---12-10-12-10-12-10--9-10-12-9---||
|-2----------0-----------2----------3----------2----------0-------------------------------10-||
|-2----------1-----------2----------2----------2----------1----------------------------------||
|--------------------------------------------------------------------------------------------||
|--------------------------------------------------------------------------------------------||
|--------------------------------------------------------------------------------------------||


VERSE 1: 
        (guitar 3)
||-------------------------------------3<2>3<2-----------------------------------------------||
||-------2---------------------------3--------3-------2-------------5-3--5-3--5-3--5-3-------||
||-----2--2--------1---------2-----2----------------2--2--------1----------------------------||
||---2-----2-----2--2------4--4--0----------------2-----2-----2--2---------------------------||
||-0-----------2-----2---4-----4----------------0-----------2-----2--------------------------||
||-----------0---------2----------------------------------0----------------------------------||
||      (guitar 2)                                                                           ||
||-0--0-0-0---0-0---0--2--2-2-2--2-2----0--0-0-0---0-0------0-----0-----0-----0--------------||
||-2--2-2-2---0-0---0--2--2-2-2--3-3----2--2-2-2---0-0--------3-----3-----3-----3--2-3-5-2---||
||-2--2-2-2---1-1---1--2--2-2-2--2-2----2--2-2-2---1-1-------------------------------------2-||
||-2--2-2-2---2-2---2--4--4-4-4--0-0----2--2-2-2---2-2---------------------------------------||
||-0--0-0-0---2-2---2--4--4-4-4--0-0----0--0-0-0---2-2----0-----0-----0-----0----------------||
||-0--0-0-0---0-0---0-------------------0--0-0-0---0-0---------------------------------------||
||      (guitar 1)                                                                           ||
||-0----------0----------2----------2----------0----------0---12-10-12-10-12-10--9-10-12-9---||
||-2----------0----------2----------3----------2----------0-------------------------------10-||
||-2----------1----------2----------2----------2----------1----------------------------------||
||-------------------------------------------------------------------------------------------||
||-------------------------------------------------------------------------------------------||
||-------------------------------------------------------------------------------------------||

Train  roll  on,  on  down the line, Won't you please take me far away?


        (guitar 3)
||-------------------------------------3<2>3<2-----------------------------------------------||
||-------2---------------------------3--------3-------2-------------5-3--5-3--5-3--5-3-------||
||-----2--2--------1---------2-----2----------------2--2--------1----------------------------||
||---2-----2-----2--2------4--4--0----------------2-----2-----2--2---------------------------||
||-0-----------2-----2---4-----4----------------0-----------2-----2--------------------------||
||-----------0---------2----------------------------------0----------------------------------||
||      (guitar 2)                                                                           ||
||-0--0-0-0---0-0---0--2--2-2-2--2-2---------0--0-0-0---0-0------------0-----0-----0-----0---||
||-2--2-2-2---0-0---0--2--2-2-2--3-3---------2--2-2-2---0-0--------------3-----3-----3-----3-||
||-2--2-2-2---1-1---1--2--2-2-2--2-2---------2--2-2-2---1-1----------------------------------||
||-2--2-2-2---2-2---2--4--4-4-4--0-0---------2--2-2-2---2-2----------------------------------||
||-0--0-0-0---2-2---2--4--4-4-4--0-0---------0--0-0-0---2-2----------0-----0-----0-----0-----||
||-0--0-0-0---0-0---0------------------------0--0-0-0---0-0----------------------------------||
||      (guitar 1)                                                                           ||
||-0----------0----------2----------2----------0----------0--------12-10-12-10-12-10-12-10---||
||-2----------0----------2----------3----------2----------0----------------------------------||
||-2----------1----------2----------2----------2----------1----------------------------------||
||-------------------------------------------------------------------------------------------||
||-------------------------------------------------------------------------------------------||
||-------------------------------------------------------------------------------------------||

Now i feel the wind blow, outside my door, I'm leaving my woman at home


CHORUS: (basically i showed where the chords change)
        (guitar 3)
||-------------------------------------------------------------------------------------------||
||-------------------------------------------------------------------------------------------||
||-2-----------4------------------7-----------2-------------1----------------7---------------||
||-2-----------5------------------7-----------2-------------2----------------7---------------||
||-0-----------5------------------5-----------0-------------2----------------5---------------||
||-0-----------3------------------5-----------0-------------0----------------5---------------||
||      (guitar 2)                                                                           ||
||-0-----------3------------------2-----------0-------------0----------------2--3---3---3----||
||-2-----------0------------------3-----------2-------------0----------------3----0---0---0--||
||-2-----------0------------------2-----------2-------------1----------------2---------------||
||-2-----------0------------------0-----------2-------------2----------------0---------------||
||-0-----------2------------------0-----------0-------------2----------------0---------------||
||-------------3-----------------------------------------------------------------------------||
||      (guitar 1)                                                                           ||
||-0-----------3------------------2--2-2--2-0-0-------------0----------------2---------------||
||-2-----------0------------------3--3-3--3-2-2-------------0----------------3---------------||
||-2-----------0------------------------------2-------------1----------------2---------------||
||-2-----------0------------------------------2-------------2----------------0---------------||
||-2-----------2------------------------------0-------------2----------------0---------------||
||-------------3-----------------------------------------------------------------------------||

  Tuesdays    gone   with  the    wind,             My   babys   gone   with    the    wind


BRIDGE:
        (guitar 3)
||-------------------------------------------------------------------------------------------||
||-------------------------------------------------5--5--------------------------------------||
||-4^^^-2--4^-2-4`4---4^^`---2-----------------2>4-4^-6\4-2--4-4---4--5-3--5-3--5-3--5-3-----||
||-----------------2------4-----------------2>4------------2-4-4>6-4-------------------------||
||----------------------------5\4/5\4/5--2>4-------------------------------------------------||
||-------------------------------------------------------------------------------------------||
||      (guitar 2)                                                                           ||
||-0--0-0-0---0-0---0--2--2-2-2--2-2----0--0-0-0---0-0------0-----0-----0-----0--------------||
||-2--2-2-2---0-0---0--2--2-2-2--3-3----2--2-2-2---0-0--------3-----3-----3-----3--2-3-5-2---||
||-2--2-2-2---1-1---1--2--2-2-2--2-2----2--2-2-2---1-1-------------------------------------2-||
||-2--2-2-2---2-2---2--4--4-4-4--0-0----2--2-2-2---2-2---------------------------------------||
||-0--0-0-0---2-2---2--4--4-4-4--0-0----0--0-0-0---2-2----0-----0-----0-----0----------------||
||-0--0-0-0---0-0---0-------------------0--0-0-0---0-0---------------------------------------||
||      (guitar 1)                                                                           ||
||-0----------0----------2----------2----------0----------0---12-10-12-10-12-10--9-10-12-9---||
||-2----------0----------2----------3----------2----------0-------------------------------10-||
||-2----------1----------2----------2----------2----------1----------------------------------||
||-------------------------------------------------------------------------------------------||
||-------------------------------------------------------------------------------------------||
||-------------------------------------------------------------------------------------------||


VERSE 2: (same as verse 1)

And I don't know, where i'm going, I just want to be left alone

Well when this train ends, I'll try again, but i'm leaving my woman at home


CHORUS: (same idea behind other chorus)

A               G               D    A          G               D
Tuesdays gone with the wind, Tuesdays gone with the wind

A               G               D    A          E               D 
Tuesdays gone with the wind, My baby's gone with the wind


INTERLUDE: 

Piano does it's thing
               
|-----------------------------------------------------------------5--12`--12-|
|-------------------------------------------------------------7\5------------|
|-4^5-2--4^^---4`4^^----2-----------------4/6-4-2-4-4/6-4-2>4----------------|
|------------2------4-----4>2---------2>4------------------------------------|
|-----------------------------5---2>4----------------------------------------|
|----------------------------------------------------------------------------|


VERSE 3: (same as other verses)

Train roll on, many miles from my home, See I'm riding my blues away

Tuesday you see, she had to be free, but somehow i've got to carry on


CHORUS: (same as other chorus)

A               G               D    A          G               D
Tuesdays gone with the wind, Tuesdays gone with the wind

A               G               D    A          E               D 
Tuesdays gone with the wind, My baby's gone with the wind


SOLO/OUTRO: (guitar 3)
|--------------------------------------------------------------------------------------|
|-12^^^-10--12^^^-12---------10-12-10-----10-9>10<9-7---5--10/9-9/7-7/5-5/3-2>3<2------|
|--------------------9--9>11----------11------------------------------------------4--2-|
|--------------------------------------------------------------------------------------|
|--------------------------------------------------------------------------------------|
|--------------------------------------------------------------------------------------|

|--------------------------------------------------------------------------------------|
|--------------------------------------------------------5-7/10-10/12-----10------12---|
|---2-4-4^^---------2>4<2----2-2----2-2------------2>4/6-------------------------------|
|-4---------2---2>4-------4------4------4------2>4-------------------------------------|
|------------------------------------------2>4-----------------------------------------|
|--------------------------------------------------------------------------------------|

|-----12----------------------------------------------------------17-------------------|
|-12^----12^-12-----12-12^-12-10----10/19-19-19-17/19-19-19-19\17----19\17----17-------|
|--------------------------------11----------------------------------------18----17\16-|
|--------------------------------------------------------------------------------------|
|--------------------------------------------------------------------------------------|
|--------------------------------------------------------------------------------------|

|----------------------------------------------------------17-17------17-17-----17-17--|
|------------------17--17--17--------------------------17^--------17^-------17^--------|
|-14-------14--16--16^-16^-16^--------16`-16-14----14----------------------------------|
|----14>16---------------------14`--------------16-------------------------------------|
|--------------------------------------------------------------------------------------|
|--------------------------------------------------------------------------------------|

|--------------------------------------------------------------------------------------|
|-17^-17----17-----------17--17-17----17--------------17/19-19-19-19-19-19-17/19-19-19-|
|--------16-----14---16--16^----16^---16^-16/14----14----------------------------------|
|-----------------------------------------------16-------------------------------------|
|--------------------------------------------------------------------------------------|
|--------------------------------------------------------------------------------------|
                                                           v this part is gradually fading out v
|----------------17-------17--------17-|-----------------------------------------------|
|-19-19-19-19\17----19\17-----19\17----|-19\17----17-----------------------17-17-17----|
|--------------------------------------|-------18----17\16-14-------14--16-16^16^16^---|
|--------------------------------------|----------------------14>16-----------------14-|
|--------------------------------------|-----------------------------------------------|
|--------------------------------------|-----------------------------------------------|


Gimme Three Steps:



  Intro
  (Guitar 1)
|------------------------------|-----------------------------|
|------------------------------|-----------------------------|
|--7-7---7-7---7-------7-------|-2-2---2-2---2-------2-------|
|--7-7---7-7---7-------7-------|-2-2---2-2---2-------2-------|
|------9-----9-----7-9---7-9-0-|-----4-----4-----2-4---2-4-0-|
|------------------------------|-----------------------------|


  (Guitar 1)
|---------------------------|---------------------------------|
|---------------------------|---------------------------------|
|-7-7---7-7---7-----7-------|-2-2---2-2-----7---7-7---7-------|
|-7-7---7-7---7-----7-------|-2-2---2-2-----7---7-7---7-------|
|-----9-----9---7-9---7-9-0-|-0-0---0-0-7/9---9-----9---------|
|---------------------------|---------------------------------|


  (Guitar 1)
|-------------------------------------------------------|
|-------------------------------------------------------|
|--7--7-----7--7-----7---7---7---7---7----7---7---7-----|
|--7--9-----7--9-----7---7---9---7---10---7---9---7-----|
|--0--0-----0--0-----0---0---0---0---0----0---0---0-----|
|-------------------------------------------------------|
|
|(Guitar 2)
|-------------------------------------------------------|
|-10-------10---10---10----7--7-10-7--10------7---7-9-7-|
|--9b(11)-(11) (11) (11)r9-7--7--9-7---9b11r9-7---7-9-7-|
|-----------------------------------------------9-------|
|-------------------------------------------------------|
|-------------------------------------------------------|
      (hold the bend)

  (Guitar 1)
|-----------------------------|
|-----------------------------|
|-2-2---2-2---2-2-2-2-2-2-2-2-|
|-2-4---2-4---2-2-4-2-5-2-4-2-|
|-0-0---0-0---0-0-0-0-0-0-0-0-|
|-----------------------------|
|
| (Guitar 2)
|-----------------------------|
|---5----5------------------7-|
|---4b6--4b6r4----------7-9---|
|-----------------------------|
|---------------3b--0---------|
|-----------------------------|


 (Guitar 1)
|-------------------------------------------------------|
|-------------------------------------------------------|
|--7--7-----7--7-----7---7---7---7---7----7---7---7-----|
|--7--9-----7--9-----7---7---9---7---10---7---9---7-----|
|--0--0-----0--0-----0---0---0---0---0----0---0---0-----|
|-------------------------------------------------------|
|
| (Guitar 2)
|---------------------------------------------------------|
|-10----------10----------10-------10---10----10------7---|
|--9b11r9-7----9b11r9-7----9b(11)-(11)-(11)r9--9b11r9-7---|
|-----------9-----------9-------------------------------9-|
|---------------------------------------------------------|
|---------------------------------------------------------|


  (Guitar 1)
|--------------------------|
|----------------------14--|
|-----------------2----14--|
|-----------2-----2----14--|
|-------2-4---3b--0--------|
|-0-3-4--------------------|
|
| (Guitar 2)
|--------------------------|
|----------------------14--|
|-----------------2----14--|
|-----------2-----2----14--|
|-------2-4---3b--0--------|
|-0-3-4--------------------|


 (Guitar 1)
|---------------------------------------------------|
|---------------------------------------------------|
|--7--7---7--7---7---7---7---7---7----7---7---7-----|
|--7--9---7--9---7---7---9---7---10---7---9---7-----|
|--0--0---0--0---0---0---0---0---0----0---0---0-----|
|---------------------------------------------------|
|
| (Guitar 2)
|----------------------11---------11----------------|
|-10-------7---7--10--------10----------------------|
|--9b11r9--7---7---9b11------9b11-------------------|
|------------9--------------------------------------|
|---------------------------------------------------|
|---------------------------------------------------|


  (Guitar 1)
|--------------------0-|
|--------------------0-|
|------4---------1-----|
|------5---------2-----|
|------5---------2-----|
|-/3---3---3-2-1-0-----|
|
| (Guitar 2)
|----------------------|
|----------------------|
|----------------------|
|-/5---5---5-4-3-2-----|
|----------------------|
|----------------------|



 (Guitar 1)
|---------------------------------------------------|
|---------------------------------------------------|
|--7--7---7--7---7---7---7---7---7----7---7---7-----|
|--7--9---7--9---7---7---9---7---10---7---9---7-----|
|--0--0---0--0---0---0---0---0---0----0---0---0-----|
|---------------------------------------------------|
|
| (Guitar 2)
|---------------------------------------------------|
|-10-----------7--7--10--7-10----7---7-10--7--------|
|--9b11r9b11r9-7--7---9--7--9b11-7---7--9--7--------|
|----------------------------------9----------------|
|---------------------------------------------------|
|---------------------------------------------------|

  (Guitar 1 &  2)
|----------------------------------|
|---------------7-------------7----|
|-2-2---2-------7---7-7---7---7----|
|-2-2---2-------7---7-7---7---7----|
|-0-0---0-3h4-----9-----9---9------|
|----------------------------------|

  Verse
  (Guitar 1)

  plays rhythm in bars 5-12, with flourishes on the E breaks, for instance:

|------------------------------------|
|------------------------------------|
|-----------------2---------2--------|
|-----------2-----2------------------|
|-------2-4---3b--0--0--2/4----4p3p0-|
|-0-3-4------------------------------|


Lead break #1  (well excuse me...)

  D
|------------------------------------------|
|-10-----------7-7---10-------7---7--10--7-|
|--9b11r9b11r9-7-7----9b11r9--7---7---9--7-|
|------------------9------------9----------|
|------------------------------------------|
|------------------------------------------|

  A
|----------------------------------------------|
|-5---5---5-----2--2---2--5------2----2--5--2--|
|-4b6-4b6-4b6r4-2--2---2--4b6r4--2----2--4--2--|
|--------------------4--------------4----------|
|----------------------------------------------|
|----------------------------------------------|

  D
|-------------------------------------------------------------|
|-10-------10---10---10---10---10---10---10---10----7--7-10-7-|
|--9b(11)-(11)-(11)-(11)-(11)-(11)-(11)-(11)-(11)r9-7--7--9-7-|
|-----------------------------------------------------9-------|
|-------------------------------------------------------------|
|-------------------------------------------------------------|

  A
|----------------------------------|
|---------------7-------------7----|
|-2-2---2-------7---7-7---7---7----|
|-2-2---2-------7---7-7---7---7----|
|-0-0---0-3h4-----9-----9---9------|
|----------------------------------|

Lead break #2 (for sure...)

  D
|------------------------------------------|
|-------10\9\7-10\9\7-10\9\7-10\9\7-10\9\7-|
|-------10\9\7-10\9\7-10\9\7-10\9\7-10\9\7-|
|---7-9-10\9\7-10\9\7-10\9\7-10\9\7-10\9\7-|
|-9----------------------------------------|
|------------------------------------------|

  A
|----------------------------------------|
|-5---5---5-----2---5-----2---2--5--2----|
|-4b6-4b6-4b6r4-2---4b6r4-2---2--4--2----|
|-----------------4---------4----------4-|
|----------------------------------------|
|----------------------------------------|

  D                                    A
|------------------------------------|--------------------------|
|-10\9\7-10\9\7-10\9\7-10\9\7-10\9\7-|----------------------14--|
|-10\9\7-10\9\7-10\9\7-10\9\7-10\9\7-|-----------------2----14--|
|-10\9\7-10\9\7-10\9\7-10\9\7-10\9\7-|-----------2-----2----14--|
|------------------------------------|-------2-4---3b--0--------|
|------------------------------------|-0-3-4--------------------|


  D                                    E
|------------------------------------|-----------------------|
|-10\9\7-10\9\7-10\9\7-10\9\7-10\9\7-|-------------------7---|
|-10\9\7-10\9\7-10\9\7-10\9\7-10\9\7-|-----------------7---9-|
|-10\9\7-10\9\7-10\9\7-10\9\7-10\9\7-|-/5---5---5-5-/9-------|
|------------------------------------|-----------------------|
|------------------------------------|-----------------------|


  D
|------------------------------------|
|-10\9\7-10\9\7-10\9\7-10\9\7-10\9\7-|
|-10\9\7-10\9\7-10\9\7-10\9\7-10\9\7-|
|-10\9\7-10\9\7-10\9\7-10\9\7-10\9\7-|
|------------------------------------|
|------------------------------------|

  A                D
|---------------------------------|
|-5\4\2--5\4--10\9\7---7--7-----7-|
|-5\4\2--5\4--10\9\7---7--7-----7-|
|-5\4\2--5\4--10\9\7---7--7-----7-|
|--------------------9-------9----|
|---------------------------------|

outtro lead
  D
|-------------------------------------------------------------
|-10-------10---10----10-------10---10----10-------10---10----
|--9b(11)-(11)-(11)r9--9b(11)-(11)-(11)r9--9b(11)-(11)-(11)r9-
|-------------------------------------------------------------
|-------------------------------------------------------------
|-------------------------------------------------------------

               A
------------|---------------------------------------------------|
-7---7-10-7-|---------------------------------------------------|
-7---7--9-7-|-----2------2--4b6-4b6-4b6r4p2---2-4b6r4p2---2-4-2-|
---9--------|-------------------------------4-----------4-------|
------------|-2h3----2h3----------------------------------------|
------------|---------------------------------------------------|

  D
|-------------------------------------------------------------
|-10-------10---10----10-------10---10----10-------10---10----
|--9b(11)-(11)-(11)r9--9b(11)-(11)-(11)r9--9b(11)-(11)-(11)r9-
|-------------------------------------------------------------
|-------------------------------------------------------------
|-------------------------------------------------------------

               A
------------|--------------------------|
-7---7-10-7-|----------------------14--|
-7---7--9-7-|-----------------2----14--|
---9--------|-----------2-----2----14--|
------------|-------2-4---3b--0--------|
------------|-0-3-4--------------------|

  D
|-------------------------------------------------------------
|-10-------10---10----10-------10---10----10-------10---10----
|--9b(11)-(11)-(11)r9--9b(11)-(11)-(11)r9--9b(11)-(11)-(11)r9-
|-------------------------------------------------------------
|-------------------------------------------------------------
|-------------------------------------------------------------

               A
------------|----------------------|
-7---7-10-7-|----------------------|
-7---7--9-7-|----------------------|
---9--------|-/5---5---5-4-3-2-----|
------------|----------------------|
------------|----------------------|

  D
|-------------------------------------------------------------
|-10-------10---10----10-------10---10----10-------10---10----
|--9b(11)-(11)-(11)r9--9b(11)-(11)-(11)r9--9b(11)-(11)-(11)r9-
|-------------------------------------------------------------
|-------------------------------------------------------------
|-------------------------------------------------------------


------------|----------------------------------|
-7---7-10-7-|---------------7-------------7----|
-7---7--9-7-|-2-2---2-------7---7-7---7---7----|
---9--------|-2-2---2-------7---7-7---7---7----|
------------|-0-0---0-3h4-----9-----9---9------|
------------|----------------------------------|



Simple Man:



Intro: (clean) x2
|-------------------------------------------------------------3------|
|-------------1-------------------------------1---------1-------1----|
|-------0-------0---0---------0---------2-------2---2-----2----------|
|---------2-------2-----0-------0---0-----2-------2---------2--------|
|-0-2-3-----3-------------2-------2---0-----0---------0-----------0-2|
|---------------------3-----3----------------------------------------|

Then this along with the intro: (clean) x2
|-----------------------------------------------------------3--------|
|-----------1-------------------------------1-------1-----------1----|
|-------0-------0---0-------0-----------2-------2-------2------------|
|---------2-------2-----0-------0---0-----2-------2-------2----------|
|-0-2-3-------------------2-------2---0---------------------------0-2|
|---------------------3----------------------------------------------|

Then both of those riffs plus this: (light distortion)
|--------------------------------------------------------------------|
|--------------------------------------------------------------------|
|--------------------------------------------------------------------|
|------------------2-------------------------------------------------|
|-0-2-3------3--------------------2-0------0-----0--0------0------0-2|
|--------------------3-------3---------------------------------------|


Verse:
The clean riffs play along with eachother 4 times


Interlude: (Heavy distortion) x2
|--------------------------------------------------------------------|
|--------------------------------------------------------------------|
|--------------------------------------------------------------------|
|--------------------------------------------------------------------|
|-0-2--3------5b7r5-3---------5b7r5-3-(0)----------------------------|
|----------------------3---------------5-----0--3--0--3//5-------0---|


Verse 2: Same as first verse


Chorus: (Heavy Distortion) x4
|--------------------------------------------------------------------|
|--------------------------------------------------------------------|
|--------------------------------------------------------------------|
|--10-----------10\5--5-----------5---7-----------------7--------x---|
|--10-----------10\5--5-----------5---7-----------------7--------x---|
|--8------------8\\3--3-----------3---5----------0-3-0--5--------x---|


Verse 3: same as other verses

Chorus: same as first chorus

Solo: Over the chords Ab, Cb,and Gb
|--------------------------------------------------------------------|
|--------------------------------------------------------------------|
|------5-7--7^vvvvvvvvvvvv--7^7-5--7-----------------7^7-5-----------|
|--------------------------------------------------------------7....-|
|--------------------------------------------------------------------|
|--------------------------------------------------------------------|

|--------------8-----------------------------------------------------|
|----8-10-10------10----------20---------20--------------------------|
|-/9--------------------17-19-19^vvvvvvv---19^19--17--19----19^19-17-|
|--------------------/19---------------------------------------------|
|--------------------------------------------------------------------|
|--------------------------------------------------------------------|

|----------------17--19``20``20^`21--20^----17--------------------------------------------17--|
|---20`22vvvvv-17-----------------------------17--20`22vvvvvvv--20^20-17-20-------------------|
|------------------------------------------------------------------------------------19`21----|
|-19------------------------------------------------------------------------------------------|
|---------------------------------------------------------------------------------------------|
|---------------------------------------------------------------------------------------------|

|---------------17--------------17---------17----------------|
|-20`-------------20`-------------20`----17--17-20`----------|
|---------19`21vv---------1921vv-------------------------5-7-|
|------------------------------------------------------7-----|
|------------------------------------------------------------|
|------------------------------------------------------------|

|--------------------------------------5------------------------------------------------|
|--------------10-----------------------5--8`10vvvv-------------------------------------|
|-7^`9vvvvvv--------7^7---5-7^7vvvv-7`--------------------------------------------17-19-|
|------------------------------------------------------------------------17-17>19-------|
|--------------------------------------------------------15-17--17/19-19----------------|
|----------------------------------------------------/17--------------------------------|

|-----------------------------------------------------------------------------------|
|----------------20---------------20-------------20`22vvvvvvv--8--------------------|
|-19`21vvvv---------19^19------------19^19-17--------------------7^7--5-------------|
|-------------/19--------------------------------------------------------7----------|
|-------------------------------------------------------------------------------0-2-|
|-----------------------------------------------------------------------------------|



Things Goin On:



e-------------------------------12*----------------------------------------|
B----------------x-x----------------------------------x-x--------------3---|
G----------------x-x----------------------------------x-x--------4-2-4---4-|
D-----2-4b-2---2-x-x-----2/(14)------------2-4b-2---2-x-x-----2------------|
A-2h4--------4---x-x-2h4---------------2h4--------4---x-x-2h4--------------|
E--------------------------------------------------------------------------|

e--------------------------------------------------------------------------|
B----------x-x--------------1-3--------------------------------------------|
G----------x-x--------2-0-2------------------------------------------------|
D-4b-2---2-x-x-----2-------------4b-2---2-----------------2----------------|
A------4---x-x-2h4--------------------4---4-2---------2h4------------------|
E---------------------------------------------3-0--/4----------------------|

e----------------------------------12*--------------------------------------|
B-------------------x-x-------------------------------------------------3-3-|
G-------------------x-x-------------------------------------------4-2-4-----|
D-----2-4b-4b-2---2-x-x-----2/(14)------------2-4b-2---4b-2-2---------------|
A-2h4-----------4---x-x-2h4---------------2h4--------4--------4-2-----------|
E---------------------------------------------------------------------------|

e---------------------------------------------------------------------------|
B----------x-x--------------3-2---------------------------------------------|
G----------x-x--------2-0-2-------------------------------------------------|
D-4b-2---2-x-x-----2---------------4b-2---2-----------------2---------------|
A------4---x-x-2h4----------------------4---4-2---------2h4-----------------|
E-----------------------------------------------3-0-0/4---------------------|

Here are the chords used for this song:

    E    B    A7   Riff 1
e|------------0---------------|
B|-------4----2---------------|
G|--1----4----0---------------|
D|--2----4----2-----------2---|
A|--2----2------------2h4-----|
E|--0--------------/4---------|

         E
Have you ever lived down in the ghetto
         E                       B
Have you ever felt the cold wind blow
             E
Well, if you don't know what I mean
          A7
Won't you stand up and scream
               E            B                 E   riff 1
'Cause there's things goin' on that you don't know

         E
Too many lives they've spent across the ocean
         E                         B
Too much money been spent upon the moon
        E
Well, until they make it right
            A7
I hope they never sleep at night
            E         B                 E   riff 1
They better make some changes and do it soon

              E
They're gonna ruin the air we breathe, Lord have mercy
              E                   B
They're gonna ruin us all, by and by
            E
I'm telling all you beware
        A7
I don't think they really care
             E           B                  E   riff 1
I think they just sit up there and just get high

         E
Have you ever lived down in the ghetto
         E                       B
Have you ever felt the cold wind blow
             E
Well, if you don't know what I mean
          A7
Won't you stand up and scream
               E            B                 E   riff 1
'Cause there's things goin' on that you don't know

             E
Well, if you don't know what I mean
          A7
Won't you stand up and scream
               E            B                 E
'Cause there's things goin' on that you don't know

e|----12-----------------------12------------------------------10-10-----------|
B|-12----12----9--9-9-9--9--12-----12--9--9-9-9-------12-10-12-----------------|
G|-11b---11r---9--9-9-9--9--11b----11r-9--9-9-9--------------------------------|
D|--------------11-----11---------------11------11p9---------------------------|
A|-----------------------------------------------------------------------------|
E|-----------------------------------------------------------------------------|

e|----12------------------------------------12---------------------------------|
B|-12----12---9-----10-12-10-10----------12----12--9-9-------------------------|
G|-11b---11r--9--9-----------------9-----11b---11r-9-9--9----------------------|
D|-------------11--------------9h11-------------------11-----------------------|
A|-----------------------------------------------------------------------------|
E|-----------------------------------------------------------------------------|

e|-----------12---12---12---12---12---12---12----------------------------------|
B|-----------------------------------------------------------------------------|
G|-----9--11b--11b--11b--11b--11b--11b--11b--11br9-9----9----------------------|
D|-9h11---------------------------------------------9h11-----------------------|
A|-----------------------------------------------------------------------------|
E|-----------------------------------------------------------------------------|

e|----12---12---12---12---12-----------------10--------------------------------|
B|----------------------------------12-10-12----12-----------------------------|
G|-11b--11b--11b--11b--11b-----------------------------------------------------|
D|----------------------------9s11---------------------------------------------|
A|-----------------------------------------------------------------------------|
E|-----------------------------------------------------------------------------|

e|----12-----------------------------------------------------------------------|
B|-----------------------------------------------------------------------------|
G|-11b--11rp9-11-9-9-----9-----9-----9-----9-9-----9---------------------------|
D|-------------------9h11--9h11--9h11--9h11----9h11----------------------------|
A|-----------------------------------------------------------------------------|
E|-----------------------------------------------------------------------------|

e|----12-----------------------------------------------------------------------|
B|-----------------------------------------------------------------------------|
G|-11b--11rp9-11-9----------------------------9--------------------------------|
D|-----------------11-9-------------------9h11---------------------------------|
A|----------------------11p10p9-11----9s11-------------------------------------|
E|--------------------------------12-------------------------------------------|

e|-------------------12----12----12----12----12----12----12------------------|
B|------12-14------12----12----12----12----12----12----12--------------------|
G|-11s13---------13----13----13----13----13----13----13----------------------|
D|---------------------------------------------------------------------------|
A|---------------------------------------------------------------------------|
E|---------------------------------------------------------------------------|

e|-----12----12----12-------12---14brp12------19\----------------------------|
B|---12----12----12----12-14--14--------14-12--------------------------------|
G|-13----13----13----13------------------------------------------------------|
D|---------------------------------------------------------------------------|
A|---------------------------------------------------------------------------|
E|---------------------------------------------------------------------------|

e|-----12----12----12----12----12-------17-15-21-19-17-----------------------|
B|---12----12----12----12----12----------------------------------------------|
G|-13----13----13----13----13-----13s16--------------------------------------|
D|---------------------------------------------------------------------------|
A|---------------------------------------------------------------------------|
E|---------------------------------------------------------------------------|

e|-9s12-------------------12---------------------------------------------------|
B|-----12---------12--------12-------------------------------------------------|
G|-------11br9-11b--11rp9-----11brp9-------------------------------------------|
D|-----------------------------------------------------------------------------|
A|-----------------------------------------------------------------------------|
E|-----------------------------------12\---------------------------------------|



Mississippi Kid:



(Verse 1)

              E
  I’ve got my pistols in my pockets boys,


  I’m Alabama bound.

              A
  I’ve got my pistols in my pockets boys, I’m

              E
  I’m Alabama bound.

                B7
  Well, I’m not looking for no trouble

                      E 
  But nobody dogs me ‘round.



(Verse 2)

            E
  Well, I’m going to fetch my woman, people


  Tri-cities here I come.

            A
  Well, I’m going to fetch my woman, people

                    E
  Tri-cities here I come

                 B7
  ‘Cause she was raised up on that cornbread

                                         E
  And I know that woman’ll gonna give me some.



(Verse 3) 

           E
  When the kid hits Alabama, people


  Don’t you try and dog him ‘round.

               A
  Now when the kid hits Alabama, people

                             E
  Don’t you try and dog him ‘round.

                B7
  ‘Cause if you people cause me trouble,

                                  E
  Then I’ve got to put you in the ground.



(Verse 4)

              E
  Well, I was born in Mississippi


  And I don’t take any stuff from you

              A
  Well, I was born in Mississippi

                                  E
  And I don’t take any stuff from you

           B7
  And if I hit you on your head

                                      E
  Boy, it’s got to make you black and blue.



(Verse 5)

            E
  Well, I’m going to Alabama


  Got my pistols out by my side

          A
  Well, I ride to Alabama

                            E
  With my pistols out by my side

         B7 
  ‘Cause down in Alabama

                                  E        
  You can run, but you sure can’t hide



(Outro chord)
 

 E7 



Poison Whiskey:



e|-------------------------------------------------|
B|-------------3------x--x--x-----5---3------------|
G|-------------3h4----x--x--x-----5---3h4~~~~------|
D|--5----x--x------------------5-------------------|
A|--5----x--x--------------------------------------|
E|-------------------------------------------------|

e|-------------------------------------------------|
B|-------------3------x--x--x-----5---3------------|
G|-------------3h4----x--x--x-----5---3h4~~~~------|
D|--5----x--x------------------5-------------------|
A|--5----x--x--------------------------------------|
E|-------------------------------------------------|

e|-------------------------------------------------|
B|-------------3------x--x--x-----5---3------------|
G|-------------3h4----x--x--x-----5---3h4~~~~------|
D|--5----x--x------------------5-------------------|
A|--5----x--x--------------------------------------|
E|-------------------------------------------------|

e|-------------------------------------------------|
B|-------------3------x--x--x-----5---3------------|
G|-------------3h4----x--x--x-----5---3h4~~~~------|
D|--5----x--x------------------5-------------------|
A|--5----x--x--------------------------------------|
E|-------------------------------------------------|


(Rhythm for Intro Guitar Solo)

e|-------------------------------------------------|
B|-------------------------------------------------|
G|--8--------7-------------------------------------|
D|--8--------7-------------------------------------|
A|--6--------5--------3------------3---------------|
E|----------------------0--1--2--3---0--1--2--3----|

e|-------------------------------------------------|
B|-------------------------------------------------|
G|--8--------7-------------------------------------|
D|--8--------7-------------------------------------|
A|--6--------5-------------------------------------|
E|-------------------------------------------------|


(Intro Guitar Solo)

e|-------------------------------------------------|
B|---------15--------------------------------------|
G|--15b--------15-----------------------15---------|
D|-------------------17p15---17--15/17------15--17-|
A|-------------------------------------------------|
E|-------------------------------------------------|

e|-------------------------------------------------|
B|-------------------------------------------------|
G|----8-----8--------7-----5-----------------------|
D|------8-----8--------7-----7---------------------|
A|--6-----6--------5-----5-------------------------|
E|-------------------------------------------------|

e|-------------------------------------------------|
B|-------------3------x--x--x-----5---3------------|
G|-------------3h4----x--x--x-----5---3h4----------|
D|--5----x--x------------------5-----------5p3-5---|
A|--5----x--x--------------------------------------|
E|-------------------------------------------------|

e|-------------------------------------------------|
B|-------------------------------------------------|
G|--15b~~~~~~------------------/19\----------------|
D|-------------------------------------------------|
A|-------------------------------------------------|
E|-------------------------------------------------|


(Verse 1)

e|-------------------------------------------------|
B|-------------3------x--x--x-----5---3------------|
G|-------------3h4----x--x--x-----5---3h4----------|
D|--5----x--x------------------5-----------5p3-----|
A|--5----x--x--------------------------------------|
E|-------------------------------------------------|

e|-------------------------------------------------|
B|-------------3------x--x--x-----5---3------------|
G|-------------3h4----x--x--x-----5---3h4----------|
D|--5----x--x------------------5-----------5p3-----|
A|--5----x--x--------------------------------------|
E|-------------------------------------------------|

e|-------------------------------------------------|
B|-------------3------x--x--x-----5---3------------|
G|-------------3h4----x--x--x-----5---3h4----------|
D|--5----x--x------------------5-----------5p3-----|
A|--5----x--x--------------------------------------|
E|-------------------------------------------------|

e|-------------------------------------------------|
B|-------------3------x--x--x-----5---3------------|
G|-------------3h4----x--x--x-----5---3h4----------|
D|--5----x--x------------------5-----------5p3-----|
A|--5----x--x--------------------------------------|
E|-------------------------------------------------|

e|-------------------------------------------------|
B|-------------8------x--x--x------10---8----------|
G|-------------8h9----x--x--x------10---8h9--------|
D|-10----x--x------------------10-----------10p8---|
A|-10----x--x--------------------------------------|
E|-------------------------------------------------|

e|-------------------------------------------------|
B|-------------8------x--x--x--x------10\----------|
G|-------------8h9----x--x--x--x------10\----------|
D|-10----x--x---------------------10---------------|
A|-10----x--x--------------------------------------|
E|-------------------------------------------------|

e|-------------------------------------------------|
B|-------------3------x--x--x-----5---3------------|
G|-------------3h4----x--x--x-----5---3h4----------|
D|--5----x--x------------------5-----------5p3-----|
A|--5----x--x--------------------------------------|
E|-------------------------------------------------|

e|-------------------------------------------------|
B|-------------3------x--x--x-----5---3------------|
G|-------------3h4----x--x--x-----5---3h4----------|
D|--5----x--x------------------5-----------5p3-----|
A|--5----x--x--------------------------------------|
E|-------------------------------------------------|

e|-------------------------------------------------|
B|-------------------------------------------------|
G|--8--------7--------3--5---3--5---3--5---3--5--3-|
D|--8--------7--------3--5---3--5---3--5---3--5--3-|
A|--6--------5-------------------------------------|
E|-------------------------------------------------|

e|-------------------------------------------------|
B|-------------3------x--x--x-----5---3-----------5|
G|-------------3h4----x--x--x-----5---3h4---------5|
D|--5----x--x------------------5-----------5p3-5---|
A|--5----x--x--------------------------------------|
E|-------------------------------------------------|


(Verse 2)

e|-------------------------------------------------|
B|-------------3------x--x--x-----5---3------------|
G|-------------3h4----x--x--x-----5---3h4----------|
D|--5----x--x------------------5-----------5p3-----|
A|--5----x--x--------------------------------------|
E|-------------------------------------------------|

e|-------------------------------------------------|
B|-------------3------x--x--x-----5---3------------|
G|-------------3h4----x--x--x-----5---3h4----------|
D|--5----x--x------------------5-----------5p3-----|
A|--5----x--x--------------------------------------|
E|-------------------------------------------------|

e|-------------------------------------------------|
B|-------------3------x--x--x-----5---3------------|
G|-------------3h4----x--x--x-----5---3h4----------|
D|--5----x--x------------------5-----------5p3-----|
A|--5----x--x--------------------------------------|
E|-------------------------------------------------|

e|-------------------------------------------------|
B|-------------3------x--x--x-----5---3------------|
G|-------------3h4----x--x--x-----5---3h4----------|
D|--5----x--x------------------5-----------5p3-----|
A|--5----x--x--------------------------------------|
E|-------------------------------------------------|

e|-------------------------------------------------|
B|-------------8------x--x--x------10---8----------|
G|-------------8h9----x--x--x------10---8h9--------|
D|-10----x--x------------------10-----------10p8---|
A|-10----x--x--------------------------------------|
E|-------------------------------------------------|

e|-------------------------------------------------|
B|-------------8------x--x--x--x------10\----------|
G|-------------8h9----x--x--x--x------10\----------|
D|-10----x--x---------------------10---------------|
A|-10----x--x--------------------------------------|
E|-------------------------------------------------|

e|-------------------------------------------------|
B|-------------3------x--x--x-----5---3------------|
G|-------------3h4----x--x--x-----5---3h4----------|
D|--5----x--x------------------5-----------5p3-----|
A|--5----x--x--------------------------------------|
E|-------------------------------------------------|

e|-------------------------------------------------|
B|-------------3------x--x--x-----5---3------------|
G|-------------3h4----x--x--x-----5---3h4----------|
D|--5----x--x------------------5-----------5p3-----|
A|--5----x--x--------------------------------------|
E|-------------------------------------------------|

e|-------------------------------------------------|
B|-------------------------------------------------|
G|--8--------7--------3--5---3--5---3--5---3--5--3-|
D|--8--------7--------3--5---3--5---3--5---3--5--3-|
A|--6--------5-------------------------------------|
E|-------------------------------------------------|


(Guitar Solo)

  Hold bend-------------------------------|
e|-------------------------------------------------|
B|-------------------------------------------------|
G|-5b--5b-5b-5b-5b-5b-5b-5b-5b-5b-5b-5b-5br-3------|
D|-------------------------------------------------|
A|-------------------------------------------------|
E|-------------------------------------------------|
      
e|-------------------------------------------------|
B|--4b-4b~~~~--4br-----4b---4--4b--4b~~~~----------|
G|------------------5------------------------------|
D|-------------------------------------------------|
A|-------------------------------------------------|
E|-------------------------------------------------|

  Hold Bend
e|-------------------------------------------------|
B|----------3-6b---6-6b---6-6b---6-6b---6----------|
G|-5b-5b-5b----------------------------------------|
D|-------------------------------------------------|
A|-------------------------------------------------|
E|-------------------------------------------------|

e|--6-5-6-5-6-5-6-5b---5--3------------------------|
B|-------------------------------------------------|
G|---------------------------5brp3-----------------|
D|---------------------------------5---------------|
A|-------------------------------------------------|
E|-------------------------------------------------|

e|-------------------------------------------------|
B|-------------------------------------------------|
G|-------------------------------------------3-----|
D|-3--5--5--3--5--5--3--5--5--3--5--5--3--5--------|
A|-------------------------------------------------|
E|-------------------------------------------------|
   Gradual Bend
e|-------------------------------------------------|
B|-------------------------------------------------|
G|-3b--3b-3b-3b-3b-3b-3b-3b-3b-3b-3b-3b-3b-3b-3br--|
D|-------------------------------------------------|
A|-------------------------------------------------|
E|-------------------------------------------------|

e|-------------------------------------------------|
B|-------------------------------------------------|
G|--------------------------2b*--2-----------------|
D|--5--3--5----5----5----3----------5--3--5-/--14--|
A|-------------------------------------------------|
E|-------------------------------------------------|

e|-------------------------------------------------|
B|------------------15b---15--13-------------------|
G|----------12--------------------14--12--14--12---|
D|--14--14------14---------------------------------|
A|-------------------------------------------------|
E|-------------------------------------------------|

e|-------------------------------------------------|
B|-------------------------------------------------|
G|--x--x--x--x--\---x---\---x---\---x---\----------|
D|--x--x--x--x--\---x---\---x---\---x---\----------|
A|-------------------------------------------------|
E|-------------------------------------------------|

e|-------------------------------------------------|
B|-------------------------------------------------|
G|--3--5---3--5---3--5---3--5--3-------------------|
D|--3--5---3--5---3--5---3--5--3-------------------|
A|-------------------------------------------------|
E|-------------------------------------------------|

*Piano Solo*

Repeat Rhythm same as verses 


(Verse 3)

e|-------------------------------------------------|
B|-------------3------x--x--x-----5---3------------|
G|-------------3h4----x--x--x-----5---3h4----------|
D|--5----x--x------------------5-----------5p3-----|
A|--5----x--x--------------------------------------|
E|-------------------------------------------------|

e|-------------------------------------------------|
B|-------------3------x--x--x-----5---3------------|
G|-------------3h4----x--x--x-----5---3h4----------|
D|--5----x--x------------------5-----------5p3-----|
A|--5----x--x--------------------------------------|
E|-------------------------------------------------|

e|-------------------------------------------------|
B|-------------3------x--x--x-----5---3------------|
G|-------------3h4----x--x--x-----5---3h4----------|
D|--5----x--x------------------5-----------5p3-----|
A|--5----x--x--------------------------------------|
E|-------------------------------------------------|

e|-------------------------------------------------|
B|-------------3------x--x--x-----5---3------------|
G|-------------3h4----x--x--x-----5---3h4----------|
D|--5----x--x------------------5-----------5p3-----|
A|--5----x--x--------------------------------------|
E|-------------------------------------------------|

e|-------------------------------------------------|
B|-------------8------x--x--x------10---8----------|
G|-------------8h9----x--x--x------10---8h9--------|
D|-10----x--x------------------10-----------10p8---|
A|-10----x--x--------------------------------------|
E|-------------------------------------------------|

e|-------------------------------------------------|
B|-------------8------x--x--x--x------10\----------|
G|-------------8h9----x--x--x--x------10\----------|
D|-10----x--x---------------------10---------------|
A|-10----x--x--------------------------------------|
E|-------------------------------------------------|

e|-------------------------------------------------|
B|-------------3------x--x--x-----5---3------------|
G|-------------3h4----x--x--x-----5---3h4----------|
D|--5----x--x------------------5-----------5p3-----|
A|--5----x--x--------------------------------------|
E|-------------------------------------------------|

e|-------------------------------------------------|
B|-------------3------x--x--x-----5---3------------|
G|-------------3h4----x--x--x-----5---3h4----------|
D|--5----x--x------------------5-----------5p3-----|
A|--5----x--x--------------------------------------|
E|-------------------------------------------------|

e|-------------------------------------------------|
B|-------------------------------------------------|
G|--8--------7-------------------------------------|
D|--8--------7-------------------------------------|
A|--6--------5--------3------------3---------------|
E|----------------------0--1--2--3---0--1--2--3----|

e|-------------------------------------------------|
B|-------------------------------------------------|
G|--8--------7-------------------------------------|
D|--8--------7-------------------------------------|
A|--6--------5-------------------------------------|
E|-------------------------------------------------|

e|-------------------------------------------------|
B|-------------3------x--x--x-----5---3------------|
G|-------------3h4----x--x--x-----5---3h4----------|
D|--5----x--x------------------5-----------5p3-5---|
A|--5----x--x--------------------------------------|
E|-------------------------------------------------|




Free Bird:



Intro Pt.1
E--3------0--0----1--0-----3--2--0--2-|
B--0------0--0----1--1-----3--3--3--3-|  x2
G--0------0--0----2--0-----2--2--2--2-|
D--0------2--2----3--2-----0--0--0--0-|
A--2------2--2----3--3----------------|
E--3--2---0--0----1-------------------|
   G      Em      F  C     D


Intro Pt.2  **Use a Slide**
E-------------------------------|
B--3>8--7>8--7--8---------------|
G-------------------------------|
D-------------------------------|
A-------------------------------|
E-------------------------------|
    G         D/F#
E--------------------------------------------------------------------------------|
B--8>7>5>3>5>7--5>3------------6-6-6-5-------------------------------------------|
G--------------------4--4>5-------------5-----------4-5--------------------------|
D------------------------------------------5>0--2>5------------------------------|
A--------------------------------------------------------------------------------|
E--------------------------------------------------------------------------------|
   Em                            F          C


E------------------------------------------------------------------|
B--3>2>3------15>14---->15---7>8--7>8--7>8--8--8>7>5>0--5>3--------|
G-------------------14--------------------------------------4-4>5--|
D------------------------------------------------------------------|
A------------------------------------------------------------------|
E------------------------------------------------------------------|
   D                           G       D/F#       Em

E--------------------------------------------------------------------------------------|
B-6-6-6-5----------------3>2>3---3>2---3---5>8-----------------------------------------|
G---------5----------4-5-------------2-------------------------------------------------|
D-----------5>0--2>5-------------------------------------------------------------------|
A--------------------------------------------------------------------------------------|
E--------------------------------------------------------------------------------------|


E--------------------------------------------------------|
B-----------------------------3>5----5>3-----------------|
G----------------------------------------4-4>5-----------|
D--------------------------------------------------------|
A--------------------------------------------------------|
E--------------------------------------------------------|
                     D/F#    Em
    1.If I leave here  tom___orow
    2.Bye Bye its been sweet love

E------------------------------------------------------------------------------|
B-----------------------3>2>3>15----15>13-------14>15>8------------------------|
G----------------4--5---------------------13>14--------------------------------|
D-----------0>5----------------------------------------------------------------|
A------------------------------------------------------------------------------|
E------------------------------------------------------------------------------|
     F            C                   D
   1.Would you still remember me?
   2.And though this feeling I cant change

E-----------------------------------|
B-7>8-------------------------------|
G-----------------------------------|
D-----------------------------------|
A-----------------------------------|
E-----------------------------------|
    G     D/F#
  1.For I must be travelling on
  2.Please Dont take it so


E--------------------------------------------|
B--3>5-----5>3-------------------------------|
G--------------4-4>5>4>5>0-------------------|
D--------------------------------------------|
A--------------------------------------------|
E--------------------------------------------|
    Em
 1. Now
 2.badly

E----------------------------------------------------------|
B---------------------------3>2>3>2>3>15-15>14>15>14>15>8--|
G----------------------------------------------------------|
D--------------------4--5----------------------------------|
A---------------0>5----------------------------------------|
E----------------------------------------------------------|
    F           C              D
  1.Cause theres to many places i've got to see
  2.The Lord knows I'm to blame

E--------------------------------------------------------------------------|
B--7>8-------------------------3>5----5>3----------------------------------|
G----------------------------------------4-4>5>4>5>0-----------------------|
D--------------------------------------------------------------------------|
A--------------------------------------------------------------------------|
E--------------------------------------------------------------------------|
    G      D/F#    Em
 1.But if I stay here with you girl
 2.And if I stayed here with you now

E----------------------------------------------------------------------------------------|
B-------------------3>2>3>15---15>14----15>14-15>14-14>15>8------------------------------|
G-------------4-5--------------------14--------------------------------------------------|
D---------0>5----------------------------------------------------------------------------|
A----------------------------------------------------------------------------------------|
E----------------------------------------------------------------------------------------|
    C
1.Things just couldn't be the same
2.Things just couldn't be the same

E-----------------------------------|
B--7>8------------------------------|
G-----------------------------------|
D-----------------------------------|
A-----------------------------------|
E-----------------------------------|
    G              D/F#
  1.Cause i'm free as a bird
  2.Cause I'm free as a bird

E--------------------------------------------------------------------|
B---8>7>5>0----5>3-------------------------3>2>3----3>2>3>2>3>2>3>0--|
G-------------------4-4>5-------------4-5----------------------------|
D---------------------------------0>5--------------------------------|
A--------------------------------------------------------------------|
E--------------------------------------------------------------------|
   Em                      F              C         D
  1.now,                    and this bird you cannon change  oh
  2.now                     and this bird you'll never change oh

E-----------------------------------------------------------------------------|
B--3>6---6>5---------------------15>14----15>14----14>15----14>15----14>15----|
G------------5--------5----------------14-------14------14-------14-------14--|
D--------------5>0>5-----5>12-------------------------------------------------|
A-----------------------------------------------------------------------------|
E-----------------------------------------------------------------------------|
    F                  C          D
    and this bird you cannot change.


E---------------------------------|
B--14>15----14>15>8---------------|
G--------14-----------------------|
D---------------------------------|
A---------------------------------|
E---------------------------------|


E---------------------------------------------------------------------------------------|
B--5>6--6>5---------------------------------------6>5-------------6>15------------------|
G-----------5--------4-5>2----5>7---2>10--------------5--------5------------------------|
D-------------5>0>5-------------------------------------5>0>5---------------------------|
A---------------------------------------------------------------------------------------|
E---------------------------------------------------------------------------------------|
   F          C                D                   F          C
      And this bird you cannot change              Lord knows I can't change

E----------------------------------------|
B--6>5----------6>15>14>15>14>15>8-------|
G------5------5---------------------  <--|Play this after "Lord knows
D--------5>05----------------------------|   I cant change" when you play intro pt2
A----------------------------------------|   for the first time. Play this after
E----------------------------------------|   "Lord Knows I cant change" after you
    D                                  played intro pt2 for the second time.
                                                                      |
E--------------------------------------------------------            --------|
B----14>15-----14>15----14>15----14>15------12>15>8--------------------------|
G-14--------14-------14-------14-------14----------------            --------|
D--------------------------------------------------------  <-----------------|
A----------------------------------------------------------------------------|
E----------------------------------------------------------------------------|    x2


E----------------------------------------------------------------------|
B---5>6--6>5------------------3>2>3>2--3--2--3--2-3--2-3-2--3-2-3-2>8--|
G------------5--------4--5---------------------------------------------|
D--------------5>0>5---------------------------------------------------|
A----------------------------------------------------------------------|
E----------------------------------------------------------------------|
   F            C               D
     Lord  help me I can't    change_________________________________

E------------------------------------------------------------------------------|
B-3--3--3--3--3--3--3--3--5--5--5--5--5--5--5--5--5--5--5--5--5--5--5--5--5--5-|
G-3--3--3--3--3--3--3--3--5--5--5--5--5--5--5--5--5--5--5--5--5--5--5--5--5--5-|
D-3--3--3--3--3--3--3--3--5--5--5--5--5--5--5--5--5--5--5--5--5--5--5--5--5--5-|
A-1--1--1--1--1--1--1--1--3--3--3--3--3--3--3--3--3--3--3--3--3--3--3--3--3--3-|
E------------------------------------------------------------------------------|
  Bb                         C
  Lord_________       I     can't    change_____________          won't you


E--3--3--3--3--3--3--3--3---------------------------------------------------|
B--3--3--3--3--3--3--3--3--3--3--3--3--3--3--3--3---5--5--5--5--5--5--5--5--|
G--4--4--4--4--4--4--4--4--3--3--3--3--3--3--3--3---5--5--5--5--5--5--5--5--|
D--5--5--5--5--5--5--5--5--3--3--3--3--3--3--3--3---5--5--5--5--5--5--5--5--|
A--5--5--5--5--5--5--5--5--1--1--1--1--1--1--1--1---3--3--3--3--3--3--3--3--|
E--3--3--3--3--3--3--3--3---------------------------------------------------|
   G                        Bb                        C

Solo


------------------|------------------|--------------------------------|
------------------|------------------|--3------------3---3---3-3------|
------------------|------------------|--4------------3-x-3-x-3-3--x-x-|
------------------|------------------|--5--x-------x-3-x-3-x-3-3--x-x-|
------------------|------------------|--5--x---0-2-x-1-x-1-x-1-1--x-x-|
------------------|------------------|--3--x-3-----x------------------|

-----------------------------|--------------------------------|
--5--x-----------------------|--3------------3---3---3-3------|
--5--x-----------------------|--4------------3-x-3-x-3-3--x-x-|
--5--x-----5----5----5----5--|--5--x-------x-3-x-3-x-3-3--x-x-|
--3----5h7----7----7----7----|--5--x---0-2-x-1-x-1-x-1-1--x-x-|
-----------------------------|--3--x-3-----x------------------|

-----------------------------15----|------------------------------------------|
--5----5-5----5---5---5---------15-|--18b18b18b-18b-18-15-18-18r-15-18b-18-15-|
--5--x-5-5--x-5-x-5-x-5-x-15-------|------------------------------------------|
--5--x-5-5--x-5-x-5-x-5-x----------|------------------------------------------|
--3--x-3-3--x-3-x-3-x-3-x----------|------------------------------------------|
-----------------------------------|------------------------------------------|

---------18-----18-----18----18-------15----|
--18b18b----18b----18b----18b---18b------15-|
-----------------------------------15-------|
--------------------------------------------|
--------------------------------------------|
--------------------------------------------|

------------------------------------------|
--18b18b18b-18b-18-15-18-18r-15-18b-18-15-|
------------------------------------------|
------------------------------------------|
------------------------------------------|
------------------------------------------|

---------18-----18-----18----18----18----18-|
--18b18b----18b----18b----18b---18b---18b---|
--------------------------------------------|
--------------------------------------------|
--------------------------------------------|
--------------------------------------------|

-----18----18----18----18----18----18----18----18-|
--18~---18~---18~---18~---18~---18~---18~---18~---|
--------------------------------------------------|
--------------------------------------------------|
--------------------------------------------------|
--------------------------------------------------|

-----18----18----18----18----18----18-----------|
--18~---18~---18~---18~---18~---18~---18~-18-15-|
------------------------------------------------|
------------------------------------------------|
------------------------------------------------|
------------------------------------------------|

--------------------------------------------------------------------------------|
--18-15-18-18-15-18-18b15-18-18-15-18-18b15-18-18-15-18-18b15-18-18-15-18-18b15-|
--------------------------------------------------------------------------------|
--------------------------------------------------------------------------------|
--------------------------------------------------------------------------------|
--------------------------------------------------------------------------------|

------------------------------------------------------------------------------|
--15-18-18-15-18-18-15-18-18b15-18-18b15-18-18r15-18-18r15-18-18r15-18-18r15--|
------------------------------------------------------------------------------|
------------------------------------------------------------------------------|
------------------------------------------------------------------------------|
------------------------------------------------------------------------------|

--13b-13b-13b-------------------------------------------------------------|
--------------18p15----15-18p15----15-18p15----15-18p15----15-18p15----15-|
--------------------17----------17----------17----------17----------17----|
--------------------------------------------------------------------------|
--------------------------------------------------------------------------|
--------------------------------------------------------------------------|

---------------------------------------------------------------------------------|
--18p15----15-18p15----15-18p15----15-18p15----15-18p15----15-18p15----15--------|
--------17----------17----------17----------17----------17----------17----17--15-|
---------------------------------------------------------------------------------|
---------------------------------------------------------------------------------|
---------------------------------------------------------------------------------|

--------------------------------------------------------------------------|
-----------------------------------------------------------------18----18-|
-----15~---------15~---15-17p15-17p15----15-17p15----15-17p15-17b---17b---|
--17----17p15-17----17----------------17----------17----------------------|
--------------------------------------------------------------------------|
--------------------------------------------------------------------------|

--------------------------------------------------|
-----18----18----18----18----18----18----18----18-|
--17b---17b---17b---17b---17b---17b---17r---17r---|
--------------------------------------------------|
--------------------------------------------------|
--------------------------------------------------|

-----------------------------------------------------------------|
-----18----18----18----18----18----18----18----18----18----18----|
--17r---17r---17r---17r---17r---17r---17r---17r---17r---17r---17r|
-----------------------------------------------------------------|
-----------------------------------------------------------------|
-----------------------------------------------------------------|

-----------------------------------------------------|
--18-18-18-18-18-18-18-18-18-18-18-18-18-18----------|
--17-17b17b17-17b17b17-17b17b17-17b17b17-17b---------|
--------------------------------------------17p15----|
--------------------------------------------------17-|
-----------------------------------------------------|

-----------------------------------------------------------------|
-----------------------------------------------------------------|
--15----------15----------15----------15----------15----------15-|
-----17p15-------17p15-------17p15-------17p15-------17p15-------|
-----------17----------17----------17----------17----------17----|
-----------------------------------------------------------------|

----------------------------------------------------------------------------|
----------------------------------------------------------------------------|
------------------------------------15--------------------------------------|
--17--17----15-17p15-17p15-17p15-------17--17----15-17p15-17p15-17p15----15-|
---------17----------------------17-----------17----------------------17----|
----------------------------------------------------------------------------|

----------------------------------------------------------------------------|
----------------------------------------------------------------------------|
----------------------------------------------------------------------------|
--17--17----15-17p15-17p15-17p15----15-17--17----15-17p15-17p15-17p15----15-|
---------17----------------------17-----------17----------------------17----|
----------------------------------------------------------------------------|

---------------------------------------------------|
---------------------------------------------------|
------------15-----------15-----------15--------17b|
--17--15-------17--15-------17--15-------17--15----|
---------17-----------17-----------17--------------|
---------------------------------------------------|

--------------------------------------------------------------------------------|
--------------------------------------------------------------------------------|
--17-15-------17b17-15-------17b17-15-------17b17-15-------17b17-15-------17b17-|
--------17-15----------17-15----------17-15----------17-15----------17-15-------|
--------------------------------------------------------------------------------|
--------------------------------------------------------------------------------|

---------------------------------------------------------------|
---------------------------------------------------------------|
--------17b17-15-------17b17-15-------17b17b-17b17-17-15-15-15-|
--17-15----------17-15----------17-15--------------------------|
---------------------------------------------------------------|
---------------------------------------------------------------|

--------------------------------------------|
--------------------------------------------|
--------------------------------------------|
--17----17----15b-15----15-15r----15b-15----|
-----------17--------17--------17--------17-|
-----19-------------------------------------|

---------------------------------------------|
---------------------------------------------|
---------15-----15-----15----15--------------|
--15b15b----15b----15b----15b---15b----17----|
------------------------------------------17-|
------------------------------------18-------|

------------------------------------------|
------------------------------------------|
------------------------------------------|
--15-15b15b-15b-15----15-15r----15b-15----|
-------------------17--------17--------17-|
------------------------------------------|

--------------------------------------|
--------------------------------------|
---------15-----15--------------------|
--15b15b----15b----15b-15b-15b-15b-15-|
--------------------------------------|
--------------------------------------|

------------------------------------------|
------------------------------------------|
-------------------15--------15--------15-|
--17--17-15-17--17-15-17--17-15-17--17-15-|
------------------------------------------|
------------------------------------------|

----------------------------------------|
----------------------------------------|
---------15--------15-------------------|
--17--17-15-17--17-15-17-17b-17b-17b-15-|
----------------------------------------|
----------------------------------------|

--------------------------------------------------------|
--------------------------------------------------------|
---------15--------15-16-17-17r15--------15-16-17-17r15-|
--17--17-15-17--17----------------17--17----------------|
--------------------------------------------------------|
--------------------------------------------------------|

----------------------------------------|
----------------------------------------|
----------------------------------------|
--17--17-15-17--17-15-17-17b-17b-17b-14-|
----------------------------------------|
----------------------------------------|

-------------------------------------------|
-------------------------------------------|
-----------------------------------15b-15--|
--17-----17--17-19p17----17-----17---------|
------19--------------19-----19------------|
-------------------------------------------|

---------------------------------------3-6---|
-------------------------------------6-----8-|
-----15--------------------------------------|
--17----17-15-17-15b-15b-15b-15b-15b---------|
---------------------------------------------|
---------------------------------------------|

--5p3---3-6p3-5p3---3-6p3-5p3---3-6p3-5p3---3-6p3-5p3---3-6p3-5p3-|
------6-----------6-----------6-----------6-----------6-----------|
------------------------------------------------------------------|
------------------------------------------------------------------|
------------------------------------------------------------------|
------------------------------------------------------------------|

----3-6p3-5p3---3-6p3-5p3---3-6p3-5p3---3-6p3-5p3/----15-|
--6-----------6-----------6-----------6------------------|
---------------------------------------------------------|
---------------------------------------------------------|
---------------------------------------------------------|
---------------------------------------------------------|

-----------15----------15----------15----------15----------15----------15-------|
--18p15-------18p15-------18p15-------18p15-------18p15-------18p15-------18p15-|
--------17----------17----------17----------17----------17----------17----------|
--------------------------------------------------------------------------------|
--------------------------------------------------------------------------------|
--------------------------------------------------------------------------------|

-----------15----------15----------15----------15----------15----------15-------|
--18p15-------18p15-------18p15-------18p15-------18p15-------18p15-------18p15-|
--------17----------17----------17----------17----------17----------17----------|
--------------------------------------------------------------------------------|
--------------------------------------------------------------------------------|
--------------------------------------------------------------------------------|

-----------15----------15----------15----------15----------15----------15-------|
--18p15-------18p15-------18p15-------18p15-------18p15-------18p15-------18p15-|
--------17----------17----------17----------17----------17----------17----------|
--------------------------------------------------------------------------------|
--------------------------------------------------------------------------------|
--------------------------------------------------------------------------------|

-----------15----------15----------15----------15----------15----------15-------|
--18p15-------18p15-------18p15-------18p15-------18p15-------18p15-------18p15-|
--------17----------17----------17----------17----------17----------17----------|
--------------------------------------------------------------------------------|
--------------------------------------------------------------------------------|
--------------------------------------------------------------------------------|

-----18p15----18p15----18p15----18p15----18p15----18p15----18p15----18p15----18--|p
--15-------15-------15-------15-------15-------15-------15-------15-------15-----|
---------------------------------------------------------------------------------|
---------------------------------------------------------------------------------|
---------------------------------------------------------------------------------|
---------------------------------------------------------------------------------|

---------------------------------------------------------------------------------|
-----18p15----18p15----18p15----18p15----18p15----18p15----18p15----18p15----18--|p
--15-------15-------15-------15-------15-------15-------15-------15-------15-----|
---------------------------------------------------------------------------------|
---------------------------------------------------------------------------------|
---------------------------------------------------------------------------------|

--13b--13b--13b13b13r-13-13-13----------|
-------------------------------15-15-15-|
----------------------------------------|
----------------------------------------|
----------------------------------------|
----------------------------------------|

----------------------------------------|
--13b--13b--13b13b13r-13-13-13-11-11-11-|
----------------------------------------|
----------------------------------------|
----------------------------------------|
----------------------------------------|

--------6---6---6-----6-------6---6---6-----6-|
--8--8----8---8-8-6-----8--8----8---8-8-6-----|
--------------------7---------------------7---|
----------------------------------------------|
----------------------------------------------|
----------------------------------------------|

-----6-----6----6-----6----6-----6-------|----------------------------------|
--8--8-6-----8--8-6-----8--8-6-----8-----|--8----8--8-10---8----8--8-10p8---|
---------7----------7----------7-------9-|-----9---------9----9-----------9-|
-----------------------------------------|----------------------------------|
-----------------------------------------|----------------------------------|
-----------------------------------------|----------------------------------|

-----------------------------------|---------------------------------|
--8----8----8-10b-10b10b11b10b-8---|--8--10b-10b-10b---10b-10b-10b10b|
-----9----9----------------------9-|---------------------------------|
-----------------------------------|---------------------------------|
-----------------------------------|---------------------------------|
-----------------------------------|---------------------------------|

----------------------------------------|--10--10--10--10--10--10--10--10--|
---10b10b10b-10b10b10b-10b10b10b---8-10-|--10b-10b-10b-10b-10b-10b-10b-10r-|
---------------------------------9------|----------------------------------|
----------------------------------------|----------------------------------|
----------------------------------------|----------------------------------|
----------------------------------------|----------------------------------|

--10--10-10--10-10---10-10--10-10--10-10-10-|--10--10--10--10--10--10--10--10--|
--8------8---8--10p8----8------8------8--10-|--10b-10b-10b-10b-10b-10b-10b-10r-|
------9--------------9------9------9--------|----------------------------------|
--------------------------------------------|----------------------------------|
--------------------------------------------|----------------------------------|
--------------------------------------------|----------------------------------|

--10--10-10--10-10---10-10--10-10--10-10-10-|--10--10--10--10--10--10--10--10--|
--8------8---8--10p8----8------8------8--10-|--10b-10b-10b-10b-10b-10b-10b-10b-|
------9--------------9------9------9--------|----------------------------------|
--------------------------------------------|----------------------------------|
--------------------------------------------|----------------------------------|
--------------------------------------------|----------------------------------|

--10--10--10--10--10--10--10--10--|
--10b-10b-10b-10b-10b-10b-10b-10r-|
----------------------------------|
----------------------------------|
----------------------------------|
----------------------------------|

--10--10-10--10-10---10-10--10-10--10-10---10-|
--8------8---8--10p8----8------8---8--10p8----|
------9--------------9------9--------------9--|
----------------------------------------------|
----------------------------------------------|
----------------------------------------------|

--10--10-10--10-10---10-10--10-10--10-10-13-|
--8------8---8--10p8----8------8------8-----|
------9--------------9------9------9--------|
--------------------------------------------|
--------------------------------------------|
--------------------------------------------|

------13-----13-----13-----13-----13----|
--13b----13b----13b----13b----13b----13b|
----------------------------------------|
----------------------------------------|
----------------------------------------|
----------------------------------------|

---13----13----13----13----13----13----13------|
------13b---13b---13b---13b---13b---13b---13bx-|
---------------------------------------------x-|
-----------------------------------------------|
-----------------------------------------------|
-----------------------------------------------|

------18-----18-----18-----18-----18----|
--18b----18b----18b----18b----18b----18b|
----------------------------------------|
----------------------------------------|
----------------------------------------|
----------------------------------------|

---18----18----18----18----18----18-----22--|
------18b---18b---18b---18b---18b---18b-18b-|
--------------------------------------------|
--------------------------------------------|
--------------------------------------------|
--------------------------------------------|

------22-----22-----22-----22-----22----|
--22b----22b----22b----22b----22b----22b|
----------------------------------------|
----------------------------------------|
----------------------------------------|
----------------------------------------|

---22----22----22----22----22----22----22----22-|
------22b---22b---22b---22b---22b---22b---22b---|
------------------------------------------------|
------------------------------------------------|
------------------------------------------------|
------------------------------------------------|

-----22----22----22----22----22----22----22----22-|
--22b---22b---22b---22b---22b---22b---22b---22b---|
--------------------------------------------------|
--------------------------------------------------|
--------------------------------------------------|
--------------------------------------------------|

-----22----22----22----22----22----22----22----22-22-22-22-22-22-22-22-22-22-22--|
--22b---22b---22b---22b---22b---22b---22b---22b22b22b22b22b22b22b22b22b22b22b22b-|
---------------------------------------------------------------------------------|
---------------------------------------------------------------------------------|
---------------------------------------------------------------------------------|
---------------------------------------------------------------------------------|

---------------------------------------|
---8b-13--11-8-11b-11-13-8-11-13-13b11-|
---------------------------------------|
---------------------------------------|
---------------------------------------|
---------------------------------------|

---------------------------------------15-|
--13-8-11-13-11-8-13b8-11-13-11b-8--------|
------------------------------------17----|
------------------------------------------|
------------------------------------------|
------------------------------------------|

-----------15----------15----------15----------15----------15----------15-------|
--18p15-------18p15-------18p15-------18p15-------18p15-------18p15-------18p15-|
--------17----------17----------17----------17----------17----------17----------|
--------------------------------------------------------------------------------|
--------------------------------------------------------------------------------|
--------------------------------------------------------------------------------|

----------------------------------------|
--18b-18b-18r-18----18------------------|
-----------------19-----19-17-19--17-16-|
----------------------------------------|
----------------------------------------|
----------------------------------------|

---------------------------------------------------------------------------------|
---------------------------------------------------------------------------------|
--17--16----16-19p16----16-19p16----16-19p16----16-19p16----16-19p16----16-19p16-|
---------17----------17----------17----------17----------17----------17----------|
---------------------------------------------------------------------------------|
---------------------------------------------------------------------------------|

--------------------------------------------------|
--------------------------------------------------|
--19b-19b-19r-19-19-19p17-17-17-17p16h17-16h17p16-|
--------------------------------------------------|
--------------------------------------------------|
--------------------------------------------------|

--------------------------------------------------------------|
--------------------------------------------------------------|
--16/---4h7---4h7---4h7---4h7---4h7---4h7---4h7---4h7---4h7---|
------5-----5-----5-----5-----5-----5-----5-----5-----5-----5-|
--------------------------------------------------------------|
--------------------------------------------------------------|

-------------------------------------------------------------|
-------------------------------------------------------------|
--4h7---4h7---4h7---4h7---4h7---4h7---4h7---4h7---4h7---4h7/-|
------5-----5-----5-----5-----5-----5-----5-----5-----5------|
-------------------------------------------------------------|
-------------------------------------------------------------|

-------------------------------|-------------------------------|
--8--8b-8r-8-8-8/5-5-5-5/3-3/1-|-------------------------------|
-------------------------------|--5-4---5-4---5b-5--5-4-5-4----|
-------------------------------|------5-----5---------------5/-|
-------------------------------|-------------------------------|
-------------------------------|-------------------------------|

----------------------------------|-----------------------------------|
--8----8--8-10---8----8--8-10p8---|--8----8----8-10b-10b10b10b10b-8---|
-----9---------9----9-----------9-|-----9----9----------------------9-|
----------------------------------|-----------------------------------|
----------------------------------|-----------------------------------|
----------------------------------|-----------------------------------|

-------------------------------------|---------------------------------------|
--8--10b-10b-10b-10b-10b10b-10b10b10b|---10b10b10b-10b10b10b-10-8---8---8-10-|
-------------------------------------|----------------------------9---9------|
-------------------------------------|---------------------------------------|
-------------------------------------|---------------------------------------|
-------------------------------------|---------------------------------------|

--10-10-10---10-10--10--10--10--10--|
--10b10-10b--10r8---10--10--10--10r-|
------------------------------------|
------------------------------------|
------------------------------------|
------------------------------------|

--10--10-10--10-10---10-10--10-10--10-10-10-|--10--10--10--10--10--10--10--10--|
--8------8---8--10p8----8------8------8--10-|--10b-10b-10b-10b-10r-10--10--10r-|
------9--------------9------9------9--------|----------------------------------|
--------------------------------------------|----------------------------------|
--------------------------------------------|----------------------------------|
--------------------------------------------|----------------------------------|

--10--10-10--10-10---10-10--10-10--10-10-10-|--10--10--10--10--10--10--10--10--|
--8------8---8--10p8----8------8------8--10-|--10b-10b-10b-10b-10r-10--10--10r-|
------9--------------9------9------9--------|----------------------------------|
--------------------------------------------|----------------------------------|
--------------------------------------------|----------------------------------|
--------------------------------------------|----------------------------------|

--10--10-10--10-10---10-10--10-10--10-10-10-|--10------10------10------10------|
--8------8---8--10p8----8------8------8--10-|--10b-----10b-----10b-----10b-----|
------9--------------9------9------9--------|-------12------12------12------12-|
--------------------------------------------|----------------------------------|
--------------------------------------------|----------------------------------|
--------------------------------------------|----------------------------------|

--10--10-10--10-10---10-10--10-10--10-10-10-|--10--10--10--10--10--10--10--10--|
--8------8---8--10p8----8------8------8--10-|--10b-10b-10b-10b-10b-10b-10b-10r-|
------9--------------9------9------9--------|----------------------------------|
--------------------------------------------|----------------------------------|
--------------------------------------------|----------------------------------|
--------------------------------------------|----------------------------------|

--10--10-10--10-10---10-10--10-10--x-------|
--8------8---8--10p8----8------8---x-15-18-|
------9--------------9------9--------------|
-------------------------------------------|
-------------------------------------------|
-------------------------------------------|

--15~-------15~-------15~-------15~-------|
------15-18-----15-18-----15-18-----15-18-|
------------------------------------------|
------------------------------------------|
------------------------------------------|
------------------------------------------|

--15~-------15~--------------------------------|
------15-18-----15-18-18b18b18b18~-18-15-15h18-|
-----------------------------------------------|
-----------------------------------------------|
-----------------------------------------------|
-----------------------------------------------|

---------------------------------------------------------------|
--18b-18-15-18b18b18p15----18b18b18b18p15----18b18b18b18p15----|
------------------------15~---------------15~---------------15~|
---------------------------------------------------------------|
---------------------------------------------------------------|
---------------------------------------------------------------|

-------------------------------------------------------15----|
--18b18b18b18p15----18b18b18b18p15----18b18b18r-18b-------15-|
-----------------15----------------15---------------15-------|
-------------------------------------------------------------|
-------------------------------------------------------------|
-------------------------------------------------------------|

--18p15----18p15----18p15----18p15----18p15----18p15----18p15----18p15----18p15-|
--------15-------15-------15-------15-------15-------15-------15-------15-------|
--------------------------------------------------------------------------------|
--------------------------------------------------------------------------------|
--------------------------------------------------------------------------------|
--------------------------------------------------------------------------------|

--18p15----18p15----18p15----18p15----18p15----18b-18b-18b-18-15-|
--------15-------15-------15-------15-------15-------------------|
-----------------------------------------------------------------|
-----------------------------------------------------------------|
-----------------------------------------------------------------|
-----------------------------------------------------------------|

------------------------------------------------------------------------|
--18-18b18-18~-18b18-15-18p15----18p15----18p15----18p15----18p15----18p|
------------------------------15-------15-------15-------15-------15----|
------------------------------------------------------------------------|
------------------------------------------------------------------------|
------------------------------------------------------------------------|

--------------------------------------------------------------------------------|
--15----18p15----18p15----18p15----18p15----18p15----18p15----18p15----18p15----|
-----15-------15-------15-------15-------15-------15-------15-------15-------15-|
--------------------------------------------------------------------------------|
--------------------------------------------------------------------------------|
--------------------------------------------------------------------------------|

-------------------15-15-15-15----------|------------------------------|
--18b--18b-18b18r--18-18-18-18----------|------------------------8-----|
-------------------------------19-19-19-|--17b17b17r-15r---12r---10r---|
----------------------------------------|------------------------------|
----------------------------------------|------------------------------|
----------------------------------------|------------------------------|

-----------------------|---------------------------|
--6----5----3---3---3--|--3--3--3--3--3--3--3--3-3/|
--8r---7r---5b--5b--5b-|--5b-5b-5b-5b-5b-5b-5b-5b--|
-----------------------|---------------------------|
-----------------------|---------------------------|
-----------------------|---------------------------|

----------------------------------------------|
--11-11-13/3/11-10-13/3/11-11-13/3/11-10-13/3/|
----------------------------------------------|
----------------------------------------------|
----------------------------------------------|
----------------------------------------------|

------------------------------------------|
--11-11-13/3/11-10-13/3/11-11-13b-13r-11--|
------------------------------------------|
------------------------------------------|
------------------------------------------|
------------------------------------------|

-------------------------------------------|-----------------------------------|
-------------------------------------------|--------8--8-10---8-10---8----8-10-|
--12--12--12--12--10-10-10--10-------------|------9---------9------9----9------|
-------------------------------12p10h12-10-|-----------------------------------|
-------------------------------------------|--10/------------------------------|
-------------------------------------------|-----------------------------------|

--10--10--10--10--10--10--10--10--|--10--10--10--10--10--10--10--10---|
--10b-10b-10b-10b-10b-10b-10b-10b-|--10b-------------10b------------8-|
----------------------------------|-----------------------------------|
----------------------------------|-----------------------------------|
----------------------------------|-----------------------------------|
----------------------------------|-----------------------------------|

--10--10----10---10--10---10-10----------|
--10b-10~---10r8-10--8----8--10p8h10p8---|
------------------------9--------------9-|
-----------------------------------------|
-----------------------------------------|
-----------------------------------------|

--10--10-10--10-10---10-10--10-10----------|
--8------8---8--10p8----8------8--------15-|
------9--------------9------9------8/15----|
-------------------------------------------|
-------------------------------------------|
-------------------------------------------|

------------------------------------------|
--18b-15-18-------------------------------|
------------17r-15-17~--15----17-15-------|
---------------------------17-------17-15-|
------------------------------------------|
------------------------------------------|

----------------------------------------------------|
----------------------------------------------------|
----------------------------------------------------|
----------------------------------------------------|
--17p15----15----------------------15------------5--|
--------18----15-18-15-15-18-15-15----15-17b-15/-5--|

------------------------------|--------------------------------|
------------------------------|--------------------------------|
--------------3-x-3-x-3-3---x-|--5--x-5-5--x-5-5-5-5-5-5-5-5-5-|
--5--x-5-5--x-3-x-3-x-3-3---x-|--5--x-5-5--x-5-5-5-5-5-5-5-5-5-|
--5--x-5-5--x-1-x-1-x-1-1---x-|--3--x-3-3--x-3-3-3-3-3-3-3-3-3-|
--3--x-3-3--x-----------------|--------------------------------|

------------------------------|--------------------------------|
------------------------------|--------------------------------|
--------------3-x-3-x-3-3---x-|--5--x-5-5--x-5-5-5-5-5-5-5-5-5-|
--5--x-5-5--x-3-x-3-x-3-3---x-|--5--x-5-5--x-5-5-5-5-5-5-5-5-5-|
--5--x-5-5--x-1-x-1-x-1-1---x-|--3--x-3-3--x-3-3-3-3-3-3-3-3-3-|
--3--x-3-3--x-----------------|--------------------------------|

-----------------------------------------------|
-----------------------------------------------|
--4----4-4-4-4-4-4-4-4-4-4-4-4-4-4-4-4-4-4-4-4-|
--5----5-5-5-5-5-5-5-5-5-5-5-5-5-5-5-5-5-5-5-5-|
--5----5-5-5-5-5-5-5-5-5-5-5-5-5-5-5-5-5-5-5-5-|
--3----3-3-3-3-3-3-3-3-3-3-3-3-3-3-3-3-3-3-3-3-|

------------------------------------------------------------------|--3-------|
------------------------------------------------------------------|--3-------|
--4-4-4-4-4-4-4-4-4-4-4-4-4-4-4-4-4-4-4-4-4-4-4-4-4-4-4-4-4-4-4-4-|--4-------|
--5-5-5-5-5-5-5-5-5-5-5-5-5-5-5-5-5-5-5-5-5-5-5-5-5-5-5-5-5-5-5-5-|--5-------|
--5-5-5-5-5-5-5-5-5-5-5-5-5-5-5-5-5-5-5-5-5-5-5-5-5-5-5-5-5-5-5-5-|--5-------|
--3-3-3-3-3-3-3-3-3-3-3-3-3-3-3-3-3-3-3-3-3-3-3-3-3-3-3-3-3-3-3-3-|--3-------|

---------------------------------------------------------|
---------------------------------------------------------|
--7--7-7-7-7-7-7-7-7-7-7-7-7-7-7-7-7-7-7-7-7-7-7-7-7-7-7-|
--8--8-8-8-8-8-8-8-8-8-8-8-8-8-8-8-8-8-8-8-8-8-8-8-8-8-8-|
--8--8-8-8-8-8-8-8-8-8-8-8-8-8-8-8-8-8-8-8-8-8-8-8-8-8-8-|
--6--6-6-6-6-6-6-6-6-6-6-6-6-6-6-6-6-6-6-6-6-6-6-6-6-6-6-|

------------------------------------------------------------------|
------------------------------------------------------------------|
--7-7-7-7-7-7-7-7-7-7-7-7-7-7-7-7-7-7-7-7-7-7-7-7-7-7-7-7-7-7-7-7-|
--8-8-8-8-8-8-8-8-8-8-8-8-8-8-8-8-8-8-8-8-8-8-8-8-8-8-8-8-8-8-8-8-|
--8-8-8-8-8-8-8-8-8-8-8-8-8-8-8-8-8-8-8-8-8-8-8-8-8-8-8-8-8-8-8-8-|
--6-6-6-6-6-6-6-6-6-6-6-6-6-6-6-6-6-6-6-6-6-6-6-6-6-6-6-6-6-6-6-6-|

------------------------------------------------------------------|--6-------|
------------------------------------------------------------------|--6-------|
--7-7-7-7-7-7-7-7-7-7-7-7-7-7-7-7-7-7-7-7-7-7-7-7-7-7-7-7-7-7-7-7-|--7-------|
--8-8-8-8-8-8-8-8-8-8-8-8-8-8-8-8-8-8-8-8-8-8-8-8-8-8-8-8-8-8-8-8-|--8-------|
--8-8-8-8-8-8-8-8-8-8-8-8-8-8-8-8-8-8-8-8-8-8-8-8-8-8-8-8-8-8-8-8-|--8-------|
--6-6-6-6-6-6-6-6-6-6-6-6-6-6-6-6-6-6-6-6-6-6-6-6-6-6-6-6-6-6-6-6-|--6-------|

--------------------------------------------------------------------------------|
--------------------------------------------------------------------------------|
--9--9--9--9--9--9--9--9--9--9--9--9--9--9--9--9--9--9--9--9--9--9--9--9--9--9--|
--10-10-10-10-10-10-10-10-10-10-10-10-10-10-10-10-10-10-10-10-10-10-10-10-10-10-|
--10-10-10-10-10-10-10-10-10-10-10-10-10-10-10-10-10-10-10-10-10-10-10-10-10-10-|
--8--8--8--8--8--8--8--8--8--8--8--8--8--8--8--8--8--8--8--8--8--8--8--8--8--8--|

--------------------------------------------------------------------------------|
--------------------------------------------------------------------------------|
--9--9--9--9--9--9--9--9--9--9--9--9--9--9--9--9--9--9--9--9--9--9--9--9--9--9--|
--10-10-10-10-10-10-10-10-10-10-10-10-10-10-10-10-10-10-10-10-10-10-10-10-10-10-|
--10-10-10-10-10-10-10-10-10-10-10-10-10-10-10-10-10-10-10-10-10-10-10-10-10-10-|
--8--8--8--8--8--8--8--8--8--8--8--8--8--8--8--8--8--8--8--8--8--8--8--8--8--8--|

--------------------------------------------------------------------------------|
--------------------------------------------------------------------------------|
--9--9--9--9--9--9--9--9--9--9--9--9--9--9--9--9--9--9--9--9--9--9--9--9--9--9--|
--10-10-10-10-10-10-10-10-10-10-10-10-10-10-10-10-10-10-10-10-10-10-10-10-10-10-|
--10-10-10-10-10-10-10-10-10-10-10-10-10-10-10-10-10-10-10-10-10-10-10-10-10-10-|
--8--8--8--8--8--8--8--8--8--8--8--8--8--8--8--8--8--8--8--8--8--8--8--8--8--8--|

--------------------------------------------------------------------------------|
--------------------------------------------------------------------------------|
--9--9--9--9--9--9--9--9--9--9--9--9--9--9--9--9--9--9--9--9--9--9--9--9--9--9--|
--10-10-10-10-10-10-10-10-10-10-10-10-10-10-10-10-10-10-10-10-10-10-10-10-10-10-|
--10-10-10-10-10-10-10-10-10-10-10-10-10-10-10-10-10-10-10-10-10-10-10-10-10-10-|
--8--8--8--8--8--8--8--8--8--8--8--8--8--8--8--8--8--8--8--8--8--8--8--8--8--8--|

-----------|---------------------------------------------------|
-----------|---------------------------------------------------|
--9--------|---------------------------------------------------|
--10-------|---------------------------12-15p13p12----12-13-15-|
--10-------|---------------------13-15-------------15----------|
--8--------|--15~-------------15-------------------------------|

-------------------------------------------------------------------------|
-------------------------------------------------------------------------|
-------------------------------------------------------------------------|
--15~-------15--15p13p12----12-13-15-13h15p13p12-------12h13p12----------|
-------------------------15----------------------15p13----------15p13p12-|
-------------------------------------------------------------------------|

------------------------------------------------------------------------|
------------------------------------------------------------------------|
------------------------------------------------------------------------|
------------------------------------------------------12-13-12----------|
--12h13p12-----------------------12-13-12----13-13-15----------15-13----|
-----------15p13p12-----12-13-15----------15-------------------------13-|

----------------------|
----------------------|
----------------------|
----------------------|
----------------14----|
--15b-----------------|

----------------------------------------------------------|
----------------------------------------------------------|
----------------------------------------------------------|
-------------17p15----------------------------------------|
----------17-------17p15p13----15p13----15p13----15p13----|
----------------------------15-------15-------15-------15-|

-------------------------|
-------------------------|
-------------------------|
-------------------------|
--13b--13b13b-------14---|
-------------------------|

----------------------------------------------------------------|
------3/--15-15-15-15-15-15-15-15-15-15-15-15-15-15-15-15-15-15-|
------4/--15-16-16-16-16-16-16-16-16-16-16-16-16-16-16-16-16-16-|
----------------------------------------------------------------|
----------------------------------------------------------------|
----------------------------------------------------------------|

--15-15-15-15-15-15-15-15-15-15-15-15-15-15-15-15-15-15-15-15-15-15-15-15-15-15-|
--15-15-15-15-15-15-15-15-15-15-15-15-15-15-15-15-15-15-15-15-15-15-15-15-15-15-|
--16-16-16-16-16-16-16-16-16-16-16-16-16-16-16-16-16-16-16-16-16-16-16-16-16-16-|
--------------------------------------------------------------------------------|
--------------------------------------------------------------------------------|
--------------------------------------------------------------------------------|

--15-15-15-15-15-15-15-15-15-15-15-15-15-15-15-15-15-15-15-15-15-15-15-15-15-15-|
--15-15-15-15-15-15-15-15-15-15-15-15-15-15-15-15-15-15-15-15-15-15-15-15-15-15-|
--16-16-16-16-16-16-16-16-16-16-16-16-16-16-16-16-16-16-16-16-16-16-16-16-16-16-|
--------------------------------------------------------------------------------|
--------------------------------------------------------------------------------|
--------------------------------------------------------------------------------|

--15-15-15-15-15-15-15-15-15-15-15-15-15-15-15-15-15-15-15-15-15-15-15-15-15-15-|
--15-15-15-15-15-15-15-15-15-15-15-15-15-15-15-15-15-15-15-15-15-15-15-15-15-15-|
--16-16-16-16-16-16-16-16-16-16-16-16-16-16-16-16-16-16-16-16-16-16-16-16-16-16-|
--------------------------------------------------------------------------------|
--------------------------------------------------------------------------------|
--------------------------------------------------------------------------------|

--15-15-15-15-15-15-15-15-15-15-15-15-15-15-15-15-15-15-15-15-15-15-15-15-15-15-|
--15-15-15-15-15-15-15-15-15-15-15-15-15-15-15-15-15-15-15-15-15-15-15-15-15-15-|
--16-16-16-16-16-16-16-16-16-16-16-16-16-16-16-16-16-16-16-16-16-16-16-16-16-16-|
--------------------------------------------------------------------------------|
--------------------------------------------------------------------------------|
--------------------------------------------------------------------------------|

--3-------|--------------------|------------------||
--3-------|--------------------|------------------||
--4-------|--------------------|------------------||
--5-------|--5----5/-----------|------------------||
--5-------|--5----5/-----------|------------------||
--3-------|--3----3/-----------|------------------||


1000 views - 14 July 2013
comments
We did not receive enough feedback on this tab! Please rate:
print report bad tab
1 2 3 4 5
I want to post or [tab]
guest
You may want to rate the tab now too:
select rating
Please do not post tabs as comments. Select "correction" instead!