Oops, an error
Loading. Please wait.

Roll Gypsy Roll Tab

ver1
ver1

Solo

Whole song

More versions @911Tabs.com
2,468 views 12 this week
no commentswrite comment
1 2 3 4 5
excellent!
x 1
Autoscroll
+/-
esc
set tempo
stop
WARNING: You are trying to view
                                    content from Ultimate-Guitar.com
                                    in an unauthorized application,
                                    which is prohibited.

                                    Please use an official Ultimate
                                    Guitar Tabs application for iPhone,
                                    iPad or Android to access legitimate
                                    chords, guitar, bass, and drum tabs
                                    from Ultimate-Guitar.com database.

                                    Type "ultimate guitar tabs" in Apple
                                    App Store's or Android Market's
                                    search to find the application.
Allen Collins 



     E  S S S E  E.  S S S S E     E  S S S E  E.  S S S S E   
E||-----------------------------|-----------------------------|
B||-----------------------------|-----------------------------|
G||--------------------------0--|--------------------------0--|
D||--5-------------------0-2----|--5-------------------0-2----|
A||-------3-5-7--5---5-3--------|-------3-5-7--5---5-3--------|
E||-----3-----------------------|-----3-----------------------|


  E  S S S E  E.  S S S S E     E  S S S E  E.  S S S S E   
-----------------------------|-----------------------------|
-----------------------------|-----------------------------|
--------------------------0--|--------------------------0--|
--5-------------------0-2----|--5-------------------0-2----|
-------3-5-7--5---5-3--------|-------3-5-7--5---5-3--------|
-----3-----------------------|-----3-----------------------|


  E  S S S E  E.  S S S S E     E  S S S E  E.  S S S S E   
-----------------------------|-----------------------------|
-----------------------------|-----------------------------|
--------------------------0--|--------------------------0--|
--5-------------------0-2----|--5-------------------0-2----|
-------3-5-7--5---5-3--------|-------3-5-7--5---5-3--------|
-----3-----------------------|-----3-----------------------|


  E  S S S E  E.  S S S S E     E  S S S E  E.  S S S S E   
-----------------------------|-----------------------------|
-----------------------------|-----------------------------|
--------------------------0--|--------------------------0--|
--5-------------------0-2----|--5-------------------0-2----|
-------3-5-7--5---5-3--------|-------3-5-7--5---5-3--------|
-----3-----------------------|-----3-----------------------|


  E  E  S E  S E  E  S E  S    E  E  S E  S E  E  S E  S  
----------------------------|----------------------------|
----------------------------|----------------------------|
--5--5--x-5--x-3--3--x-3--x-|--5--5--x-5--x-3--3--x-3--x-|
--5--5--x-5--x-3--3--x-3--x-|--5--5--x-5--x-3--3--x-3--x-|
--3--3--x-3--x-1--1--x-1--x-|--3--3--x-3--x-1--1--x-1--x-|
----------------------------|----------------------------|


  E  S S S E  E.  S S S S E     E  S S S E  E.  S S S S E   
-----------------------------|-----------------------------|
-----------------------------|-----------------------------|
--------------------------0--|--------------------------0--|
--5-------------------0-2----|--5-------------------0-2----|
-------3-5-7--5---5-3--------|-------3-5-7--5---5-3--------|
-----3-----------------------|-----3-----------------------|


  Q    S E  S Q    S E  S    Q    E.  E.  E  S E  S    Q    S E  S Q    S E  S  
--------------------------|-----------3------3------|--------------------------|
--1-----------------------|--3----3-------3--3-3----|--1-----------------------|
--2----x-2--x-5----x-5--x-|--0----0----------0-0--x-|--2----x-2--x-5----x-5--x-|
--2----x-2--x-5----x-5--x-|--0----0------------0--x-|--2----x-2--x-5----x-5--x-|
--0----x-0--x-3----x-3--x-|--2----2------------2--x-|--0----x-0--x-3----x-3--x-|
--------------------------|--3----3-----------------|--------------------------|


  W                   E  S S S E  E.  S S S S E     E  S S S E  E.  S S S S E   
--3----------------|-----------------------------|-----------------------------|
--3----------------|-----------------------------|-----------------------------|
--0----------------|--------------------------0--|--------------------------0--|
--0----------------|--5-------------------0-2----|--5-------------------0-2----|
--2----------------|-------3-5-7--5---5-3--------|-------3-5-7--5---5-3--------|
--3----------------|-----3-----------------------|-----3-----------------------|


  E  S S S E  E.  S S S S E     E  S S S E  E.  S S S S E   
-----------------------------|-----------------------------|
-----------------------------|-----------------------------|
--------------------------0--|--------------------------0--|
--5-------------------0-2----|--5-------------------0-2----|
-------3-5-7--5---5-3--------|-------3-5-7--5---5-3--------|
-----3-----------------------|-----3-----------------------|


  E  E  S E  S E  E  S E  S    E  E  S E  S E  E  S E  S  
----------------------------|----------------------------|
----------------------------|----------------------------|
--5--5--x-5--x-3--3--x-3--x-|--5--5--x-5--x-3--3--x-3--x-|
--5--5--x-5--x-3--3--x-3--x-|--5--5--x-5--x-3--3--x-3--x-|
--3--3--x-3--x-1--1--x-1--x-|--3--3--x-3--x-1--1--x-1--x-|
----------------------------|----------------------------|


  E  S S S E  E.  S S S S E     E  S S S E  E.  S S S S E   
-----------------------------|-----------------------------|
-----------------------------|-----------------------------|
--------------------------0--|--------------------------0--|
--5-------------------0-2----|--5-------------------0-2----|
-------3-5-7--5---5-3--------|-------3-5-7--5---5-3--------|
-----3-----------------------|-----3-----------------------|


  Q    S E  S Q    S E  S    Q    E.  E.  E  S E  S    Q    S E  S Q    S E  S  
--------------------------|-----------3------3------|--------------------------|
--1-----------------------|--3----3-------3--3-3----|--1-----------------------|
--2----x-2--x-5----x-5--x-|--0----0----------0-0--x-|--2----x-2--x-5----x-5--x-|
--2----x-2--x-5----x-5--x-|--0----0------------0--x-|--2----x-2--x-5----x-5--x-|
--0----x-0--x-3----x-3--x-|--2----2------------2--x-|--0----x-0--x-3----x-3--x-|
--------------------------|--3----3-----------------|--------------------------|


  W                   W                   E.  S E  E.  E  S S E  S  
--3----------------|-------------------|---------------------------|
--3----------------|-------------------|--3---3-x--3---x----3-3--x-|
--0----------------|-------------------|--2---2-x--2---x--2-2-2--x-|
--0----------------|-------------------|--0-----x--0---x--0------x-|
--2----------------|-------------------|---------------------------|
--3----------------|-------------------|---------------------------|


  E.  S E  E.  S E  S S S S    E.  S E  E.  E  S S E  S  
----------------------------|---------------------------|
------x---------------------|--3---3-x--3---x----3-3--x-|
--0---x-0-------------------|--2---2-x--2---x--2-2-2--x-|
--2---x-2--0---0-0--0-0-0-0-|--0-----x--0---x--0------x-|
--3-----3--2---2-2--2-2-2-2-|---------------------------|
-----------3---3-3--3-3-3-3-|---------------------------|


  E.  S E  E.  S E  S S S S    E.  S E  E.  E  S S E  S  
----------------------------|---------------------------|
------x---------------------|--3---3-x--3---x----3-3--x-|
--0---x-0-------------------|--2---2-x--2---x--2-2-2--x-|
--2---x-2--0---0-0--0-0-0-0-|--0-----x--0---x--0------x-|
--3-----3--2---2-2--2-2-2-2-|---------------------------|
-----------3---3-3--3-3-3-3-|---------------------------|


  E.  S E  E.  S E  S S S S    E.  S E  E.  E  S S E  S  
----------------------------|---------------------------|
------x---------------------|--3---3-x--3---x----3-3--x-|
--0---x-0-------------------|--2---2-x--2---x--2-2-2--x-|
--2---x-2--0---0-0--0-0-0-0-|--0-----x--0---x--0------x-|
--3-----3--2---2-2--2-2-2-2-|---------------------------|
-----------3---3-3--3-3-3-3-|---------------------------|


  E  E  E  E  E  E  E  E     E  E  E  E  E  E  E  E   
--------------------------|--------------------------|
--------------------------|--------------------------|
--0--0--0--0--0--0--0--0--|--2--2--2--2--2--2--------|
--2--2--2--2--2--2--2--2--|--2--2--2--2--2--2--0--0--|
--3--3--3--3--3--3--3--3--|--0--0--0--0--0--0--2--2--|
--------------------------|--------------------3--3--|


  E.  S E  E.  E  S S E  S    E.  S E  E.  S E  S S S S  
---------------------------|----------------------------|
--3---3-x--3---x----3-3--x-|------x---------------------|
--2---2-x--2---x--2-2-2--x-|--0---x-0-------------------|
--0-----x--0---x--0------x-|--2---x-2--0---0-0--0-0-0-0-|
---------------------------|--3-----3--2---2-2--2-2-2-2-|
---------------------------|-----------3---3-3--3-3-3-3-|


  E.  S E  E.  E  S S E  S    E.  S E  E.  S E  S S S S  
---------------------------|----------------------------|
--3---3-x--3---x----3-3--x-|------x---------------------|
--2---2-x--2---x--2-2-2--x-|--0---x-0-------------------|
--0-----x--0---x--0------x-|--2---x-2--0---0-0--0-0-0-0-|
---------------------------|--3-----3--2---2-2--2-2-2-2-|
---------------------------|-----------3---3-3--3-3-3-3-|


  E.  S E  E.  E  S S E  S    E.  S E  E.  S E  S S S S  
---------------------------|----------------------------|
--3---3-x--3---x----3-3--x-|------x---------------------|
--2---2-x--2---x--2-2-2--x-|--0---x-0-------------------|
--0-----x--0---x--0------x-|--2---x-2--0---0-0--0-0-0-0-|
---------------------------|--3-----3--2---2-2--2-2-2-2-|
---------------------------|-----------3---3-3--3-3-3-3-|


  E.  S E  E.  E  S S E  S    E.  S E  E.  S E  S S S S  
---------------------------|----------------------------|
--3---3-x--3---x----3-3--x-|------x---------------------|
--2---2-x--2---x--2-2-2--x-|--0---x-0-------------------|
--0-----x--0---x--0------x-|--2---x-2--0---0-0--0-0-0-0-|
---------------------------|--3-----3--2---2-2--2-2-2-2-|
---------------------------|-----------3---3-3--3-3-3-3-|


  Q    S E  S Q    S E  S    Q    E.  E.  E  S E  S    Q    S E  S Q    S E  S  
--------------------------|-----------3------3------|--------------------------|
--1-----------------------|--3----3-------3--3-3----|--1-----------------------|
--2----x-2--x-5----x-5--x-|--0----0----------0-0--x-|--2----x-2--x-5----x-5--x-|
--2----x-2--x-5----x-5--x-|--0----0------------0--x-|--2----x-2--x-5----x-5--x-|
--0----x-0--x-3----x-3--x-|--2----2------------2--x-|--0----x-0--x-3----x-3--x-|
--------------------------|--3----3-----------------|--------------------------|


  E  S S E  S E  S S S E  S S    E  S S E  S E  S S S S S S S  
------------------------------|-------------------------------|
---------3-------------3------|---------3---------------------|
--0--x-x-0--x-0--x-x-x-0--x-x-|--0--x-x-0--x-0--x-x-----------|
--0--x-x-0--x-0--x-x-x-0--x-x-|--0--x-x-0--x-0--x-x-0-2-0-----|
------------------------------|---------------------------2-0-|
------------------------------|-------------------------------|


  E  E  S E  S E  E  S E  S    E  E  S E  S E  E  S E  S  
----------------------------|----------------------------|
----------------------------|----------------------------|
--5--5--x-5--x-3--3--x-3--x-|--5--5--x-5--x-3--3--x-3--x-|
--5--5--x-5--x-3--3--x-3--x-|--5--5--x-5--x-3--3--x-3--x-|
--3--3--x-3--x-1--1--x-1--x-|--3--3--x-3--x-1--1--x-1--x-|
----------------------------|----------------------------|


  E  S S S E  E.  S S S S E     E  S S S E  E.  S S S S E   
-----------------------------|-----------------------------|
-----------------------------|-----------------------------|
--------------------------0--|--------------------------0--|
--5-------------------0-2----|--5-------------------0-2----|
-------3-5-7--5---5-3--------|-------3-5-7--5---5-3--------|
-----3-----------------------|-----3-----------------------|


  E  E  S E  S E  E  S E  S    E  E  S E  S E  E  S E  S  
----------------------------|----------------------------|
----------------------------|----------------------------|
--5--5--x-5--x-3--3--x-3--x-|--5--5--x-5--x-3--3--x-3--x-|
--5--5--x-5--x-3--3--x-3--x-|--5--5--x-5--x-3--3--x-3--x-|
--3--3--x-3--x-1--1--x-1--x-|--3--3--x-3--x-1--1--x-1--x-|
----------------------------|----------------------------|


  E  E  E  E  S S S S S S S S    E  S S S E  E.  S S S S E   
------------------------------|-----------------------------|
--3--3--3--3--3-3-3-3-3-3-3-3-|-----------------------------|
--2--2--2--2--2-2-2-2-2-2-2-2-|--------------------------0--|
--0--0--0--0--0-0-0-0-0-0-0-0-|--5-------------------0-2----|
------------------------------|-------3-5-7--5---5-3--------|
------------------------------|-----3-----------------------|


  E  S S S E  E.  S S S S E     E  S S S E  E.  S S S S E   
-----------------------------|-----------------------------|
-----------------------------|-----------------------------|
--------------------------0--|--------------------------0--|
--5-------------------0-2----|--5-------------------0-2----|
-------3-5-7--5---5-3--------|-------3-5-7--5---5-3--------|
-----3-----------------------|-----3-----------------------|


  E  S S S E  E.  S S S S E     E  S S S E  E.  S S S S E   
-----------------------------|-----------------------------|
-----------------------------|-----------------------------|
--------------------------0--|--------------------------0--|
--5-------------------0-2----|--5-------------------0-2----|
-------3-5-7--5---5-3--------|-------3-5-7--5---5-3--------|
-----3-----------------------|-----3-----------------------|


  E  S S S E  E.  S S S S E     E  S S S E  E.  S S S S E   
-----------------------------|-----------------------------|
-----------------------------|-----------------------------|
--------------------------0--|--------------------------0--|
--5-------------------0-2----|--5-------------------0-2----|
-------3-5-7--5---5-3--------|-------3-5-7--5---5-3--------|
-----3-----------------------|-----3-----------------------|


  E  S S S E  E.  S S S S E     W                  
-----------------------------|--3----------------||
-----------------------------|--3----------------||
--------------------------0--|--0----------------||
--5-------------------0-2----|--0----------------||
-------3-5-7--5---5-3--------|--2----------------||
-----3-----------------------|--3----------------||










Gary Rossington - Acustic



     E  E  Q    E  E  Q       E  E  Q    E  E  Q       E  E  Q    E  E  Q     
E||------------------------|------------------------|------------------------|
B||------------------------|------------------------|------------------------|
G||------------------------|------------------------|------------------------|
D||--5--5-------3--3-------|--5--5-------3--3-------|--5--5-------3--3-------|
A||------------------------|------------------------|------------------------|
E||------------------------|------------------------|------------------------|


  E  E  Q    E  E  Q       E.  E  E.  E.  E   E.   
------------------------|--3----------------------|
------------------------|------3------6-----------|
------------------------|-----------------5S------|
--5--5-------3--3-------|-------------------------|
------------------------|-------------------------|
------------------------|-------------------------|


  E.  E  E.  S. S S S. S S S    E.  E  E.  E.  E   E.   
--3----------------------3-5-|--3----------------------|
------3------6--L------------|------3------6-----------|
------------------5-L--L-----|-----------------5S------|
-----------------------------|-------------------------|
-----------------------------|-------------------------|
-----------------------------|-------------------------|


  E.  E  E.  E.  E   E.       E  E  Q      E  E  Q     
--3----------------------|----------------------------|
------3------6-----------|----------------------------|
-----------------5S------|-------5--L---------3--L----|
-------------------------|--3g5----------3g5----------|
-------------------------|----------------------------|
-------------------------|----------------------------|


    E  E  Q      E  E  Q       E.  E  E.  E.  E   E.   
----------------------------|--3----------------------|
----------------------------|------3------6-----------|
-------5--L---------3--L----|-----------------5S------|
--3g5----------3g5----------|-------------------------|
----------------------------|-------------------------|
----------------------------|-------------------------|


  E.  E  E.  E.  E   E.     W                   W                 
--3----------------------|-------------------|-------------------|
------3------6-----------|-------------------|-------------------|
-----------------5S------|-------------------|-------------------|
-------------------------|-------------------|-------------------|
-------------------------|-------------------|-------------------|
-------------------------|-------------------|-------------------|


  W                   W                   E.  E  E.  E.  E   E.   
-------------------|-------------------|--3----------------------|
-------------------|--3----------------|------3------6-----------|
-------------------|--0----------------|-----------------5S------|
-------------------|-------------------|-------------------------|
-------------------|-------------------|-------------------------|
-------------------|-------------------|-------------------------|


  E.  E  E.  S. S S S. S S S    E.  E  E.  E.  E   E.   
--3----------------------3-5-|--3----------------------|
------3------6--L------------|------3------6-----------|
------------------5-L--L-----|-----------------5S------|
-----------------------------|-------------------------|
-----------------------------|-------------------------|
-----------------------------|-------------------------|


  E.  E  E.  E.  E   E.       E  E  Q      E  E  Q     
--3----------------------|----------------------------|
------3------6-----------|----------------------------|
-----------------5S------|-------5--L---------3--L----|
-------------------------|--3g5----------3g5----------|
-------------------------|----------------------------|
-------------------------|----------------------------|


    E  E  Q      E  E  Q       E.  E  E.  E.  E   E.   
----------------------------|--3----------------------|
----------------------------|------3------6-----------|
-------5--L---------3--L----|-----------------5S------|
--3g5----------3g5----------|-------------------------|
----------------------------|-------------------------|
----------------------------|-------------------------|


  E.  E  E.  E.  E   E.     W                   W                 
--3----------------------|-------------------|-------------------|
------3------6-----------|-------------------|-------------------|
-----------------5S------|-------------------|-------------------|
-------------------------|-------------------|-------------------|
-------------------------|-------------------|-------------------|
-------------------------|-------------------|-------------------|


  W                   W                   W                   W                 
-------------------|-------------------|-------------------|-------------------|
-------------------|-------------------|-------------------|-------------------|
-------------------|-------------------|-------------------|-------------------|
-------------------|-------------------|-------------------|-------------------|
-------------------|-------------------|-------------------|-------------------|
-------------------|-------------------|-------------------|-------------------|


  W                   W                   W                   W                 
-------------------|-------------------|-------------------|-------------------|
-------------------|-------------------|-------------------|-------------------|
-------------------|-------------------|-------------------|-------------------|
-------------------|-------------------|-------------------|-------------------|
-------------------|-------------------|-------------------|-------------------|
-------------------|-------------------|-------------------|-------------------|


  W                   W                   W                   W                 
-------------------|-------------------|-------------------|-------------------|
-------------------|-------------------|-------------------|-------------------|
-------------------|-------------------|-------------------|-------------------|
-------------------|-------------------|-------------------|-------------------|
-------------------|-------------------|-------------------|-------------------|
-------------------|-------------------|-------------------|-------------------|


  W                   W                   W                   W                 
-------------------|-------------------|-------------------|-------------------|
-------------------|-------------------|-------------------|-------------------|
-------------------|-------------------|-------------------|-------------------|
-------------------|-------------------|-------------------|-------------------|
-------------------|-------------------|-------------------|-------------------|
-------------------|-------------------|-------------------|-------------------|


  W                   W                   W                   W                 
-------------------|-------------------|-------------------|-------------------|
-------------------|-------------------|-------------------|-------------------|
-------------------|-------------------|-------------------|-------------------|
-------------------|-------------------|-------------------|-------------------|
-------------------|-------------------|-------------------|-------------------|
-------------------|-------------------|-------------------|-------------------|


  W                   W                   W                   W                 
-------------------|-------------------|-------------------|-------------------|
-------------------|-------------------|-------------------|-------------------|
-------------------|-------------------|-------------------|-------------------|
-------------------|-------------------|-------------------|-------------------|
-------------------|-------------------|-------------------|-------------------|
-------------------|-------------------|-------------------|-------------------|


  W                     E  E  Q      E  E  Q         E  E  Q      E  E  Q     
-------------------|----------------------------|----------------------------|
-------------------|----------------------------|----------------------------|
-------------------|-------5--L---------3--L----|-------5--L---------3--L----|
-------------------|--3g5----------3g5----------|--3g5----------3g5----------|
-------------------|----------------------------|----------------------------|
-------------------|----------------------------|----------------------------|


  E.  E  E.  E.  E   E.     E.  E  E.  E.  E   E.   
--3----------------------|--3----------------------|
------3------6-----------|------3------6-----------|
-----------------5S------|-----------------5S------|
-------------------------|-------------------------|
-------------------------|-------------------------|
-------------------------|-------------------------|


    E  E  Q      E  E  Q         E  E  Q      E  E  Q     
----------------------------|----------------------------|
----------------------------|----------------------------|
-------5--L---------3--L----|-------5--L---------3--L----|
--3g5----------3g5----------|--3g5----------3g5----------|
----------------------------|----------------------------|
----------------------------|----------------------------|


  E  E  E  E  S S S S S S S S    E.  E  E.  E.  E   E.   
------------------------------|--3----------------------|
------------------------------|------3------6-----------|
------------------------------|-----------------5S------|
--7--7--7--7--7-7-7-7-7-7-7-7-|-------------------------|
--5--5--5--5--5-5-5-5-5-5-5-5-|-------------------------|
------------------------------|-------------------------|


  E.  E  E.  E.  E   E.     E.  E  E.  E.  E   E.     E.  E  E.  E.  E   E.   
--3----------------------|--3----------------------|--3----------------------|
------3------6-----------|------3------6-----------|------3------6-----------|
-----------------5S------|-----------------5S------|-----------------5S------|
-------------------------|-------------------------|-------------------------|
-------------------------|-------------------------|-------------------------|
-------------------------|-------------------------|-------------------------|


  E.  E  E.  E.  E   E.     E.  E  E.  E.  E   E.     E.  E  E.  E.  E   E.   
--3----------------------|--3----------------------|--3----------------------|
------3------6-----------|------3------6-----------|------3------6-----------|
-----------------5S------|-----------------5S------|-----------------5S------|
-------------------------|-------------------------|-------------------------|
-------------------------|-------------------------|-------------------------|
-------------------------|-------------------------|-------------------------|


  E.  E  E.  E.  E   E.     W                  
--3----------------------|--3----------------||
------3------6-----------|-------------------||
-----------------5S------|-------------------||
-------------------------|-------------------||
-------------------------|-------------------||
-------------------------|-------------------||










Gary Rossington - Electric



     W                   W                   W                 
E||-------------------|-------------------|-------------------|
B||-------------------|-------------------|-------------------|
G||-------------------|-------------------|-------------------|
D||-------------------|-------------------|-------------------|
A||-------------------|-------------------|-------------------|
E||-------------------|-------------------|-------------------|


  W                   W                   W                   W                 
-------------------|-------------------|-------------------|-------------------|
-------------------|-------------------|-------------------|-------------------|
-------------------|-------------------|-------------------|-------------------|
-------------------|-------------------|-------------------|-------------------|
-------------------|-------------------|-------------------|-------------------|
-------------------|-------------------|-------------------|-------------------|


  W                   W                   W                   W                 
-------------------|-------------------|-------------------|-------------------|
-------------------|-------------------|-------------------|-------------------|
-------------------|-------------------|-------------------|-------------------|
-------------------|-------------------|-------------------|-------------------|
-------------------|-------------------|-------------------|-------------------|
-------------------|-------------------|-------------------|-------------------|


  W                   Q    S E  S Q    S E  S    E  S S E  S S E  S E  S E   
-------------------|--------------------------|-----------------------------|
-------------------|-------x-1---------x-5--x-|-----------------------------|
-------------------|--2----x-2--x-5----x-5--x-|--0--x-x-0--x-x-0--x---------|
-------------------|--2----x----x-5----x----x-|--0--x-x-0--x-x-0--x-2--0----|
-------------------|--------------------------|--------------------------2--|
-------------------|--------------------------|-----------------------------|


  Q    S E  S Q    S E  S    W                   W                 
--------------------------|-------------------|-------------------|
-------x-1---------x-5--x-|-------------------|-------------------|
-------x-2--x-5----x-5--x-|-------------------|-------------------|
-------x----x-5----x----x-|-------------------|-------------------|
--0-----------------------|-------------------|-------------------|
--------------------------|-------------------|-------------------|


  W                   W                   W                   W                 
-------------------|-------------------|-------------------|-------------------|
-------------------|-------------------|-------------------|-------------------|
-------------------|-------------------|-------------------|-------------------|
-------------------|-------------------|-------------------|-------------------|
-------------------|-------------------|-------------------|-------------------|
-------------------|-------------------|-------------------|-------------------|


  W                   W                   W                 
-------------------|-------------------|-------------------|
-------------------|-------------------|-------------------|
-------------------|-------------------|-------------------|
-------------------|-------------------|-------------------|
-------------------|-------------------|-------------------|
-------------------|-------------------|-------------------|


  Q    S E  S Q    S E  S    E  S S E  S S E  S E  S E   
--------------------------|-----------------------------|
-------x-1---------x-5--x-|-----------------------------|
--2----x-2--x-5----x-5--x-|--0--x-x-0--x-x-0--x---------|
--2----x----x-5----x----x-|--0--x-x-0--x-x-0--x-2--0----|
--------------------------|--------------------------2--|
--------------------------|-----------------------------|


  Q    S E  S Q    S E  S    W                 
--------------------------|-------------------|
-------x-1---------x-5--x-|-------------------|
-------x-2--x-5----x-5--x-|-------------------|
-------x----x-5----x----x-|-------------------|
--0-----------------------|-------------------|
--------------------------|-------------------|


  E   S E     S E  S. T  E  E  E     E.  S E  E.  E  S S E  S  
------3------------3--L-----------|---------------------------|
----------------------------------|---------------------------|
--2b--L-2pbr--0-------------------|--------------------7-7--x-|
----------------2-----------------|--7---7-x--7---x--7-7-7--x-|
----------------------0h-2--------|--5---5-x--5---x--5-5-5--x-|
----------------------------3-----|---------------------------|


  E.  S E  E.  S S S S E   S    E.  S E  E.  E  S S E  S  
-----------------------------|---------------------------|
-----------------------------|---------------------------|
-----------------------------|--------------------7-7--x-|
--5---x-5--------------------|--7---7-x--7---x--7-7-7--x-|
--3---x-3--5-----0-2-5-7S--3-|--5---5-x--5---x--5-5-5--x-|
-----------3---3-------------|---------------------------|


  E.  S E  E.  S S S S E   S    E.  S E  E.  E  S S E  S  
-----------------------------|---------------------------|
-----------------------------|---------------------------|
-----------------------------|--------------------7-7--x-|
--5---x-5--------------------|--7---7-x--7---x--7-7-7--x-|
--3---x-3--5-----0-2-5-7S--3-|--5---5-x--5---x--5-5-5--x-|
-----------3---3-------------|---------------------------|


  E.  S E  E.  S E.    S E     E.  S E  E.  E  S S E  S  
----------------------------|---------------------------|
----------------------------|---------------------------|
----------------------------|--------------------7-7--x-|
--5---x-5-------------------|--7---7-x--7---x--7-7-7--x-|
--3---x-3--5---2-------2-3--|--5---5-x--5---x--5-5-5--x-|
-----------3-----3br--------|---------------------------|


  E  E  E  E  E  E  E  E     E  E  E  E  E  E   E     S  S  
--------------------------|--------------------------------|
--------------------------|--------------------------15----|
--------------------------|--------------------14br-----14-|
--5--5--5--5--5--5--5--5--|--2--2--2--2--2-----------------|
--3--3--3--3--3--3--3--3--|--0--0--0--0--0-----------------|
--------------------------|--------------------------------|


   Q.      Q      E   E.     S     E   Q     E   S  E.      E   E   
-----------------13--15br---13-|--15--15b----L--13-------------15--|
--15------15~------------------|-------------------15---15g17------|
-------------------------------|-----------------------------------|
-------------------------------|-----------------------------------|
-------------------------------|-----------------------------------|
-------------------------------|-----------------------------------|


   Q.        Q.        E.     S     E   Q     E   S  E.   Q        
--15b~------15b~------15br---13-|--15--15b----L--13---------------|
--------------------------------|-------------------15---15brb----|
--------------------------------|---------------------------------|
--------------------------------|---------------------------------|
--------------------------------|---------------------------------|
--------------------------------|---------------------------------|


   Q       E   Q     S S  S  S  S S     Q       E   Q     E   S  E   S  
------------------------------------|----------------------------------|
--15br----13--15----17---17-15-13---|--15br----13--15----15--17-15--15-|
------------------------------------|----------------------------------|
------------------------------------|----------------------------------|
------------------------------------|----------------------------------|
------------------------------------|----------------------------------|


   S  S  S  S  S  S  S  S  S  S  S  S  S  S  S S  
-------------------------------------------------|
--18----15-18----15-18----15-18----15-18---------|
-----19-------19-------19-------19-------19-19-L-|
-------------------------------------------------|
-------------------------------------------------|
-------------------------------------------------|


   E  X  E    E   E   E   E   S  E   T X    Q    S E.   Q    S E   S  
-----------------------------------------|---------------------------|
--15--L-18S--20--18--15--15--18-15S--L-x-|---------------------------|
-----------------------------------------|--2----L-2S---5----x-5S--x-|
-----------------------------------------|---------------------------|
-----------------------------------------|---------------------------|
-----------------------------------------|---------------------------|


  E.   E     S E  S. T  E  S S E     Q    S E.   Q    S E   S  
----------------------------------|---------------------------|
----------------------------------|---------------------------|
--2b---2pbr--0----0---------------|--2----L-2S---5----x-5S--x-|
---------------2-----2p-0---------|---------------------------|
---------------------------2-0----|---------------------------|
-------------------------------3--|---------------------------|


  S  S S S  S S S S S S S S S S S S    E.   E     S E  S. T  E  S S E   
------------------------------------|----------------------------------|
----12-----10-----8-----7-----5-----|----------------------------------|
--0------0------0-----0-----0-----0-|--2b---2pbr--0----0---------------|
------------------------------------|---------------2-----2p-0--2-0----|
------------------------------------|-------------------------------2--|
------------------------------------|----------------------------------|


  W                   W                   W                   W                 
-------------------|-------------------|-------------------|-------------------|
-------------------|-------------------|-------------------|-------------------|
-------------------|-------------------|-------------------|-------------------|
-------------------|-------------------|-------------------|-------------------|
-------------------|-------------------|-------------------|-------------------|
-------------------|-------------------|-------------------|-------------------|


  W                   W                   W                 
-------------------|-------------------|-------------------|
-------------------|-------------------|-------------------|
-------------------|-------------------|-------------------|
-------------------|-------------------|-------------------|
-------------------|-------------------|-------------------|
-------------------|-------------------|-------------------|


  E.  S  S S E.  E  S  S S E     E.  S  S S E.  E  S  S S E   
------------------------------|------------------------------|
------------------------------|------------------------------|
------------------------------|------------------------------|
------5p-2-0-5---L--5p-2-0-5--|--L---5p-2-0-5---L--5p-2-0-5--|
------------------------------|------------------------------|
------------------------------|------------------------------|


  E.  S  S S E.  E  S  S S E     E.  S  S S E.  E  S  S S E   
------------------------------|------------------------------|
------------------------------|------------------------------|
------------------------------|------------------------------|
--L---5p-2-0-5---L--5p-2-0-5--|--L---5p-2-0-5---L--5p-2-0-5--|
------------------------------|------------------------------|
------------------------------|------------------------------|


  E.   E     S E  S. T  E  S  S E     E.  S  S S E.  E  S  S S E   
-----------------------------------|------------------------------|
-----------------------------------|------------------------------|
--2b---2pbr--0----0----------------|------------------------------|
---------------2-----2p-0-------5--|--L---5p-2-0-5---L--5p-2-0-5--|
---------------------------0h-2----|------------------------------|
-----------------------------------|------------------------------|


  E.   E     S E  S. T  E  S  S E     E.  S  S S E.  E  S  S S E   
-----------------------------------|------------------------------|
-----------------------------------|------------------------------|
--2b---2pbr--0----0----------------|------------------------------|
---------------2-----2p-0-------5--|--L---5p-2-0-5---L--5p-2-0-5--|
---------------------------0h-2----|------------------------------|
-----------------------------------|------------------------------|


  W                  
-------------------||
-------------------||
-------------------||
--5----------------||
-------------------||
-------------------||




Duration Legend
---------------
W - whole
H - half
Q - quarter
E - 8th
S - 16th
T - 32nd
X - 64th
. - note dotted
|-n-|  - n-tuplets


Tablature Legend
----------------
L - tied note
x - dead note
g - grace note
(n) - ghost note
> - accentuded note
NH - natural harmonic
AH - artificial harmonic
TH - tapped harmonic
SH - semi harmonic
PH - pitch harmonic
h - hammer on
p - pull off
b - bend
br - bendRelease
pb - preBend
pbr - preBendRelease
brb - bendReleaseBend
\n/ - tremolo bar dip
\n - tremolo bar dive
-/n - tremolo bar Release up
/n\ - tremolo bar inverted dip
/n - tremolo bar return
-\n - tremolo bar Release down
S - shift slide
s - legato slide
/ -  slide into from below or out of upwards
\ -  slide into from above or out of downwards
~ - vibrato
W - wide vibrato
tr - trill
TP - tremolo picking
T - tapping
S - slap
P - pop
< - fade in
^ - brush up
v - brush down
comments
We did not receive enough feedback on this tab! Please rate:
1 2 3 4 5
I want to post or [tab]
guest
You may want to rate the tab now too:
select rating
Please do not post tabs as comments. Select "correction" instead!