Oops, an error
Loading. Please wait.

Sweet Home Alabama Tab

ver5
ver5
More versions @911Tabs.com
45,476 views 24 this week
9 commentsread comments
1 2 3 4 5
not so good
x 12
Autoscroll
+/-
esc
set tempo
stop
Difficulty
Tuning
intermediate
E A D G B E
Hey! There's an official Ultimate Guitar app which is ideal
for learning songs when you're away from computer. Get the app
WARNING: You are trying to view
                                    content from Ultimate-Guitar.com
                                    in an unauthorized application,
                                    which is prohibited.

                                    Please use an official Ultimate
                                    Guitar Tabs application for iPhone,
                                    iPad or Android to access legitimate
                                    chords, guitar, bass, and drum tabs
                                    from Ultimate-Guitar.com database.

                                    Type "ultimate guitar tabs" in Apple
                                    App Store's or Android Market's
                                    search to find the application.
                               SWEET_HOME_ALABAMA


Gtr I (B E A D G B) - 'Bass Gtr'
Gtr II (E A D G B E) - 'Lead Guit'
Gtr III (E A D G B E) - 'Guitar'
Gtr IV (C G C G C E) - 'Drums'

  Q=95
 4/4
  Gtr III
  W          W                         S S E S E S S S E E. S
|----------|-------------------------|-------------------------|
|----------|-------------------------|-------3-----------3-----|
|----------|-------------------------|---------2---------0-----|
|----------|-------------------------|-0---0-----0-------------|
|----------|-------------------------|-------------3---3----5--|
|----------|-------------------------|-------------------------|
|
| Gtr IV
| W          S S E S S E S S E S S E   S S E Q     S S E Q
|----------|-------------------------|-------------------------|
|----------|-------------------------|-------------------------|
|----------|-------------------------|-------------------------|
|----------|-------------------------|-------------------------|
|----------|-------------------------|-------------------------|
|----------|-6-----6-----6-----6-----|-6-----------6-----------|


  Gtr II
  H        Q       E   S S   W
|--------------------------|----------------------------------|
|--------------------------|-3--------------------------------|
|--------------------------|----------------------------------|
|----------------------3-4-|----------------------------------|
|--------------------------|----------------------------------|
|--------------------------|----------------------------------|
|
| Gtr III
| S S E Q  S S S S S S S S   S S E   S E   S S S E   E.     S
|--------------------------|----------------------------------|
|-------3------------------|---------3---------------3--------|
|-------0------------------|-----------2-------------0--------|
|----------------0-2-0-----|-0---0---------0------------------|
|----------0-1-2-------1-2-|-----------------3---3----------5-|
|-3---3--------------------|----------------------------------|
|
| Gtr IV
| S S E Q  S S E   Q         S S S S S S E   S S S S S  S E
|--------------------------|----------------------------------|
|--------------------------|----------------------------------|
|--------------------------|----------------------------------|
|--------------------------|----------------------------------|
|--------------------------|----------------------------------|
|-6--------6---------------|-0---0---2-------0---0---2--------|


  Gtr I
   W                                S S S S Q     S S E Q
|---------------------------------|---------------------------|
|---------------------------------|-7---7---7-----5---5-5-----|
|---------------------------------|---------------------------|
|---------------------------------|---------------------------|
|---------------------------------|---------------------------|
|---------------------------------|---------------------------|
|
| Gtr II
| +Q      +S  S E H                 Q       Q     Q     Q
|---------------------------------|---------------------------|
|-(3)-----(3)---------------------|---------------------------|
|---------------------------------|---------2-----------------|
|---------------------------------|---------0-----------5-----|
|---------------------------------|---------------------3-----|
|---------------------------------|---------------------------|
|
| Gtr III
|  S  S E  Q      S S S S S S S S   S S E   S E S S S E E. S
|---------------------------------|---------------------------|
|----------3----------------------|---------3-----------3-----|
|----------0----------------------|-----------2---------0-----|
|---------------------------------|-------------0-------------|
|-----------------2-----3-----4---|-5---5---------3---3----5--|
|--3----3-----------3-3---3-3---3-|---------------------------|


  S S E +Q   S S E +E  E     S S E Q     S S E Q
|--------------------------|------------------------|
|----------------------5---|-------------5---5-5----|
|-5---5-(5)--5---5-(5)-----|------------------------|
|--------------------------|-5---5-5----------------|
|--------------------------|------------------------|
|--------------------------|------------------------|
|
| Q      Q   Q      Q        Q     Q     Q     Q
|--------------------------|------------------------|
|--------------------------|------------------------|
|--------------------------|-------2----------------|
|--------------------------|-------0-----------5----|
|--------5----------5------|-------------------3----|
|--------3----------3------|------------------------|
|
| S S E  Q   S S E  E  S S   S S E S E S S S E E. S
|--------------------------|------------------------|
|--------3----------3------|-------3-----------3----|
|--------0----------0------|---------2-0-------0----|
|--------------------------|------------------------|
|----------------------2-3-|-5---5-------3---3----5-|
|-3---3------3---3---------|------------------------|


  S S E +Q   S S E +E  E     S S E Q     S S E +Q
|--------------------------|-------------------------|
|----------------------5---|-------------5---5-(5)---|
|-5---5-(5)--5---5-(5)-----|-------------------------|
|--------------------------|-5---5-5-----------------|
|--------------------------|-------------------------|
|--------------------------|-------------------------|
|
| Q      Q   Q      Q        Q     Q     Q      Q
|--------------------------|-------------------------|
|--------------------------|-------------------------|
|--------------------------|-------2-----------------|
|--------------------------|-------0------------5----|
|--------5----------5------|--------------------3----|
|--------3----------3------|-------------------------|
|
| S S E  Q   S S E  E  S S   S S E S E S S S E  E. S
|--------------------------|-------------------------|
|--------3----------3------|-------3------------3----|
|--------0----------0------|---------2-0--------0----|
|--------------------------|-------------------------|
|----------------------2-3-|-5---5-------3---3-----5-|
|-3---3------3---3---------|-------------------------|


  S S E +Q   S S E +E  E     S S E +Q      S S E +Q
|--------------------------|---------------------------|
|----------------------5---|---------------5---5-(5)---|
|-5---5-(5)--5---5-(5)-----|---------------------------|
|--------------------------|-5---5-(5)-----------------|
|--------------------------|---------------------------|
|--------------------------|---------------------------|
|
| Q      Q   Q      Q        Q      Q      Q      Q
|--------------------------|---------------------------|
|--------------------------|---------------------------|
|--------------------------|--------2------------------|
|--------------------------|--------0-------------5----|
|--------5----------5------|----------------------3----|
|--------3----------3------|---------------------------|
|
| S S E  Q   S S E  E  S S   S S E  S  E S S S E  E. S
|--------------------------|---------------------------|
|--------3----------3------|--------3-------------3----|
|--------0----------0------|-----------2----------0----|
|--------------------------|-------------0-------------|
|----------------------3-4-|-5---5---------3---3-----5-|
|-3---3------3---3---------|---------------------------|


  S S E +Q   S S E +E  E     S S E +Q      S S E +Q
|--------------------------|---------------------------|
|----------------------5---|---------------5---5-(5)---|
|-5---5-(5)--5---5-(5)-----|---------------------------|
|--------------------------|-5---5-(5)-----------------|
|--------------------------|---------------------------|
|--------------------------|---------------------------|
|
| Q      Q   Q      Q        Q      Q      Q      Q
|--------------------------|---------------------------|
|--------------------------|---------------------------|
|--------------------------|--------2------------------|
|--------------------------|--------0-------------5----|
|--------5----------5------|----------------------3----|
|--------3----------3------|---------------------------|
|
| S S E  Q   S S E  E  S S   S S E  S  E S S S E  E. S
|--------------------------|---------------------------|
|--------3----------3------|--------3-------------3----|
|--------0----------0------|-----------2----------0----|
|--------------------------|-------------0-------------|
|----------------------3-4-|-5---5---------3---3-----5-|
|-3---3------3---3---------|---------------------------|


  S S E +Q   S S E +E  E     S S E +Q      S S S S Q
|--------------------------|----------------------------|
|----------------------5---|---------------5---5---5----|
|-5---5-(5)--5---5-(5)-----|----------------------------|
|--------------------------|-5---5-(5)------------------|
|--------------------------|----------------------------|
|--------------------------|----------------------------|
|
| Q      Q   Q      Q        Q      Q      Q       Q
|--------------------------|----------------------------|
|--------------------------|----------------------------|
|--------------------------|--------2-------------------|
|--------------------------|--------0--------------5----|
|--------5----------5------|-----------------------3----|
|--------3----------3------|----------------------------|
|
| S S E  Q   S S E  E  S S   S S E  S  E S S S E   E. S
|--------------------------|----------------------------|
|--------3----------3------|--------3--------------3----|
|--------0----------0------|-----------2-----------0----|
|--------------------------|-------------0--------------|
|----------------------3-4-|-5---5---------3---3------5-|
|-3---3------3---3---------|----------------------------|


  S S S S Q  S S S S Q       S S  E     +Q           S  S  S S  Q
|--------------------------|-----------------------------------------|
|--------------------------|-------------------------5-----5----5----|
|-5---5---5--5---5---5-----|-----------------------------------------|
|--------------------------|-5----5-----(5)--------------------------|
|--------------------------|-----------------------------------------|
|--------------------------|-----------------------------------------|
|
| Q       Q  Q       Q       S S  S  S  +S   S  S S  S  S  S S  Q
|--------------------------|-1-2-10-10-(10)-10-----------------------|
|--------------------------|------------------------------13---13----|
|--------------------------|-------------------11--------------------|
|--------------------------|------------------------13-14------------|
|---------5----------5-----|-----------------------------------------|
|---------3----------3-----|-----------------------------------------|
|
| S S E   Q  S S E   E S S   S S  E      S   E    S  S  S  E    E. S
|--------------------------|-----------------------------------------|
|---------3----------3-----|-------------3----------------------3----|
|---------0----------0-----|-----------------2------------------0----|
|--------------------------|----------------------0------------------|
|----------------------3-4-|-5----5------------------3-----3-------5-|
|-3---3------3---3---------|-----------------------------------------|


   S  S  S  S Q         S  S E +E  E
|--------------------------------------|
|----------------------------------5---|
|--5-----5----5---------5----5-(5)-----|
|--------------------------------------|
|--------------------------------------|
|--------------------------------------|
|
|  S  S  S  S S  S  E  +Q.         E
|--------------------------------------|
|--------------------------------------|
|----------12---12---------------------|
|--------------------------------------|
|-12-13-14---------10-(10)-------------|
|--------------------------------------|
|
|  S  S  E    Q         S  S E  E  S S
|--------------------------------------|
|-------------3-----------------3------|
|-------------0-----------------0------|
|--------------------------------------|
|----------------------------------3-4-|
|--3-----3--------------3----3---------|


   S  S  E    +Q           S  S  E   +Q
|------------------------------------------|
|--------------------------5-----5---(5)---|
|------------------------------------------|
|--5-----5----(5)--------------------------|
|------------------------------------------|
|------------------------------------------|
|
|  S  S  S  S  S   S  S S  S  S  S S  Q
|-------10-10-----10-----------------------|
|-------------------------------13---13----|
|-10-11--------------11--------------------|
|-------------------------13-14------------|
|------------------------------------------|
|------------------------------------------|
|
|  S  S  E     S   E    S  S  S  E    E. S
|------------------------------------------|
|--------------3----------------------3----|
|------------------2------------------0----|
|-----------------------0------------------|
|--5-----5-----------------3-----3-------5-|
|------------------------------------------|


   S  S  E    +Q          S  S E +E  E     S S E +Q      S S E +Q
|----------------------------------------|---------------------------|
|------------------------------------5---|---------------5---5-(5)---|
|--5-----5----(5)---------5----5-(5)-----|---------------------------|
|----------------------------------------|-5---5-(5)-----------------|
|----------------------------------------|---------------------------|
|----------------------------------------|---------------------------|
|
|  S  S  S  S  S   S  E  +H                Q      Q      Q      Q
|----------------------------------------|---------------------------|
|----------------------------------------|---------------------------|
|----------12-----12---------------------|---------------------------|
|----------------------------------------|---------------------------|
|-12-13-14-----------10-(10)-------------|-------12------------10----|
|----------------------------------------|-------10-------------8----|
|
|  S  S  E     Q          S  S E  E  S S   S S E  S  E S S S E  E. S
|----------------------------------------|---------------------------|
|--------------3------------------3------|--------3-------------3----|
|--------------0------------------0------|-----------2----------0----|
|----------------------------------------|-------------0-------------|
|------------------------------------3-4-|-5---5---------3---3-----5-|
|--3-----3----------------3----3---------|---------------------------|


  S S E +Q   S S E +E  E     S S E +Q      S S E +Q
|--------------------------|---------------------------|
|----------------------5---|---------------5---5-(5)---|
|-5---5-(5)--5---5-(5)-----|---------------------------|
|--------------------------|-5---5-(5)-----------------|
|--------------------------|---------------------------|
|--------------------------|---------------------------|
|
| Q      Q   Q      Q        Q      Q      Q      Q
|--------------------------|---------------------------|
|--------------------------|---------------------------|
|--------------------------|--------2------------------|
|--------------------------|--------0-------------5----|
|--------5----------5------|----------------------3----|
|--------3----------3------|---------------------------|
|
| S S E  Q   S S E  E  S S   S S E  S  E S S S E  E. S
|--------------------------|---------------------------|
|--------3----------3------|--------3-------------3----|
|--------0----------0------|-----------2----------0----|
|--------------------------|-------------0-------------|
|----------------------3-4-|-5---5---------3---3-----5-|
|-3---3------3---3---------|---------------------------|


  S S E +Q   S S E +E  E     S S E +Q      S S E +Q
|--------------------------|---------------------------|
|----------------------5---|---------------5---5-(5)---|
|-5---5-(5)--5---5-(5)-----|---------------------------|
|--------------------------|-5---5-(5)-----------------|
|--------------------------|---------------------------|
|--------------------------|---------------------------|
|
| Q      Q   Q      Q        Q      Q      Q      Q
|--------------------------|---------------------------|
|--------------------------|---------------------------|
|--------------------------|--------2------------------|
|--------------------------|--------0-------------5----|
|--------5----------5------|----------------------3----|
|--------3----------3------|---------------------------|
|
| S S E  Q   S S E  E  S S   S S E  S  E S S S E  E. S
|--------------------------|---------------------------|
|--------3----------3------|--------3-------------3----|
|--------0----------0------|-----------2----------0----|
|--------------------------|-------------0-------------|
|----------------------3-4-|-5---5---------3---3-----5-|
|-3---3------3---3---------|---------------------------|


  S S E +Q   S S E +E  E     S S E +Q      S S E +Q
|--------------------------|---------------------------|
|----------------------5---|---------------5---5-(5)---|
|-5---5-(5)--5---5-(5)-----|---------------------------|
|--------------------------|-5---5-(5)-----------------|
|--------------------------|---------------------------|
|--------------------------|---------------------------|
|
| Q      Q   Q      Q        Q      Q      Q      Q
|--------------------------|---------------------------|
|--------------------------|---------------------------|
|--------------------------|--------2------------------|
|--------------------------|--------0-------------5----|
|--------5----------5------|----------------------3----|
|--------3----------3------|---------------------------|
|
| S S E  Q   S S E  E  S S   S S E  S  E S S S E  E. S
|--------------------------|---------------------------|
|--------3----------3------|--------3-------------3----|
|--------0----------0------|-----------2----------0----|
|--------------------------|-------------0-------------|
|----------------------3-4-|-5---5---------3---3-----5-|
|-3---3------3---3---------|---------------------------|


  S S E +Q   S S E +E  E   S S E +Q     S S E +Q
|------------------------|-----------------------------|
|----------------------5-|--------------5---5-(5)------|
|-5---5-(5)--5---5-(5)---|-----------------------------|
|------------------------|-5---5-(5)-------------------|
|------------------------|-----------------------------|
|------------------------|-----------------------------|
|
| Q      Q   Q      Q      S S E  S  E. S S E  S  E.
|------------------------|-----------------------------|
|------------------------|-----------------------------|
|------------------------|-2---2--4--2-----------------|
|------------------------|-0---0--0-----5---5--7--5----|
|--------5----------5----|--------------3---3--3-------|
|--------3----------3----|-----------------------------|
|
| S S E  Q   S S E  E  E   S S E  S  E. S S E  S  E  S
|------------------------|-----------------------------|
|--------3----------3----|-3---3-----------------------|
|--------0----------0----|-2---2--4--2--5---5----------|
|------------------------|-0---0--0-----5---5--7--5----|
|------------------------|--------------3---3--3-------|
|-3---3------3---3-----3-|-----------------------------|


  S S E E E E E S E.   S S E   +Q       S S E +Q
|--------------------|---------------------------------|
|-----------------5--|------------------5---5-(5)------|
|-5---5---5---5------|---------------------------------|
|--------------------|-5---5---(5)---------------------|
|--------------------|---------------------------------|
|--------------------|---------------------------------|
|
| S S E E E E E S E.   S S S S  S  E.   S S E  S  E.
|--------------------|---------------------------------|
|--------------------|---------------------------------|
|--------------------|-2---2----4--2-------------------|
|---------2-------5--|-0---0----0-------5---5--7--5----|
|-5---5-------5---3--|------------------3---3--3-------|
|-3---3---3---3------|---------------------------------|
|
| S S E E E E E S E.   S S E    S  E  S S S E  S  E  S
|--------------------|---------------------------------|
|--------------------|-3---3---------------------------|
|---------0-------5--|-2---2----4--2----5---5----------|
|-5---5---2---5---5--|-0---0----0-------5---5--7--5----|
|-5---5-------5---3--|------------------3---3--3-------|
|-3---3---3---3------|---------------------------------|


  S S E E E E E E E   S S E +Q       S S E +E.    S
|-------------------|-------------------------------|
|-----------------5-|----------------5---5-(5)----5-|
|-5---5---5---5-----|-------------------------------|
|-------------------|-5---5-(5)---------------------|
|-------------------|-------------------------------|
|-------------------|-------------------------------|
|
| S S E E E E E E E   S S E  S  E.   S S E  S  E.
|-------------------|-------------------------------|
|-------------------|-------------------------------|
|-------------------|-2---2--4--2-------------------|
|---------2-------5-|-0---0--0-------5---5--7--5----|
|-5---5-------5---3-|----------------3---3--3-------|
|-3---3---3---3-----|-------------------------------|
|
| S S E E E E E E E   S S E  S  E  S S S E  S  E  S
|-------------------|-------------------------------|
|-------------------|-----3-------------------------|
|---------0-------5-|-2---2--4--2----5---5----------|
|-5---5---2---5---5-|-0---0----------5---5--7--5----|
|-5---5-------5---3-|----------------3---3--3-------|
|-3---3---3---3-----|-------------------------------|


  S S S S E E E E   S E.     S S E +Q       S S E   +Q
|--------------------------|---------------------------------|
|---------------------5----|----------------5---5---(5)------|
|-5---5-----5---5----------|---------------------------------|
|--------------------------|-5---5-(5)-----------------------|
|--------------------------|---------------------------------|
|--------------------------|---------------------------------|
|
| S S S S E E E E   S E.     S S E  S  E.   S S S S  S  E.
|--------------------------|---------------------------------|
|--------------------------|---------------------------------|
|--------------------------|-2---2--4--2---------------------|
|-----------2---------5----|-0---0--0-------5---5----7--5----|
|-5---5---------5-----3----|----------------3---3----3-------|
|-3---3-----3---3----------|---------------------------------|
|
| S S E   E E E S S S E  S   S S E  S  E  S S S E    S  E  S
|--------------------------|---------------------------------|
|--------------------------|-3---3---------------------------|
|-----------0---------5----|-2---2--4--2----5---5------------|
|-5---5-----2---5-----5----|-0---0--0-------5---5----7--5----|
|-5---5---------5-----3----|----------------3---3----3-------|
|-3---3-----3---3----------|---------------------------------|


  S S E +E    E    Q   Q      S  S  E   +Q      S  S  E    +Q
|--------------------------|--------------------------------------------|
|----------------------9---|--7-----7---(7)-----5-----5----(5)----------|
|-5---5-(5)----------------|--------------------------------------------|
|------------------8-------|--------------------------------------------|
|--------------------------|--------------------------------------------|
|--------------------------|--------------------------------------------|
|
| S S E  Q         Q   E E    S  S  S S  Q      S  S  S  S  S   S  S S
|-----------------15--15---|-14-----------------------------------------|
|--------------------------|----15------15-----------13-12-13--12-10-8--|
|--------------------------|-------14-------------14--------------------|
|--------------------------|--------------------------------------------|
|-5---5--------------------|--------------------------------------------|
|-3---3--------------------|--------------------------------------------|
|
| S S E +S  S S S  H          S  S  E    S  E S S  S  E     E.       S
|--------------------------|--------------------------------------------|
|--------------------------|-------------3------------------3-----------|
|--------------------------|----------------2---------------0-----------|
|-5---5-(5)---5------------|------------------0-------------------------|
|-5---5-(5)---5------------|--5-----5-----------3-----3--------------5--|
|-3---3-(3)---3------------|--------------------------------------------|


  S S E   +Q      S  S E +Q        S S  E     +Q           S  S  E   +Q
|--------------------------------|-----------------------------------------|
|--------------------------------|-------------------------5-----5---(5)---|
|-5---5---(5)-----5----5-(5)-----|-----------------------------------------|
|--------------------------------|-5----5-----(5)--------------------------|
|--------------------------------|-----------------------------------------|
|--------------------------------|-----------------------------------------|
|
| E   S S  S  E. +Q       Q        S S  S  S  +S   S  S S  S  S  S S  Q
|-------------3--(3)-------------|-1-2-10-10-(10)-10-----------------------|
|-8--------5---------------------|------------------------------13---13----|
|-----9-7------------------------|-------------------11--------------------|
|--------------------------------|------------------------13-14------------|
|--------------------------------|-----------------------------------------|
|--------------------------------|-----------------------------------------|
|
| S S E    Q      S  S E  E  S S   S S  E      S   E    S  S  S  E    Q
|--------------------------------|-----------------------------------------|
|----------3--------------3------|-------------3----------------------3----|
|----------0--------------0------|-----------------2------------------0----|
|--------------------------------|----------------------0------------------|
|----------------------------3-4-|-5----5------------------3-----3---------|
|-3---3-----------3----3---------|-----------------------------------------|


   S  S  E    +Q          S  S E +E  E     S S E +Q      S S E +Q
|----------------------------------------|---------------------------|
|------------------------------------5---|---------------5---5-(5)---|
|--5-----5----(5)---------5----5-(5)-----|---------------------------|
|----------------------------------------|-5---5-(5)-----------------|
|----------------------------------------|---------------------------|
|----------------------------------------|---------------------------|
|
|  S  S  S  S  S   S  E  +H                Q      Q      Q      Q
|----------------------------------------|---------------------------|
|----------------------------------------|---------------------------|
|----------12-----12---------------------|---------------------------|
|----------------------------------------|---------------------------|
|-12-13-14-----------10-(10)-------------|-------12------------10----|
|----------------------------------------|-------10-------------8----|
|
|  S  S  E     Q          S  S E  E  S S   S S E  S  E S S S E  E. S
|----------------------------------------|---------------------------|
|--------------3------------------3------|--------3-------------3----|
|--------------0------------------0------|-----------2----------0----|
|----------------------------------------|-------------0-------------|
|------------------------------------3-4-|-5---5---------3---3-----5-|
|--3-----3----------------3----3---------|---------------------------|


  S S E Q  Q  Q    S S E +Q      S S E +Q
|----------------|---------------------------|
|-------------9--|-7---7-(7)-----5---5-(5)---|
|-5---5----------|---------------------------|
|----------8-----|---------------------------|
|----------------|---------------------------|
|----------------|---------------------------|
|
| Q     Q  H       Q      Q      Q      Q
|----------------|---------------------------|
|----------------|---------------------------|
|----------------|--------2------------------|
|----------------|--------0-------------5----|
|-------5--------|----------------------3----|
|-------3--------|---------------------------|
|
| S S E Q  H       S S E  S  E S S S E  E. S
|----------------|---------------------------|
|-------3--------|--------3-------------3----|
|-------0--------|-----------2----------0----|
|----------------|-------------0-------------|
|----------------|-5---5---------3---3-----5-|
|-3---3----------|---------------------------|


  S S E +Q   S S E +E  E     S S E +Q      S S E +Q
|--------------------------|---------------------------|
|----------------------5---|---------------5---5-(5)---|
|-5---5-(5)--5---5-(5)-----|---------------------------|
|--------------------------|-5---5-(5)-----------------|
|--------------------------|---------------------------|
|--------------------------|---------------------------|
|
| Q      Q   Q      Q        Q      Q      Q      Q
|--------------------------|---------------------------|
|--------------------------|---------------------------|
|--------------------------|--------2------------------|
|--------------------------|--------0-------------5----|
|--------5----------5------|----------------------3----|
|--------3----------3------|---------------------------|
|
| S S E  Q   S S E  E  S S   S S E  S  E S S S E  E. S
|--------------------------|---------------------------|
|--------3----------3------|--------3-------------3----|
|--------0----------0------|-----------2----------0----|
|--------------------------|-------------0-------------|
|----------------------3-4-|-5---5---------3---3-----5-|
|-3---3------3---3---------|---------------------------|


  S S E +Q   S S E +E  E     S S E +Q      S S E +Q
|--------------------------|---------------------------|
|----------------------5---|---------------5---5-(5)---|
|-5---5-(5)--5---5-(5)-----|---------------------------|
|--------------------------|-5---5-(5)-----------------|
|--------------------------|---------------------------|
|--------------------------|---------------------------|
|
| Q      Q   Q      Q        Q      Q      Q      Q
|--------------------------|---------------------------|
|--------------------------|---------------------------|
|--------------------------|--------2------------------|
|--------------------------|--------0-------------5----|
|--------5----------5------|----------------------3----|
|--------3----------3------|---------------------------|
|
| S S E  Q   S S E  E  S S   S S E  S  E S S S E  E. S
|--------------------------|---------------------------|
|--------3----------3------|--------3-------------3----|
|--------0----------0------|-----------2----------0----|
|--------------------------|-------------0-------------|
|----------------------3-4-|-5---5---------3---3-----5-|
|-3---3------3---3---------|---------------------------|


  S S E +Q    S  S E +E  E     S S E +Q     S S E +Q
|----------------------------|-----------------------------|
|------------------------5---|--------------5---5-(5)------|
|-5---5-(5)---5----5-(5)-----|-----------------------------|
|----------------------------|-5---5-(5)-------------------|
|----------------------------|-----------------------------|
|----------------------------|-----------------------------|
|
| Q      Q   +Q       Q        S S E  S  E. S S E  S  E.
|----------------------------|-----------------------------|
|----------------------------|-----------------------------|
|----------------------------|-2---2--4--2-----------------|
|----------------------------|-0---0--0-----5---5--7--5----|
|--------5---(5)------5------|--------------3---3--3-------|
|--------3---(3)------3------|-----------------------------|
|
| S S E  Q    S  S E  E  S S   E   E  S  E. S S E  S  E  S
|----------------------------|-----------------------------|
|--------3------------3------|-----------------------------|
|--------0------------0------|-7------4-----5---5----------|
|----------------------------|-7---7--0--7--5---5--7--5----|
|------------------------3-4-|-5---5-----5-----------------|
|-3---3-------3----3---------|--------------8---8--8-------|


  S S E E E E S S S E.     S S E +Q       S S E +Q
|------------------------|-------------------------------|
|-------------------5----|----------------5---5-(5)------|
|-5---5---5---5----------|-------------------------------|
|------------------------|-5---5-(5)---------------------|
|------------------------|-------------------------------|
|------------------------|-------------------------------|
|
| S S E E E E E   S E.     S S E  S  E.   S S E  S  E.
|------------------------|-------------------------------|
|------------------------|-------------------------------|
|------------------------|-2---2--4--2-------------------|
|---------2---------5----|-0---0--0-------5---5--7--5----|
|-5---5-------5-----3----|----------------3---3--3-------|
|-3---3---3---3----------|-------------------------------|
|
| S S E E E E E   S E  S   S S E  S  E  S S S E  S  E  S
|------------------------|-------------------------------|
|------------------------|-3---3-------------------------|
|---------0---------5----|-2---2--4--2----5---5----------|
|-5---5---2---5-----5----|-0---0--0-------5---5--7--5----|
|-5---5-------5-----3----|----------------3---3--3-------|
|-3---3---3---3----------|-------------------------------|


  S S E E E E E E E   S S E   +Q       S S E +Q
|-------------------|---------------------------------|
|-----------------5-|------------------5---5-(5)------|
|-5---5---5---5-----|---------------------------------|
|-------------------|-5---5---(5)---------------------|
|-------------------|---------------------------------|
|-------------------|---------------------------------|
|
| S S E E E E E E E   S S S S  S  E.   S S E  S  E.
|-------------------|---------------------------------|
|-------------------|---------------------------------|
|-------------------|-2---2----4--2-------------------|
|---------2-------5-|-0---0----0-------5---5--7--5----|
|-5---5-------5---3-|------------------3---3--3-------|
|-3---3---3---3-----|---------------------------------|
|
| S S E E E E E E E   S S E    S  E  S S S E  S  E  S
|-------------------|---------------------------------|
|-------------------|-3---3---------------------------|
|---------0-------5-|-2---2----4--2----5---5----------|
|-5---5---2---5---5-|-0---0----0-------5---5--7--5----|
|-5---5-------5---3-|------------------3---3--3-------|
|-3---3---3---3-----|---------------------------------|


  S S E E E E S S S E.     S S E   +Q       S S E +Q
|------------------------|---------------------------------|
|-------------------5----|------------------5---5-(5)------|
|-5---5---5---5----------|---------------------------------|
|------------------------|-5---5---(5)---------------------|
|------------------------|---------------------------------|
|------------------------|---------------------------------|
|
| S S E E E E S S S E.     S S S S  S  E.   S S E  S  E.
|------------------------|---------------------------------|
|------------------------|---------------------------------|
|------------------------|-2---2----4--2-------------------|
|---------2---------5----|-0---0----0-------5---5--7--5----|
|-5---5-------5-----3----|------------------3---3--3-------|
|-3---3---3---3----------|---------------------------------|
|
| S S E E E E E   S E  S   S S E    S  E  S S S E  S  E  S
|------------------------|---------------------------------|
|------------------------|-3---3---------------------------|
|---------0---------5----|-2---2----4--2----5---5----------|
|-5---5---2---5-----5----|-0---0----0-------5---5--7--5----|
|-5---5-------5-----3----|------------------3---3--3-------|
|-3---3---3---3----------|---------------------------------|


  S S E +E    E Q  Q    S S  E     +Q           S  S  E   +Q
|---------------------|-------------------------------------------|
|------------------9--|-7----7-----(7)----------5-----5---(5)-----|
|-5---5-(5)-----------|-------------------------------------------|
|---------------8-----|-------------------------------------------|
|---------------------|-------------------------------------------|
|---------------------|-------------------------------------------|
|
| S S E  E    E H       S S  S  S  +S   S  S S  S  S  S S  E  E
|---------------------|-1-2-10-10-(10)-10-------------------------|
|---------------------|------------------------------13---13------|
|---------------------|-------------------11----------------------|
|---------------------|------------------------13-14--------------|
|-5---5-------5-------|-------------------------------------------|
|-3---3-------3-------|-------------------------------------------|
|
| S S E +S  S E Q  Q    S S  E      S   E    S  S  S  E    E.   S
|---------------------|-------------------------------------------|
|---------------------|-------------3----------------------3------|
|---------------------|-----------------2------------------0------|
|-5---5-(5)-----3--2--|-0----0---------------0--------------------|
|-5---5-(5)-----------|-------------------------3-----3---------5-|
|-3---3-(3)-----------|-------------------------------------------|


   S  S  E    +Q          S  S E  +E    E
|-------------------------------------------|
|---------------------------------------5---|
|--5-----5----(5)---------5----5--(5)-------|
|-------------------------------------------|
|-------------------------------------------|
|-------------------------------------------|
|
|  S  S  S  S  S   S  E  +Q       +S  S E
|-------------------------------------------|
|-------------------------------------------|
|----------12-----12------------------------|
|-------------------------------------------|
|-12-13-14-----------10-(10)-----(10)-------|
|-------------------------------------------|
|
|  S  S  E     Q          S  S E   E    S S
|-------------------------------------------|
|--------------3-------------------3--------|
|--------------0-------------------0--------|
|-------------------------------------------|
|---------------------------------------3-4-|
|--3-----3----------------3----3------------|


   S  S  E    +Q           S  S  E   +Q
|------------------------------------------|
|--------------------------5-----5---(5)---|
|------------------------------------------|
|--5-----5----(5)--------------------------|
|------------------------------------------|
|------------------------------------------|
|
|  S  S  S  S  S   S  S S  S  S  S S  Q
|-------10-10-----10-----------------------|
|-------------------------------13---13----|
|-10-11--------------11--------------------|
|-------------------------13-14------------|
|------------------------------------------|
|------------------------------------------|
|
|  S  S  E     S   E    S  S  S  E    E. S
|------------------------------------------|
|--------------3----------------------3----|
|------------------2------------------0----|
|-----------------------0------------------|
|--5-----5-----------------3-----3-------5-|
|------------------------------------------|


   S  S  E    +Q          S  S E +E  E     S S E +Q      S S E +Q
|----------------------------------------|---------------------------|
|------------------------------------5---|---------------5---5-(5)---|
|--5-----5----(5)---------5----5-(5)-----|---------------------------|
|----------------------------------------|-5---5-(5)-----------------|
|----------------------------------------|---------------------------|
|----------------------------------------|---------------------------|
|
|  S  S  S  S  S   S  E  +H                Q      Q      Q      Q
|----------------------------------------|---------------------------|
|----------------------------------------|---------------------------|
|----------12-----12---------------------|---------------------------|
|----------------------------------------|---------------------------|
|-12-13-14-----------10-(10)-------------|-------12------------10----|
|----------------------------------------|-------10-------------8----|
|
|  S  S  E     Q          S  S E  E  S S   S S E  S  E S S S E  E. S
|----------------------------------------|---------------------------|
|--------------3------------------3------|--------3-------------3----|
|--------------0------------------0------|-----------2----------0----|
|----------------------------------------|-------------0-------------|
|------------------------------------3-4-|-5---5---------3---3-----5-|
|--3-----3----------------3----3---------|---------------------------|


  S S E +Q   S S E +E  E     S S E +Q      S S E +Q
|--------------------------|---------------------------|
|----------------------5---|---------------5---5-(5)---|
|-5---5-(5)--5---5-(5)-----|---------------------------|
|--------------------------|-5---5-(5)-----------------|
|--------------------------|---------------------------|
|--------------------------|---------------------------|
|
| Q      Q   Q      Q        Q      Q      Q      Q
|--------------------------|---------------------------|
|--------------------------|---------------------------|
|--------------------------|--------2------------------|
|--------------------------|--------0-------------5----|
|--------5----------5------|----------------------3----|
|--------3----------3------|---------------------------|
|
| S S E  Q   S S E  E  S S   S S E  S  E S S S E  E. S
|--------------------------|---------------------------|
|--------3----------3------|--------3-------------3----|
|--------0----------0------|-----------2----------0----|
|--------------------------|-------------0-------------|
|----------------------3-4-|-5---5---------3---3-----5-|
|-3---3------3---3---------|---------------------------|


  S S E +Q   S S E +E  E     S S E +Q      S S E +Q
|--------------------------|---------------------------|
|----------------------5---|---------------5---5-(5)---|
|-5---5-(5)--5---5-(5)-----|---------------------------|
|--------------------------|-5---5-(5)-----------------|
|--------------------------|---------------------------|
|--------------------------|---------------------------|
|
| Q      Q   Q      Q        Q      Q      Q      Q
|--------------------------|---------------------------|
|--------------------------|---------------------------|
|--------------------------|--------2------------------|
|--------------------------|--------0-------------5----|
|--------5----------5------|----------------------3----|
|--------3----------3------|---------------------------|
|
| S S E  Q   S S E  E  S S   S S E  S  E S S S E  E. S
|--------------------------|---------------------------|
|--------3----------3------|--------3-------------3----|
|--------0----------0------|-----------2----------0----|
|--------------------------|-------------0-------------|
|----------------------3-4-|-5---5---------3---3-----5-|
|-3---3------3---3---------|---------------------------|


  S S E +Q   S S E +Q        S S E +Q      S S E +Q
|--------------------------|---------------------------|
|--------------------------|---------------5---5-(5)---|
|-5---5-(5)--5---5-(5)-----|---------------------------|
|--------------------------|-5---5-(5)-----------------|
|--------------------------|---------------------------|
|--------------------------|---------------------------|
|
| Q      Q   Q      Q        Q      Q      Q      Q
|--------------------------|---------------------------|
|--------------------------|---------------------------|
|--------------------------|--------2------------------|
|--------------------------|--------0-------------5----|
|--------5----------5------|----------------------3----|
|--------3----------3------|---------------------------|
|
| S S E  Q   S S E  E  S S   S S E  S  E S S S E  E. S
|--------------------------|---------------------------|
|--------3----------3------|--------3-------------3----|
|--------0----------0------|-----------2----------0----|
|--------------------------|-------------0-------------|
|----------------------3-4-|-5---5---------3---3-----5-|
|-3---3------3---3---------|---------------------------|


  S S E +E  S S  S  S S S E E   S S S S Q      S S E +Q
|-----------------------------|---------------------------------|
|---------------------------5-|----------------5---5-(5)--------|
|-5---5-(5)-5----5----5---5---|---------------------------------|
|-----------------------------|-5---5---5-----------------------|
|-----------------------------|---------------------------------|
|-----------------------------|---------------------------------|
|
| Q      Q      +Q        Q     S S E   E.   S E   E  E    S S
|-----------------------------|---------------------------------|
|-----------------------------|---------0-----------------------|
|-----------------------------|-2---2---2-------------2---------|
|-----------------------------|-0---0---0----5-----5--5---------|
|--------5------(5)-------5---|--------------3-----3--3------5--|
|--------3------(3)-------3---|------------------------------3--|
|
| S S E  Q       S  S E   E E   S S E   S  E S S S E  S  E   S
|-----------------------------|---------------------------------|
|--------3----------------3---|-3---3---------------------------|
|--------0----------------0---|-2---2---4--2---5---5------------|
|-----------------------------|-0---0---0------5---5--7--5------|
|-----------------------------|----------------3---3--3---------|
|-3---3----------3----3-----3-|---------------------------------|


  S S E E E E   E   S E.     S S E   +Q      S S E   +Q
|--------------------------|----------------------------------|
|---------------------5----|-----------------5---5---(5)------|
|-5---5---5-----5----------|----------------------------------|
|--------------------------|-5---5---(5)----------------------|
|--------------------------|----------------------------------|
|--------------------------|----------------------------------|
|
| E   E E E S E   S S E  S   S S S S  E.   S S E   S  E.   S
|--------------------------|----------------------------------|
|--------------------------|----------------------------------|
|------------------------2-|---2---4--2-----------------------|
|---------2-----------5--0-|---0---0-------5---5---7--5-------|
|-----5-------5-------3----|---------------3---3---3-------5--|
|-----3---3---3------------|-------------------------------3--|
|
| S S E E E E   E   S E.     S S E    S  E S S S E    S  E S
|--------------------------|----------------------------------|
|--------------------------|-3---3----------------------------|
|---------0-----------5----|-2---2----4--2---5---5------------|
|-5---5---2-----5-----5----|-0---0----0------5---5----7--5----|
|-5---5---------5-----3----|-----------------3---3----3-------|
|-3---3---3-----3----------|----------------------------------|


  S S E   +S  S E E   E   E   E     S S E   +Q       S S E   +Q
|---------------------------------|-------------------------------------|
|-----------------------------5---|------------------5---5---(5)--------|
|-5---5---(5)---5-----5-----------|-------------------------------------|
|---------------------------------|-5---5---(5)-------------------------|
|---------------------------------|-------------------------------------|
|---------------------------------|-------------------------------------|
|
| S E   S  E    E S E   S S E   S   S S S S  E.    S S E   S  E    E
|---------------------------------|-------------------------------------|
|---------------------------------|-------------------------------------|
|-------------------------------2-|---2---4--2----------------2---------|
|---------------2-----------5-----|-0-0---0--------5---5------5---------|
|---5---------------5-------3-----|----------------3---3------3---------|
|---3-----------3---3-------------|-------------------------------------|
|
| S S E    E    E E   E   E   E     S S E    S  E.   S S E    S  E   S
|---------------------------------|-------------------------------------|
|---------------------------------|-3---3-------------------------------|
|---------------0-------------5---|-2---2----4--2----5---5--------------|
|-5---5---------2-----5-------5---|-0---0----0-------5---5----7--5------|
|-5---5---------------5-------3---|------------------3---3----3---------|
|-3---3---------3-----3-----------|-------------------------------------|


  S S E E E E   E   S  E.     S S E   +Q       S S E   +Q
|---------------------------|-----------------------------------|
|----------------------5----|------------------5---5---(5)------|
|-5---5---5-----5-----------|-----------------------------------|
|---------------------------|-5---5---(5)-----------------------|
|---------------------------|-----------------------------------|
|---------------------------|-----------------------------------|
|
| S S E E E S S S S E.    S   S S S S  E.    S S S S S  E.   S
|---------------------------|-----------------------------------|
|---------------------------|-----------------------------------|
|-------------------------2-|---2---4--2------------------------|
|---------2---0-----5-----0-|---0---0--------5---5---7--5-------|
|-5---5-------------3-------|----------------3-----3-3-------5--|
|-3---3---3-----3-----------|--------------------------------3--|
|
| S S E E E E   E   S  E.     S S E    S  E.   S S E    S  E S
|---------------------------|-----------------------------------|
|---------------------------|-3---3-----------------------------|
|---------0------------5----|-2---2----4--2----5---5------------|
|-5---5---2-----5------5----|-0---0----0-------5---5----7--5----|
|-5---5---------5------3----|------------------3---3----3-------|
|-3---3---3-----3-----------|-----------------------------------|


  S S  E +S  S S S  Q       Q
|-----------------------------------|
|---------------------------9-------|
|-5----5-(5)---5--------------------|
|-------------------8---------------|
|-----------------------------------|
|-----------------------------------|
|
| S E.    Q         E.  S  +S  E  S
|------------------15--15-(15)---14-|
|-----------------------------------|
|-----------------------------------|
|-----------------------------------|
|---5-------------------------------|
|---3-------------------------------|
|
| S S  E  E    E    H
|-----------------------------------|
|-----------------------------------|
|-----------------------------------|
|-5----5-------5--------------------|
|-5----5-------5--------------------|
|-3----3-------3--------------------|


   S  S E     +Q       S  S  E    +E     S S
|--------------------------------------------|
|--7----7-----(7)------5-----5----(5)------5-|
|--------------------------------------------|
|--------------------------------------------|
|--------------------------------------------|
|--------------------------------------------|
|
|  S  S S  S  +Q       S  S  S  S  S   S S S
|--------------------------------------------|
|-15------15-(15)--------13-12-13-12--10-8---|
|----14---------------14---------------------|
|--------------------------------------------|
|--------------------------------------------|
|--------------------------------------------|
|
|  S  S E      S  E S  S  S  E     E.      S
|--------------------------------------------|
|--------------3-------------------3---------|
|-----------------2----------------0---------|
|-------------------0------------------------|
|--5----5--------------3-----3-------------5-|
|--------------------------------------------|


  S S E   E E E   E S S E     S  S  E +E     E     S  S E     +E  S  S
|---------------------------|------------------------------------------|
|-----------------------5---|----------------------5----5-----(5)----5-|
|-5---5-----5-----5---5-----|------------------------------------------|
|---------------------------|-5-----5-(5)----5-------------------------|
|---------------------------|------------------------------------------|
|---------------------------|------------------------------------------|
|
| S S S S E E Q     E   S S   S  S  E  S   S S  S  S  S S  S  +E  S  S
|---------------------------|---10-10-10-------------------------------|
|-8-------8---------------6-|-7----------------------13---13-(13)------|
|---9-7---------------------|-------------11---------------------------|
|---------------------------|------------------12-13-------------------|
|---------------------------|---------------------------------------12-|
|---------------------------|------------------------------------------|
|
| S S E   Q   S S E E   S S   S  S  E  S   E    S  S  S E      E.    S
|---------------------------|------------------------------------------|
|---------3---------3-------|----------3-----------------------3-------|
|---------0---------0-------|--------------2-------------------0-------|
|---------------------------|-------------------0----------------------|
|-----------------------3-4-|-5-----5--------------3----3------------5-|
|-3---3-------3---3---------|------------------------------------------|


   S  S  E   +S   S  E   S  S E +S  S E
|------------------------------------------|
|-------------------------------------5----|
|--5-----5---(5)---------5----5-(5)--------|
|------------------------------------------|
|------------------------------------------|
|------------------------------------------|
|
|  S  S  S S  S   E.    +Q       E    S  S
|------------------------------------------|
|------------------------------------------|
|-------12---12-------------------------10-|
|------------------------------------------|
|-13-14----------10----(10)----------------|
|------------------------------------------|
|
|  S  S  E    Q          S  S E  E    S  S
|------------------------------------------|
|-------------3------------------3---------|
|-------------0------------------0---------|
|------------------------------------------|
|-------------------------------------3--4-|
|--3-----3---------------3----3------------|


   S  S  E +E.       S  S  S E     +Q
|-------------------------------------------|
|-----------------------5----5-----(5)------|
|-------------------------------------------|
|--5-----5-(5)-------5----------------------|
|-------------------------------------------|
|-------------------------------------------|
|
|  S  S  E  S   S S  S  S  S S  S  +S  E  S
|----10-10-10-------------------------------|
|-------------------------13---13-(13)------|
|-11-----------11---------------------------|
|-------------------13-14-------------------|
|----------------------------------------12-|
|-------------------------------------------|
|
|  S  S  E  S   E    S  S  S E      E.    S
|-------------------------------------------|
|-----------3-----------------------3-------|
|---------------2-------------------0-------|
|--------------------0----------------------|
|--5-----5--------------3----3------------5-|
|-------------------------------------------|


   S  S  E   +E      E   S  S E  +E    E
|-------------------------------------------|
|--------------------------------------5----|
|--5-----5---(5)---------5----5--(5)--------|
|-------------------------------------------|
|-------------------------------------------|
|-------------------------------------------|
|
|  S  S  S S  S   E.    +Q       +S  E    S
|-------------------------------------------|
|-------------------------------------------|
|-------12---12--------------------------10-|
|-------------------------------------------|
|-13-14----------10----(10)-----(10)--------|
|-------------------------------------------|
|
|  S  S  E    Q          S  S E   E    S  S
|-------------------------------------------|
|-------------3-------------------3---------|
|-------------0-------------------0---------|
|-------------------------------------------|
|--------------------------------------3--4-|
|--3-----3---------------3----3-------------|


   S  S  E   +Q           S  S E     +Q
|---------------------------------------------|
|-------------------------5----5-----(5)------|
|---------------------------------------------|
|--5-----5---(5)------------------------------|
|---------------------------------------------|
|---------------------------------------------|
|
|  S  S  S S  S   S S  S  S  S S  S  +E  S  S
|----10-10---10-------------------------------|
|---------------------------13---13-(13)------|
|-11-------------11---------------------------|
|---------------------13-14-------------------|
|------------------------------------------12-|
|---------------------------------------------|
|
|  S  S  E    S   E    S  S  S E      E.    S
|---------------------------------------------|
|-------------3-----------------------3-------|
|-----------------2-------------------0-------|
|----------------------0----------------------|
|--5-----5----------------3----3------------5-|
|---------------------------------------------|


   S  S  E   +S   S  S S   S  S E   S  S E
|---------------------------------------------|
|----------------------------------------5----|
|--5-----5---(5)-----5-----5----5------5------|
|---------------------------------------------|
|---------------------------------------------|
|---------------------------------------------|
|
|  S  S  S S  S   E.      +Q       +S  E    S
|---------------------------------------------|
|---------------------------------------------|
|-------12---12----------------------------10-|
|---------------------------------------------|
|-13-14----------10------(10)-----(10)--------|
|---------------------------------------------|
|
|  S  S  E    Q            S  S E   E    S  S
|---------------------------------------------|
|-------------3---------------------3---------|
|-------------0---------------------0---------|
|---------------------------------------------|
|----------------------------------------3--4-|
|--3-----3-----------------3----3-------------|


   S  S  S S  Q          S  S S  S   Q
|---------------------------------------------|
|------------------------5----5------5--------|
|---------------------------------------------|
|--5-----5----5-------------------------------|
|---------------------------------------------|
|---------------------------------------------|
|
|  S  S  S S  S  S S  S  S  S S  S  +E  S  S
|----10-10---10-------------------------------|
|--------------------------13---13-(13)-------|
|-11------------11----------------------------|
|--------------------13-14--------------------|
|-----------------------------------------12--|
|---------------------------------------------|
|
|  S  S  E    S  E    S  S  S E      E.    S
|---------------------------------------------|
|-------------3----------------------3--------|
|----------------2-------------------0--------|
|---------------------0-----------------------|
|--5-----5---------------3----3------------5--|
|---------------------------------------------|


   S  S  S S  Q       S  S E +E  E
|-------------------------------------|
|--------------------------------5----|
|--5-----5----5-------5----5-(5)------|
|-------------------------------------|
|-------------------------------------|
|-------------------------------------|
|
|  S  S  S S  S  E.  +Q       E  S  S
|-------------------------------------|
|-------------------------------------|
|-------12---12--------------------10-|
|-------------------------------------|
|-13-14---------10--(10)--------------|
|-------------------------------------|
|
|  S  S  E    Q       S  S E  E  S  S
|-------------------------------------|
|-------------3---------------3-------|
|-------------0---------------0-------|
|-------------------------------------|
|--------------------------------3--4-|
|--3-----3------------3----3----------|


   S  S  S S  Q          S  S S  S   Q
|--------------------------------------------|
|------------------------5----5------5-------|
|--------------------------------------------|
|--5-----5----5------------------------------|
|--------------------------------------------|
|--------------------------------------------|
|
|  S  S  S S  S  S S  S  S  S S  S  +E  S  S
|----10-10---10------------------------------|
|--------------------------13---13-(13)------|
|-11------------11---------------------------|
|--------------------13-14-------------------|
|-----------------------------------------12-|
|--------------------------------------------|
|
|  S  S  E    S  E    S  S  S E      E.    S
|--------------------------------------------|
|-------------3----------------------3-------|
|----------------2-------------------0-------|
|---------------------0----------------------|
|--5-----5---------------3----3------------5-|
|--------------------------------------------|


   S  S  E   +E     E      Q         Q         W
|------------------------------------------|-----------------*|
|------------------------------------9-----|---7-------------*|
|--5-----5---(5)---------------------------|-----------------*|
|--------------------------8---------------|-----------------*|
|------------------------------------------|-----------------*|
|------------------------------------------|-----------------*|
|
|  S  S  S S  S   S S  S  +E  S  S  +E.  S    +H      +H
|---------------------15-(15)---15-(15)-14-|-(14)----(14)----*|
|------------------------------------------|-----------------*|
|-------12---12----------------------------|-----------------*|
|------------------------------------------|-----------------*|
|-13-14----------10------------------------|-----------------*|
|------------------------------------------|-----------------*|
|
|  E     E    Q            H                   W
|------------------------------------------|-----------------*|
|-------------3----------------------------|-----------------*|
|-------------0----------------------------|-----------------*|
|------------------------------------------|-----------------*|
|------------------------------------------|-----------------*|
|--------3---------------------------------|-----------------*|


Duration Legend
---------------
W - whole; H - half; Q - quarter; E - 8th; S - 16th; T - 32nd; X - 64th; a - acciaccatura
+ - note tied to previous; . - note dotted; .. - note double dotted
Uncapitalized letters represent notes that are staccato (1/2 duration)
Irregular groupings are notated above the duration line
Duration letters will always appear directly above the note/fret number it represents the
duration for.  Duration letters with no fret number below them represent rests.  Multi-
bar rests are notated in the form Wxn, where n is the number of bars to rest for.  Low
melody durations appear below the staff

Tablature Legend
----------------
 h   - hammer-on
 p   - pull-off
 b   - bend
 pb  - pre-bend
 r   - bend release (if no number after the r, then release immediately)
 /\  - slide into or out of (from/to "nowhere")
 s   - legato slide
 S   - shift slide
  - natural harmonic
[n]  - artificial harmonic
n(n) - tapped harmonic
 ~   - vibrato
 tr  - trill
 T   - tap
 TP  - trem. picking
 PM  - palm muting
\n/  - tremolo bar dip; n = amount to dip
 \n  - tremolo bar down
 n/  - tremolo bar up
/n\  - tremolo bar inverted dip
 =   - hold bend; also acts as connecting device for hammers/pulls
 <>  - volume swell (louder/softer)
 x   - on rhythm slash represents muted slash
 o   - on rhythm slash represents single note slash

Misc Legend
-----------
 |  - bar
||  - double bar
||o - repeat start
o|| - repeat end
*|  - double bar (ending)
 :  - bar (freetime)
 $  - Segno
 &  - Coda
Tempo markers -  = BPM(8/16=s8/s16), where s8 = swing 8ths, s16 = swing 16ths
comments
print report bad tab
9 comments total. Showing first comments.
+2 reply
FenderFreak626 wrote on December 22 2006, 04:30 pm

y would u call guitar IV a drum
and the tab sucks

+2 reply
thra1l wrote on December 27 2006, 05:18 pm

crappiest ATTEMPT 2 tab this song ive ever seen:(

+2 reply
PurelyCanadian wrote on January 10 2007, 09:28 pm

This... this is wrong... very wrong...

I want to post or [tab]
guest
You may want to rate the tab now too:
select rating
Please do not post tabs as comments. Select "correction" instead!