Oops, an error
Loading. Please wait.

We Aint Much Different Tab

ver1
ver1

Intro

Whole song

More versions @911Tabs.com
1,492 views 9 this week
no commentswrite comment
1 2 3 4 5
please rate
Autoscroll
+/-
esc
set tempo
stop
Difficulty
intermediate
WARNING: You are trying to view
                                    content from Ultimate-Guitar.com
                                    in an unauthorized application,
                                    which is prohibited.

                                    Please use an official Ultimate
                                    Guitar Tabs application for iPhone,
                                    iPad or Android to access legitimate
                                    chords, guitar, bass, and drum tabs
                                    from Ultimate-Guitar.com database.

                                    Type "ultimate guitar tabs" in Apple
                                    App Store's or Android Market's
                                    search to find the application.
Band/Artist: Lynyrd Skynyrd
Song: We Ain't Much Different




Guitar 1:


E||-------|-------|-------|-------|-------|-------|-------|
B||-------|-------|-------|-------|-------|-------|-------|
G||-------|-------|-------|-------|-------|-------|-------|
D||-------|-------|-------|-------|-------|-------|-------|
A||-------|-------|-------|-------|-------|-------|-------|
E||-------|-------|-------|-------|-------|-------|-------|


                                  PM PM  PM  PM   PM PM    
  Q    E  E  E  E    S  S  S S    E  E   E   Q    E  Q     
-------------------------------|--------------------------|
-------------------------------|--------------------------|
-------------------------------|-----2---x---2-------2----|
-------------------------------|-----2---x---2-------2----|
----------------3b~--3-(0)-----|--------------------------|
-------0--3--5-------------3-L-|--3-----(3)-------3-------|


  PM   PM PM PM PM PM      PM PM  PM  PM   PM PM      PM     PM PM         
  Q    E  E  E  E  Q       E  E   E   Q    E  Q       Q.     E  Q    Q     
------------------------|--------------------------|----------------------|
------------------------|--------------------------|----------------------|
--5-------7-----5--2----|-----2---x---2-------2----|--5---------7----L----|
--5-------7-----5--2----|-----2---x---2-------2----|--5---------7----L----|
-------0-----0----------|--------------------------|--3------0--5----L----|
------------------------|--3-----(3)-------3-------|----------------------|


  PM PM    PM   PM PM      PM   PM PM PM PM PM                               
  E  E  E  Q    E  Q       Q    E  E  E  E  Q       E   E  E  E  Q    E  E   
------------------------|------------------------|--------------------------|
------------------------|------------------------|--------------------------|
-----2--x--2-------2----|--5-------7-----5--2----|------------0----------0--|
-----2--x--2-------2----|--5-------7-----5--2----|---------4----------2-----|
------------------------|-------0-----0----------|--0s--5--------3----------|
--3-------------3-------|------------------------|--------------------------|


                      PM PM  PM  PM   PM PM      PM   PM PM PM PM PM    
  W                   E  E   E   Q    E  Q       Q    E  E  E  E  Q     
-------------------|--------------------------|------------------------|
-------------------|--------------------------|------------------------|
-------------------|-----2---x---2-------2----|--5-------7-----5--2----|
--2----------------|-----2---x---2-------2----|--5-------7-----5--2----|
--0----------------|--------------------------|-------0-----0----------|
-------------------|--3-----(3)-------3-------|------------------------|


  PM PM  PM  PM   PM PM             PM PM           PM PM  PM  PM   PM PM    
  E  E   E   Q    E  Q       Q.     E  Q    Q       E  E   E   Q    E  Q     
--------------------------|----------------------|--------------------------|
--------------------------|----------------------|--------------------------|
-----2---x---2-------2----|--5---------7----L----|-----2---x---2-------2----|
-----2---x---2-------2----|--5---------7----L----|-----2---x---2-------2----|
--------------------------|--3------0--5----L----|--------------------------|
--3-----(3)-------3-------|----------------------|--3-----(3)-------3-------|


  PM   PM PM PM PM PM                               
  Q    E  E  E  E  Q       E   E  E  E  Q    E  E   
------------------------|--------------------------|
------------------------|--------------------------|
--5-------7-----5--2----|------------0----------0--|
--5-------7-----5--2----|---------4----------2-----|
-------0-----0----------|--0s--5--------3----------|
------------------------|--------------------------|


                W               PM PM  PM  PM   PM PM    
  Q    E  E  E  E  S  S  S S    E  E   E   Q    E  Q     
-----------------------------|--------------------------|
-----------------------------|--------------------------|
-----------------------------|-----2---x---2-------2----|
-----------------------------|-----2---x---2-------2----|
----------------3--3-(0)-----|--------------------------|
-------0--3--5-----------3-L-|--3-----(3)-------3-------|


  PM   PM PM PM PM PM      PM PM  PM  PM   PM PM             PM PM         
  Q    E  E  E  E  Q       E  E   E   Q    E  Q       Q.     E  Q    Q     
------------------------|--------------------------|----------------------|
------------------------|--------------------------|----------------------|
--5-------7-----5--2----|-----2---x---2-------2----|--5---------7----L----|
--5-------7-----5--2----|-----2---x---2-------2----|--5---------7----L----|
-------0-----0----------|--------------------------|--3------0--5----L----|
------------------------|--3-----(3)-------3-------|----------------------|


  PM PM  PM  PM   PM PM      PM   PM PM PM PM PM                               
  E  E   E   Q    E  Q       Q    E  E  E  E  Q       E   E  E  E  Q    E  E   
--------------------------|------------------------|--------------------------|
--------------------------|------------------------|--------------------------|
-----2---x---2-------2----|--5-------7-----5--2----|------------0----------0--|
-----2---x---2-------2----|--5-------7-----5--2----|---------4----------2-----|
--------------------------|-------0-----0----------|--0s--5--------3----------|
--3-----(3)-------3-------|------------------------|--------------------------|


  W                   Q.     Q    E  E  E     Q    E  E  E  E  Q     
-------------------|-----------------------|------------------------|
-------------------|-----------------------|------------------------|
-------------------|-----------------------|------------------------|
--2----------------|--7------5-------------|------------------------|
--0----------------|--5------3----2--------|--7-------------3--0----|
-------------------|-----------------3--0--|--5----0--3--5----------|


                               PM                                       
  Q.     Q    E  E  E     Q    E  Q     Q.        Q.     Q    E  E  E   
-----------------------|-----------------------|-----------------------|
-----------------------|-----------------------|-----------------------|
-----------------------|----------5~-----------|-----------------------|
--7------5-------------|-----------------------|--7------5-------------|
--5------3----2--------|--7----0--3-----0------|--5------3----2--------|
-----------------3--0--|--5--------------------|-----------------3--0--|


  Q    E  E  E  E  Q       W                   E  E  E  E  E  E  E  E   
------------------------|-------------------|--------------------------|
------------------------|-------------------|--------------------------|
------------------------|-------------------|--------------------------|
------------------------|-------------------|--7-----------------------|
--7-------------3--0----|--2----------------|--5-----------------------|
--5----0--3--5----------|--0----------------|--------------------------|


  Q    E  E  E  E  E  E     Q    E  E  E  E  Q       Q    E  E  E  E  E  E   
-------------------------|------------------------|-------------------------|
-------------------------|------------------------|-------------------------|
-------------------------|------------------------|-------------------------|
-------------------------|------------------------|-------------------------|
-------------------------|--7-------------3--0----|-------------------------|
--3----2--3--2--3--2--0--|--5----0--3--5----------|--3----2--3--2--3--2--0--|


                      PM PM  PM  PM   PM PM      PM   PM PM PM PM PM    
  W                   E  E   E   Q    E  Q       Q    E  E  E  E  Q     
-------------------|--------------------------|------------------------|
-------------------|--------------------------|------------------------|
-------------------|-----2---x---2-------2----|--5-------7-----5--2----|
-------------------|-----2---x---2-------2----|--5-------7-----5--2----|
--7----------------|--------------------------|-------0-----0----------|
--5----------------|--3-----(3)-------3-------|------------------------|


  PM PM  PM  PM   PM PM             PM PM           PM PM  PM  PM   PM PM    
  E  E   E   Q    E  Q       Q.     E  Q    Q       E  E   E   Q    E  Q     
--------------------------|----------------------|--------------------------|
--------------------------|----------------------|--------------------------|
-----2---x---2-------2----|--5---------7----L----|-----2---x---2-------2----|
-----2---x---2-------2----|--5---------7----L----|-----2---x---2-------2----|
--------------------------|--3------0--5----L----|--------------------------|
--3-----(3)-------3-------|----------------------|--3-----(3)-------3-------|


  PM   PM PM PM PM PM                               
  Q    E  E  E  E  Q       E   E  E  E  Q    E  E   
------------------------|--------------------------|
------------------------|--------------------------|
--5-------7-----5--2----|------------0----------0--|
--5-------7-----5--2----|---------4----------2-----|
-------0-----0----------|--0s--5--------3----------|
------------------------|--------------------------|


                W               PM PM  PM  PM   PM PM    
  Q    E  E  E  E  S  S  S S    E  E   E   Q    E  Q     
-----------------------------|--------------------------|
-----------------------------|--------------------------|
-----------------------------|-----2---x---2-------2----|
-----------------------------|-----2---x---2-------2----|
----------------3--3-(0)-----|--------------------------|
-------0--3--5-----------3-L-|--3-----(3)-------3-------|


  PM   PM PM PM PM PM      PM PM  PM  PM   PM PM             PM PM         
  Q    E  E  E  E  Q       E  E   E   Q    E  Q       Q.     E  Q    Q     
------------------------|--------------------------|----------------------|
------------------------|--------------------------|----------------------|
--5-------7-----5--2----|-----2---x---2-------2----|--5---------7----L----|
--5-------7-----5--2----|-----2---x---2-------2----|--5---------7----L----|
-------0-----0----------|--------------------------|--3------0--5----L----|
------------------------|--3-----(3)-------3-------|----------------------|


  PM PM  PM  PM   PM PM      PM   PM PM PM PM PM                               
  E  E   E   Q    E  Q       Q    E  E  E  E  Q       E   E  E  E  Q    E  E   
--------------------------|------------------------|--------------------------|
--------------------------|------------------------|--------------------------|
-----2---x---2-------2----|--5-------7-----5--2----|------------0----------0--|
-----2---x---2-------2----|--5-------7-----5--2----|---------4----------2-----|
--------------------------|-------0-----0----------|--0s--5--------3----------|
--3-----(3)-------3-------|------------------------|--------------------------|


  W                   Q.     Q    E  E  E     Q    E  E  E  E  Q     
-------------------|-----------------------|------------------------|
-------------------|-----------------------|------------------------|
-------------------|-----------------------|------------------------|
--2----------------|--7------5-------------|------------------------|
--0----------------|--5------3----2--------|--7-------------3--0----|
-------------------|-----------------3--0--|--5----0--3--5----------|


                               PM                                       
  Q.     Q    E  E  E     Q    E  Q     Q.        Q.     Q    E  E  E   
-----------------------|-----------------------|-----------------------|
-----------------------|-----------------------|-----------------------|
-----------------------|----------5~-----------|-----------------------|
--7------5-------------|-----------------------|--7------5-------------|
--5------3----2--------|--7----0--3-----0------|--5------3----2--------|
-----------------3--0--|--5--------------------|-----------------3--0--|


  Q    E  E  E  E  Q       W                   E  E  E  E  E  E  E  E   
------------------------|-------------------|--------------------------|
------------------------|-------------------|--------------------------|
------------------------|-------------------|--------------------------|
------------------------|-------------------|--7-----------------------|
--7-------------3--0----|--2----------------|--5-----------------------|
--5----0--3--5----------|--0----------------|--------------------------|


  W                    W                   W                 
-------------------|--------------------|-------------------|
-------------------|--------------------|-------------------|
-------------------|--------------------|-------------------|
--7----------------|---7----------------|--7----------------|
--9----------------|--10----------------|--7----------------|
-------------------|--------------------|-------------------|


  W                   W                    W                 
-------------------|-------------------|--------------------|
-------------------|-------------------|--------------------|
-------------------|-------------------|--------------------|
--7----------------|--7----------------|---7----------------|
--8----------------|--9----------------|--10----------------|
-------------------|-------------------|--------------------|


  W                   W                   W                 
-------------------|-------------------|-------------------|
-------------------|-------------------|-------------------|
-------------------|-------------------|-------------------|
--7----------------|--7----------------|--7----------------|
--7----------------|--8----------------|--9----------------|
-------------------|-------------------|-------------------|


   W                   W                   W                 
--------------------|-------------------|-------------------|
--------------------|-------------------|-------------------|
--------------------|-------------------|-------------------|
---7----------------|--7----------------|--7----------------|
--10----------------|--7----------------|--8----------------|
--------------------|-------------------|-------------------|


  W                    W                   W                 
-------------------|--------------------|-------------------|
-------------------|--------------------|-------------------|
-------------------|--------------------|-------------------|
--7----------------|---7----------------|-------------------|
--9----------------|--10----------------|--2----------------|
-------------------|--------------------|--0----------------|


  E  E  E  E  E  E  E  E     Q.     Q    E  E  E     Q    E  E  E  E  Q     
--------------------------|-----------------------|------------------------|
--------------------------|-----------------------|------------------------|
--------------------------|-----------------------|------------------------|
--------------------------|--7------5-------------|------------------------|
-----2--------------------|--5------3----2--------|--7-------------3--0----|
-----0--------------------|-----------------3--0--|--5----0--3--5----------|


  Q.     Q    E  E  E     Q    E  Q    Q.        Q.     Q    E  E  E   
-----------------------|----------------------|-----------------------|
-----------------------|----------------------|-----------------------|
-----------------------|----------------------|-----------------------|
--7------5-------------|----------------------|--7------5-------------|
--5------3----2--------|--7----0--3----0------|--5------3----2--------|
-----------------3--0--|--5-------------------|-----------------3--0--|


  Q    E  E  E  E  Q       Q    E  E  Q    E  E     Q    E  E  E  E  E  E   
------------------------|------------------------|-------------------------|
------------------------|------------------------|-------------------------|
------------------------|------------------------|-------------------------|
------------------------|------------------------|-------------------------|
--7-------------3--0----|--3----------5----------|--7----------------3-----|
--5----0--3--5----------|--1----1--1--3----3--3--|--5----0--3--5--5-----5--|


  Q.     Q    E  E  E     Q    E  E  E  E  Q       Q.     Q    E  E  E   
-----------------------|------------------------|-----------------------|
-----------------------|------------------------|-----------------------|
-----------------------|------------------------|-----------------------|
--7------5-------------|------------------------|--7------5-------------|
--5------3----2--------|--7-------------3--0----|--5------3----2--------|
-----------------3--0--|--5----0--3--5----------|-----------------3--0--|


  Q    E  Q    Q.        Q.     Q    E  E  E     Q    E  E  E  E  Q     
----------------------|-----------------------|------------------------|
----------------------|-----------------------|------------------------|
----------------------|-----------------------|------------------------|
----------------------|--7------5-------------|------------------------|
--7----0--3----0------|--5------3----2--------|--7-------------3--0----|
--5-------------------|-----------------3--0--|--5----0--3--5----------|


                                               PM PM  PM  PM   PM PM    
  Q    E  E  Q    E  E     W                   E  E   E   Q    E  Q     
------------------------|-------------------|--------------------------|
------------------------|-------------------|--------------------------|
------------------------|-------------------|-----2---x---2-------2----|
------------------------|-------------------|-----2---x---2-------2----|
--3----------5----------|--7----------------|--------------------------|
--1----1--1--3----3--3--|--5----------------|--3-----(3)-------3-------|


  PM   PM PM PM PM PM      PM PM  PM  PM   PM PM      PM     PM PM         
  Q    E  E  E  E  Q       E  E   E   Q    E  Q       Q.     E  Q    Q     
------------------------|--------------------------|----------------------|
------------------------|--------------------------|----------------------|
--5-------7-----5--2----|-----2---x---2-------2----|--5---------7----L----|
--5-------7-----5--2----|-----2---x---2-------2----|--5---------7----L----|
-------0-----0----------|--------------------------|--3------0--5----L----|
------------------------|--3-----(3)-------3-------|----------------------|


  PM PM    PM   PM PM      PM   PM PM PM PM PM                               
  E  E  E  Q    E  Q       Q    E  E  E  E  Q       E   E  E  E  Q    E  E   
------------------------|------------------------|--------------------------|
------------------------|------------------------|--------------------------|
-----2--x--2-------2----|--5-------7-----5--2----|------------0----------0--|
-----2--x--2-------2----|--5-------7-----5--2----|---------4----------2-----|
------------------------|-------0-----0----------|--0s--5--------3----------|
--3-------------3-------|------------------------|--------------------------|


  W                   Q.     Q    E  E  E     Q    E  E  E  E  Q     
-------------------|-----------------------|------------------------|
-------------------|-----------------------|------------------------|
-------------------|-----------------------|------------------------|
--2----------------|--7------5-------------|------------------------|
--0----------------|--5------3----2--------|--7-------------3--0----|
-------------------|-----------------3--0--|--5----0--3--5----------|


                               PM                                       
  Q.     Q    E  E  E     Q    E  Q     Q.        Q.     Q    E  E  E   
-----------------------|-----------------------|-----------------------|
-----------------------|-----------------------|-----------------------|
-----------------------|----------5~-----------|-----------------------|
--7------5-------------|-----------------------|--7------5-------------|
--5------3----2--------|--7----0--3-----0------|--5------3----2--------|
-----------------3--0--|--5--------------------|-----------------3--0--|


  Q    E  E  E  E  Q       W                   H         
------------------------|-------------------|-----------|
------------------------|-------------------|-----------|
------------------------|-------------------|-----------|
------------------------|-------------------|-----------|
--7-------------3--0----|--2----------------|--L--------|
--5----0--3--5----------|--0----------------|--L--------|


  Q.     Q    E  E  E     Q    E  E  E  E  Q       Q.     Q    E  E  E   
-----------------------|------------------------|-----------------------|
-----------------------|------------------------|-----------------------|
-----------------------|------------------------|-----------------------|
--7------5-------------|------------------------|--7------5-------------|
--5------3----2--------|--7-------------3--0----|--5------3----2--------|
-----------------3--0--|--5----0--3--5----------|-----------------3--0--|


       PM                                                                
  Q    E  Q     Q.        Q.     Q    E  E  E     Q    E  E  E  E  Q     
-----------------------|-----------------------|------------------------|
-----------------------|-----------------------|------------------------|
----------5~-----------|-----------------------|------------------------|
-----------------------|--7------5-------------|------------------------|
--7----0--3-----0------|--5------3----2--------|--7-------------3--0----|
--5--------------------|-----------------3--0--|--5----0--3--5----------|


  Q.     Q    E  E  E     Q.     Q    E  E  E     Q.     Q    E  E  E         
-----------------------|-----------------------|-----------------------|-----|
-----------------------|-----------------------|-----------------------|-----|
-----------------------|-----------------------|-----------------------|-----|
--7------5-------------|--7------5-------------|--7------5-------------|-----|
--5------3----2--------|--5------3----2--------|--5------3----2--------|-----|
-----------------3-----|-----------------3-----|-----------------3-----|-----|


  E  E  E  E  E  E  E  E     W                                      
--------------------------|-------------------|-------------------||
--------------------------|-------------------|-------------------||
--------------------------|-------------------|-------------------||
--------------------------|-------------------|-------------------||
--7-----------3--0-----7--|--L----------------|-------------------||
--5--5--3--5--------3--5--|--L----------------|-------------------||










Guitar 2:


     PM PM  PM  PM   PM PM      PM   PM PM PM PM PM    
     E  E   E   Q    E  Q       Q    E  E  E  E  Q     
E||--------------------------|------------------------|
B||--------------------------|------------------------|
G||-----2---x---2-------2----|--5-------7-----5--2----|
D||-----2---x---2-------2----|--5-------7-----5--2----|
A||--------------------------|-------0-----0----------|
E||--3-----(3)-------3-------|------------------------|


  PM PM  PM  PM   PM PM      PM     PM PM           PM PM    PM   PM PM    
  E  E   E   Q    E  Q       Q.     E  Q    Q       E  E  E  Q    E  Q     
--------------------------|----------------------|------------------------|
--------------------------|----------------------|------------------------|
-----2---x---2-------2----|--5---------7----L----|-----2--x--2-------2----|
-----2---x---2-------2----|--5---------7----L----|-----2--x--2-------2----|
--------------------------|--3------0--5----L----|------------------------|
--3-----(3)-------3-------|----------------------|--3-------------3-------|


  PM   PM PM PM PM PM                                           
  Q    E  E  E  E  Q       E   E  E  E  Q    E  E     H         
------------------------|--------------------------|-----------|
------------------------|--------------------------|-----------|
--5-------7-----5--2----|------------0----------0--|-----------|
--5-------7-----5--2----|---------4----------2-----|--2--------|
-------0-----0----------|--0s--5--------3----------|--0--------|
------------------------|--------------------------|-----------|


  PM PM  PM  PM   PM PM      PM   PM PM PM PM PM      PM PM  PM  PM   PM PM    
  E  E   E   Q    E  Q       Q    E  E  E  E  Q       E  E   E   Q    E  Q     
--------------------------|------------------------|--------------------------|
--------------------------|------------------------|--------------------------|
-----2---x---2-------2----|--5-------7-----5--2----|-----2---x---2-------2----|
-----2---x---2-------2----|--5-------7-----5--2----|-----2---x---2-------2----|
--------------------------|-------0-----0----------|--------------------------|
--3-----(3)-------3-------|------------------------|--3-----(3)-------3-------|


  PM     PM PM           PM PM    PM   PM PM      PM   PM PM PM PM PM    
  Q.     E  Q    Q       E  E  E  Q    E  Q       Q    E  E  E  E  Q     
----------------------|------------------------|------------------------|
----------------------|------------------------|------------------------|
--5---------7----L----|-----2--x--2-------2----|--5-------7-----5--2----|
--5---------7----L----|-----2--x--2-------2----|--5-------7-----5--2----|
--3------0--5----L----|------------------------|-------0-----0----------|
----------------------|--3-------------3-------|------------------------|


                                                 PM PM  PM  PM   PM PM    
  E   E  E  E  Q    E  E     W                   E  E   E   Q    E  Q     
--------------------------|-------------------|--------------------------|
--------------------------|-------------------|--------------------------|
------------0----------0--|-------------------|-----2---x---2-------2----|
---------4----------2-----|--2----------------|-----2---x---2-------2----|
--0s--5--------3----------|--0----------------|--------------------------|
--------------------------|-------------------|--3-----(3)-------3-------|


  PM   PM PM PM PM PM      PM PM  PM  PM   PM PM      PM     PM PM         
  Q    E  E  E  E  Q       E  E   E   Q    E  Q       Q.     E  Q    Q     
------------------------|--------------------------|----------------------|
------------------------|--------------------------|----------------------|
--5-------7-----5--2----|-----2---x---2-------2----|--5---------7----L----|
--5-------7-----5--2----|-----2---x---2-------2----|--5---------7----L----|
-------0-----0----------|--------------------------|--3------0--5----L----|
------------------------|--3-----(3)-------3-------|----------------------|


  PM PM  PM  PM   PM PM      PM   PM PM PM PM PM                               
  E  E   E   Q    E  Q       Q    E  E  E  E  Q       E   E  E  E  Q    E  E   
--------------------------|------------------------|--------------------------|
--------------------------|------------------------|--------------------------|
-----2---x---2-------2----|--5-------7-----5--2----|------------0----------0--|
-----2---x---2-------2----|--5-------7-----5--2----|---------4----------2-----|
--------------------------|-------0-----0----------|--0s--5--------3----------|
--3-----(3)-------3-------|------------------------|--------------------------|


                  W               PM PM  PM  PM   PM PM    
  Q    E  E  E    E  S  S  S S    E  E   E   Q    E  Q     
-------------------------------|--------------------------|
-------------------------------|--------------------------|
-------------------------------|-----2---x---2-------2----|
--2----------------------------|-----2---x---2-------2----|
--0-------------<>3--3-(0)-----|--------------------------|
-------0--3--5-------------3-L-|--3-----(3)-------3-------|


  PM   PM PM PM PM PM      PM PM  PM  PM   PM PM      PM     PM PM         
  Q    E  E  E  E  Q       E  E   E   Q    E  Q       Q.     E  Q    Q     
------------------------|--------------------------|----------------------|
------------------------|--------------------------|----------------------|
--5-------7-----5--2----|-----2---x---2-------2----|--5---------7----L----|
--5-------7-----5--2----|-----2---x---2-------2----|--5---------7----L----|
-------0-----0----------|--------------------------|--3------0--5----L----|
------------------------|--3-----(3)-------3-------|----------------------|


  PM PM  PM  PM   PM PM      PM   PM PM PM PM PM                               
  E  E   E   Q    E  Q       Q    E  E  E  E  Q       E   E  E  E  Q    E  E   
--------------------------|------------------------|--------------------------|
--------------------------|------------------------|--------------------------|
-----2---x---2-------2----|--5-------7-----5--2----|------------0----------0--|
-----2---x---2-------2----|--5-------7-----5--2----|---------4----------2-----|
--------------------------|-------0-----0----------|--0s--5--------3----------|
--3-----(3)-------3-------|------------------------|--------------------------|


  W                   Q.     Q    E  E  E     Q    E  E  E  E  Q     
-------------------|-----------------------|------------------------|
-------------------|-----------------------|------------------------|
-------------------|-----------------------|------------------------|
--2----------------|--7------5-------------|------------------------|
--0----------------|--5------3----2--------|--7-------------3--0----|
-------------------|-----------------3--0--|--5----0--3--5----------|


                               PM                                       
  Q.     Q    E  E  E     Q    E  Q     Q.        Q.     Q    E  E  E   
-----------------------|-----------------------|-----------------------|
-----------------------|-----------------------|-----------------------|
-----------------------|----------3b-----------|-----------------------|
--7------5-------------|-----------------------|--7------5-------------|
--5------3----2--------|--7----0--------0------|--5------3----2--------|
-----------------3--0--|--5--------------------|-----------------3--0--|


  Q    E  E  E  E  Q       W                   E  E  E  E  E  E  E  E   
------------------------|-------------------|--------------------------|
------------------------|-------------------|--------------------------|
------------------------|-------------------|--------------------------|
------------------------|-------------------|--7-----------------------|
--7-------------3--0----|--2----------------|--5-----------------------|
--5----0--3--5----------|--0----------------|--------------------------|


  Q    E  E  E  E  E  E     Q    E  E  E  E  Q       Q    E  E  E  E  E  E   
-------------------------|------------------------|-------------------------|
-------------------------|------------------------|-------------------------|
-------------------------|------------------------|-------------------------|
-------------------------|------------------------|-------------------------|
-------------------------|--7-------------3--0----|-------------------------|
--3----2--3--2--3--2--0--|--5----0--3--5----------|--3----2--3--2--3--2--0--|


                                 PM  PM  PM   PM PM      PM   PM PM PM PM PM    
  E  E  E  E  E  E  E  E      E  E   E   Q    E  Q       Q    E  E  E  E  Q     
---------------------------|--------------------------|------------------------|
---------------------------|--------------------------|------------------------|
---------------------------|-----2---x---2-------2----|--5-------7-----5--2----|
-----------------------7\--|--L--2---x---2-------2----|--5-------7-----5--2----|
--7-----------------L--7\--|--L-----------------------|-------0-----0----------|
--5-----------------L------|--------(3)-------3-------|------------------------|


  PM PM  PM  PM   PM PM      PM     PM PM           PM PM  PM  PM   PM PM    
  E  E   E   Q    E  Q       Q.     E  Q    Q       E  E   E   Q    E  Q     
--------------------------|----------------------|--------------------------|
--------------------------|----------------------|--------------------------|
-----2---x---2-------2----|--5---------7----L----|-----2---x---2-------2----|
-----2---x---2-------2----|--5---------7----L----|-----2---x---2-------2----|
--------------------------|--3------0--5----L----|--------------------------|
--3-----(3)-------3-------|----------------------|--3-----(3)-------3-------|


  PM   PM PM PM PM PM                               
  Q    E  E  E  E  Q       E   E  E  E  Q    E  E   
------------------------|--------------------------|
------------------------|--------------------------|
--5-------7-----5--2----|------------0----------0--|
--5-------7-----5--2----|---------4----------2-----|
-------0-----0----------|--0s--5--------3----------|
------------------------|--------------------------|


                  W               PM PM  PM  PM   PM PM    
  Q    E  E  E    E  S  S  S S    E  E   E   Q    E  Q     
-------------------------------|--------------------------|
-------------------------------|--------------------------|
-------------------------------|-----2---x---2-------2----|
--2----------------------------|-----2---x---2-------2----|
--0-------------<>3--3-(0)-----|--------------------------|
-------0--3--5-------------3-L-|--3-----(3)-------3-------|


  PM   PM PM PM PM PM      PM PM  PM  PM   PM PM      PM     PM PM         
  Q    E  E  E  E  Q       E  E   E   Q    E  Q       Q.     E  Q    Q     
------------------------|--------------------------|----------------------|
------------------------|--------------------------|----------------------|
--5-------7-----5--2----|-----2---x---2-------2----|--5---------7----L----|
--5-------7-----5--2----|-----2---x---2-------2----|--5---------7----L----|
-------0-----0----------|--------------------------|--3------0--5----L----|
------------------------|--3-----(3)-------3-------|----------------------|


  PM PM  PM  PM   PM PM      PM   PM PM PM PM PM                               
  E  E   E   Q    E  Q       Q    E  E  E  E  Q       E   E  E  E  Q    E  E   
--------------------------|------------------------|--------------------------|
--------------------------|------------------------|--------------------------|
-----2---x---2-------2----|--5-------7-----5--2----|------------0----------0--|
-----2---x---2-------2----|--5-------7-----5--2----|---------4----------2-----|
--------------------------|-------0-----0----------|--0s--5--------3----------|
--3-----(3)-------3-------|------------------------|--------------------------|


  W                   Q.     Q    E  E  E     Q    E  E  E  E  Q     
-------------------|-----------------------|------------------------|
-------------------|-----------------------|------------------------|
-------------------|-----------------------|------------------------|
--2----------------|--7------5-------------|------------------------|
--0----------------|--5------3----2--------|--7-------------3--0----|
-------------------|-----------------3--0--|--5----0--3--5----------|


                               PM                                       
  Q.     Q    E  E  E     Q    E  Q     Q.        Q.     Q    E  E  E   
-----------------------|-----------------------|-----------------------|
-----------------------|-----------------------|-----------------------|
-----------------------|----------3b-----------|-----------------------|
--7------5-------------|-----------------------|--7------5-------------|
--5------3----2--------|--7----0--------0------|--5------3----2--------|
-----------------3--0--|--5--------------------|-----------------3--0--|


  Q    E  E  E  E  Q       W                   E  E  E  E  E  E  E  E   
------------------------|-------------------|--------------------------|
------------------------|-------------------|--------------------------|
------------------------|-------------------|--------------------------|
------------------------|-------------------|--7-----------------------|
--7-------------3--0----|--2----------------|--5-----------------------|
--5----0--3--5----------|--0----------------|--------------------------|


       PM                         PM                    
  Q    E  Q    E  E  E      Q     E   Q     E   E   E   
------------------------|------------------------------|
------------------------|------------------------------|
------------------------|------------------------------|
------------------------|------------------------------|
--9----9--9----9--9--9--|--10----10--10----10--10--10--|
------------------------|------------------------------|


       PM                       PM                       PM                
  Q    E  Q    E  E  E     Q    E  Q    E  E  E     Q    E  Q    E  E  E   
------------------------|------------------------|------------------------|
------------------------|------------------------|------------------------|
------------------------|------------------------|------------------------|
------------------------|------------------------|------------------------|
--7----7--7----7--7--7--|--8----8--8----8--8--8--|--9----9--9----9--9--9--|
------------------------|------------------------|------------------------|


         PM                           PM                
   Q     E   Q     E   E   E     Q    E  Q    E  E  E   
------------------------------|------------------------|
------------------------------|------------------------|
------------------------------|------------------------|
------------------------------|------------------------|
--10----10--10----10--10--10--|--7----7--7----7--7--7--|
------------------------------|------------------------|


       PM                       PM                
  Q    E  Q    E  E  E     Q    E  Q    E  E  E   
------------------------|------------------------|
------------------------|------------------------|
------------------------|------------------------|
------------------------|------------------------|
--8----8--8----8--8--8--|--9----9--9----9--9--9--|
------------------------|------------------------|


         PM                           PM                
   Q     E   Q     E   E   E     Q    E  Q    E  E  E   
------------------------------|------------------------|
------------------------------|------------------------|
------------------------------|------------------------|
------------------------------|------------------------|
--10----10--10----10--10--10--|--7----7--7----7--7--7--|
------------------------------|------------------------|


       PM                       PM                
  Q    E  Q    E  E  E     Q    E  Q    E  E  E   
------------------------|------------------------|
------------------------|------------------------|
------------------------|------------------------|
------------------------|------------------------|
--8----8--8----8--8--8--|--9----9--9----9--9--9--|
------------------------|------------------------|


         PM                                                                   
   Q     E   Q     E   E   E     W                   E  E  E  E  E  E  E  E   
------------------------------|-------------------|--------------------------|
------------------------------|-------------------|--------------------------|
------------------------------|-------------------|--------------------------|
------------------------------|-------------------|--------------------------|
--10----10--10----10--10--10--|--2----------------|-----2--------------------|
------------------------------|--0----------------|-----0--------------------|


  Q.     Q    E  E  E     Q    E  E  E  E  Q       Q.     Q    E  E  E   
-----------------------|------------------------|-----------------------|
-----------------------|------------------------|-----------------------|
-----------------------|------------------------|-----------------------|
--7------5-------------|------------------------|--7------5-------------|
--5------3----2--------|--7-------------3--0----|--5------3----2--------|
-----------------3--0--|--5----0--3--5----------|-----------------3--0--|


  Q    E  Q    Q.        Q.     Q    E  E  E     Q    E  E  E  E  Q     
----------------------|-----------------------|------------------------|
----------------------|-----------------------|------------------------|
----------------------|-----------------------|------------------------|
----------------------|--7------5-------------|------------------------|
--7----0--3----0------|--5------3----2--------|--7-------------3--0----|
--5-------------------|-----------------3--0--|--5----0--3--5----------|


  Q    E  E  Q    E  E     Q    E  E  E  E  E  E     Q.     Q    E  E  E   
------------------------|-------------------------|-----------------------|
------------------------|-------------------------|-----------------------|
------------------------|-------------------------|-----------------------|
------------------------|-------------------------|--7------5-------------|
--3----------5----------|--7----------------3-----|--5------3----2--------|
--1----1--1--3----3--3--|--5----0--3--5--5-----5--|-----------------3--0--|


  Q    E  E  E  E  Q       Q.     Q    E  E  E     Q    E  Q    Q.      
------------------------|-----------------------|----------------------|
------------------------|-----------------------|----------------------|
------------------------|-----------------------|----------------------|
------------------------|--7------5-------------|----------------------|
--7-------------3--0----|--5------3----2--------|--7----0--3----0------|
--5----0--3--5----------|-----------------3--0--|--5-------------------|


  Q.     Q    E  E  E     Q    E  E  E  E  Q       Q    E  E  Q    E  E   
-----------------------|------------------------|------------------------|
-----------------------|------------------------|------------------------|
-----------------------|------------------------|------------------------|
--7------5-------------|------------------------|------------------------|
--5------3----2--------|--7-------------3--0----|--3----------5----------|
-----------------3--0--|--5----0--3--5----------|--1----1--1--3----3--3--|


                      PM PM  PM  PM   PM PM      PM   PM PM PM PM PM    
  W                   E  E   E   Q    E  Q       Q    E  E  E  E  Q     
-------------------|--------------------------|------------------------|
-------------------|--------------------------|------------------------|
-------------------|-----2---x---2-------2----|--5-------7-----5--2----|
-------------------|-----2---x---2-------2----|--5-------7-----5--2----|
--7----------------|--------------------------|-------0-----0----------|
--5----------------|--3-----(3)-------3-------|------------------------|


  PM PM  PM  PM   PM PM      PM     PM PM           PM PM    PM   PM PM    
  E  E   E   Q    E  Q       Q.     E  Q    Q       E  E  E  Q    E  Q     
--------------------------|----------------------|------------------------|
--------------------------|----------------------|------------------------|
-----2---x---2-------2----|--5---------7----L----|-----2--x--2-------2----|
-----2---x---2-------2----|--5---------7----L----|-----2--x--2-------2----|
--------------------------|--3------0--5----L----|------------------------|
--3-----(3)-------3-------|----------------------|--3-------------3-------|


  PM   PM PM PM PM PM                                                   
  Q    E  E  E  E  Q       E   E  E  E  Q    E  E     W                 
------------------------|--------------------------|-------------------|
------------------------|--------------------------|-------------------|
--5-------7-----5--2----|------------0----------0--|-------------------|
--5-------7-----5--2----|---------4----------2-----|--2----------------|
-------0-----0----------|--0s--5--------3----------|--0----------------|
------------------------|--------------------------|-------------------|


  Q.     Q    E  E  E     Q    E  E  E  E  Q       Q.     Q    E  E  E   
-----------------------|------------------------|-----------------------|
-----------------------|------------------------|-----------------------|
-----------------------|------------------------|-----------------------|
--7------5-------------|------------------------|--7------5-------------|
--5------3----2--------|--7-------------3--0----|--5------3----2--------|
-----------------3--0--|--5----0--3--5----------|-----------------3--0--|


       PM                                                                
  Q    E  Q     Q.        Q.     Q    E  E  E     Q    E  E  E  E  Q     
-----------------------|-----------------------|------------------------|
-----------------------|-----------------------|------------------------|
----------3b-----------|-----------------------|------------------------|
-----------------------|--7------5-------------|------------------------|
--7----0--------0------|--5------3----2--------|--7-------------3--0----|
--5--------------------|-----------------3--0--|--5----0--3--5----------|


  W                   H           Q.     Q    E  E  E   
-------------------|-----------|-----------------------|
-------------------|-----------|-----------------------|
-------------------|-----------|-----------------------|
-------------------|-----------|--7------5-------------|
--2----------------|--L--------|--5------3----2--------|
--0----------------|--L--------|-----------------3--0--|


                                                        PM               
  Q    E  E  E  E  Q       Q.     Q    E  E  E     Q    E  Q     Q.      
------------------------|-----------------------|-----------------------|
------------------------|-----------------------|-----------------------|
------------------------|-----------------------|----------3b-----------|
------------------------|--7------5-------------|-----------------------|
--7-------------3--0----|--5------3----2--------|--7----0--------0------|
--5----0--3--5----------|-----------------3--0--|--5--------------------|


  Q.     Q    E  E  E     Q    E  E  E  E  Q       Q.     Q    E  E  E   
-----------------------|------------------------|-----------------------|
-----------------------|------------------------|-----------------------|
-----------------------|------------------------|-----------------------|
--7------5-------------|------------------------|--7------5-------------|
--5------3----2--------|--7-------------3--0----|--5------3----2--------|
-----------------3--0--|--5----0--3--5----------|-----------------3-----|


  Q.     Q    E  E  E     Q.     Q    E  E  E         
-----------------------|-----------------------|-----|
-----------------------|-----------------------|-----|
-----------------------|-----------------------|-----|
--7------5-------------|--7------5-------------|-----|
--5------3----2--------|--5------3----2--------|-----|
-----------------3-----|-----------------3-----|-----|


  E  E  E  E  E  E  E  E     W                                      
--------------------------|-------------------|-------------------||
--------------------------|-------------------|-------------------||
--------------------------|-------------------|-------------------||
--------------------------|-------------------|-------------------||
--7-----------3--0-----7--|--L----------------|-------------------||
--5--5--3--5--------3--5--|--L----------------|-------------------||










Guitar 3:


E||-------|-------|-------|-------|-------|-------|-------|-------|-------|
B||-------|-------|-------|-------|-------|-------|-------|-------|-------|
G||-------|-------|-------|-------|-------|-------|-------|-------|-------|
D||-------|-------|-------|-------|-------|-------|-------|-------|-------|
A||-------|-------|-------|-------|-------|-------|-------|-------|-------|
E||-------|-------|-------|-------|-------|-------|-------|-------|-------|


                                                   SH   SH    SH      
                                  Q      E    E    E    E     Q       
-------|-------|-------|-------|-------------------------------------|
-------|-------|-------|-------|-------------------------------------|
-------|-------|-------|-------|-------<>7br--7--<>5--<>7b--<>7br----|
-------|-------|-------|-------|-------------------------------------|
-------|-------|-------|-------|-------------------------------------|
-------|-------|-------|-------|-------------------------------------|


  H        Q    E  E     W                                                  
----------------------|--------------------|-------|-------|-------|-------|
----------------------|--------------------|-------|-------|-------|-------|
--L--------L----L--5--|--2~----------------|-------|-------|-------|-------|
----------------------|--------------------|-------|-------|-------|-------|
----------------------|--------------------|-------|-------|-------|-------|
----------------------|--------------------|-------|-------|-------|-------|


-------|-------|-------|-------|-------|-------|-------|-------|-------|-------|
-------|-------|-------|-------|-------|-------|-------|-------|-------|-------|
-------|-------|-------|-------|-------|-------|-------|-------|-------|-------|
-------|-------|-------|-------|-------|-------|-------|-------|-------|-------|
-------|-------|-------|-------|-------|-------|-------|-------|-------|-------|
-------|-------|-------|-------|-------|-------|-------|-------|-------|-------|


-------|-------|-------|-------|-------|-------|-------|-------|-------|-------|
-------|-------|-------|-------|-------|-------|-------|-------|-------|-------|
-------|-------|-------|-------|-------|-------|-------|-------|-------|-------|
-------|-------|-------|-------|-------|-------|-------|-------|-------|-------|
-------|-------|-------|-------|-------|-------|-------|-------|-------|-------|
-------|-------|-------|-------|-------|-------|-------|-------|-------|-------|


-------|-------|-------|-------|-------|-------|-------|-------|-------|-------|
-------|-------|-------|-------|-------|-------|-------|-------|-------|-------|
-------|-------|-------|-------|-------|-------|-------|-------|-------|-------|
-------|-------|-------|-------|-------|-------|-------|-------|-------|-------|
-------|-------|-------|-------|-------|-------|-------|-------|-------|-------|
-------|-------|-------|-------|-------|-------|-------|-------|-------|-------|


-------|-------|-------|-------|-------|-------|-------|-------|-------|-------|
-------|-------|-------|-------|-------|-------|-------|-------|-------|-------|
-------|-------|-------|-------|-------|-------|-------|-------|-------|-------|
-------|-------|-------|-------|-------|-------|-------|-------|-------|-------|
-------|-------|-------|-------|-------|-------|-------|-------|-------|-------|
-------|-------|-------|-------|-------|-------|-------|-------|-------|-------|


-------|-------|-------|-------|-------|-------|-------|-------|-------|-------|
-------|-------|-------|-------|-------|-------|-------|-------|-------|-------|
-------|-------|-------|-------|-------|-------|-------|-------|-------|-------|
-------|-------|-------|-------|-------|-------|-------|-------|-------|-------|
-------|-------|-------|-------|-------|-------|-------|-------|-------|-------|
-------|-------|-------|-------|-------|-------|-------|-------|-------|-------|


-------|-------|-------|-------|-------|-------|-------|-------|-------|-------|
-------|-------|-------|-------|-------|-------|-------|-------|-------|-------|
-------|-------|-------|-------|-------|-------|-------|-------|-------|-------|
-------|-------|-------|-------|-------|-------|-------|-------|-------|-------|
-------|-------|-------|-------|-------|-------|-------|-------|-------|-------|
-------|-------|-------|-------|-------|-------|-------|-------|-------|-------|


-------|-------|-------|-------|-------|-------|-------|-------|-------|-------|
-------|-------|-------|-------|-------|-------|-------|-------|-------|-------|
-------|-------|-------|-------|-------|-------|-------|-------|-------|-------|
-------|-------|-------|-------|-------|-------|-------|-------|-------|-------|
-------|-------|-------|-------|-------|-------|-------|-------|-------|-------|
-------|-------|-------|-------|-------|-------|-------|-------|-------|-------|


-------|-------|-------|-------|-------|-------|-------|-------|-------|-------|
-------|-------|-------|-------|-------|-------|-------|-------|-------|-------|
-------|-------|-------|-------|-------|-------|-------|-------|-------|-------|
-------|-------|-------|-------|-------|-------|-------|-------|-------|-------|
-------|-------|-------|-------|-------|-------|-------|-------|-------|-------|
-------|-------|-------|-------|-------|-------|-------|-------|-------|-------|


-------|-------|-------|-------|-------|-------|-------|-------|-------|-------|
-------|-------|-------|-------|-------|-------|-------|-------|-------|-------|
-------|-------|-------|-------|-------|-------|-------|-------|-------|-------|
-------|-------|-------|-------|-------|-------|-------|-------|-------|-------|
-------|-------|-------|-------|-------|-------|-------|-------|-------|-------|
-------|-------|-------|-------|-------|-------|-------|-------|-------|-------|


-------|-------|-------|-------|-------|-------|-------|-------|-------|-------|
-------|-------|-------|-------|-------|-------|-------|-------|-------|-------|
-------|-------|-------|-------|-------|-------|-------|-------|-------|-------|
-------|-------|-------|-------|-------|-------|-------|-------|-------|-------|
-------|-------|-------|-------|-------|-------|-------|-------|-------|-------|
-------|-------|-------|-------|-------|-------|-------|-------|-------|-------|


-------|-------|-------|-------|-------|-------|-------|-------|-------||
-------|-------|-------|-------|-------|-------|-------|-------|-------||
-------|-------|-------|-------|-------|-------|-------|-------|-------||
-------|-------|-------|-------|-------|-------|-------|-------|-------||
-------|-------|-------|-------|-------|-------|-------|-------|-------||
-------|-------|-------|-------|-------|-------|-------|-------|-------||




Duration Legend
---------------
W - whole
H - half
Q - quarter
E - 8th
S - 16th
T - 32nd
X - 64th
. - note dotted
|-n-|  - n-tuplets


Tablature Legend
----------------
L - tied note
x - dead note
g - grace note
(n) - ghost note
> - accentuded note
NH - natural harmonic
AH - artificial harmonic
TH - tapped harmonic
SH - semi harmonic
PH - pitch harmonic
h - hammer on
p - pull off
b - bend
br - bendRelease
pb - preBend
pbr - preBendRelease
brb - bendReleaseBend
\n/ - tremolo bar dip
\n - tremolo bar dive
-/n - tremolo bar Release up
/n\ - tremolo bar inverted dip
/n - tremolo bar return
-\n - tremolo bar Release down
S - shift slide
s - legato slide
/ -  slide into from below or out of upwards
\ -  slide into from above or out of downwards
~ - vibrato
W - wide vibrato
tr - trill
TP - tremolo picking
T - tapping
S - slap
P - pop
< - fade in
^ - brush up
v - brush down
comments
We did not receive enough feedback on this tab! Please rate:
1 2 3 4 5
I want to post or [tab]
guest
You may want to rate the tab now too:
select rating
Please do not post tabs as comments. Select "correction" instead!