Oops, an error
Loading. Please wait.

Aesthetics Of Hate Tab

ver3
ver3

Intro

Whole song

More versions @911Tabs.com
21,451 views 48 this week
3 commentsread comments
1 2 3 4 5
excellent!
x 7
Autoscroll
+/-
esc
set tempo
stop
Contributor
WARNING: You are trying to view
                                    content from Ultimate-Guitar.com
                                    in an unauthorized application,
                                    which is prohibited.

                                    Please use an official Ultimate
                                    Guitar Tabs application for iPhone,
                                    iPad or Android to access legitimate
                                    chords, guitar, bass, and drum tabs
                                    from Ultimate-Guitar.com database.

                                    Type "ultimate guitar tabs" in Apple
                                    App Store's or Android Market's
                                    search to find the application.
#----------------------------------PLEASE NOTE---------------------------------#
#This file is the author's own work and represents their interpretation of the #
#song. You may only use this file for private study, scholarship, or research. #
#------------------------------------------------------------------------------#

AESTHETICS OF HATE
As recorded by Machine Head
(From the 2007 Album THE BLACKENING)

Transcribed by Marlo and Ben Tupman (Marlo666)
        

Words and Music by Machine Head

Gtr I (Db Gb B E Ab Db) - 'Untitled'
Gtr II (Db Gb B E Ab Db) - 'Untitled'
Gtr III (Db Gb B E Ab Db) - 'Untitled'

   Intro
    Q=215
   4/4
    Gtr I
    Q   Q    Q    Q      Q    Q    S   S   E   Q    8x
||--------------------|-----------------------------||
||o-------------------|----------------------------o||
||--------------------|--3--------------------------||
||------2----3----5---|-------5----3h==5p==3---2----||
||o-------------------|----------------------------o||
||--0--(0)--(0)--(0)--|-(0)--(0)--(0)-(0)-(0)-(0)---||


  Gtr II
  E E Q   H         W
|-----------------|------------------|
|-----------------|------------------|
|-----------------|------------------|
|-----------------|------------------|
|-----------------|------------------|
|-0-0-------------|------------------|
|
| Gtr III
| E E E E E E E E   E E E E S S E Q
|-----------------|------------------|
|-----------------|------------------|
|-----------------|-3----------------|
|-----2---3---5---|-----5---3h5p3-2--|
|-----------------|------------------|
|-0-0---0---0---0-|---0---0----------|


  W          +W           +W           +W
|----------|------------|------------|--------|
|----------|------------|------------|--------|
|----------|------------|------------|--------|
|-6--------|-(6)--------|-(6)--------|-(6)----|
|-6--------|-(6)--------|-(6)--------|-(6)----|
|-4--------|-(4)--------|-(4)--------|-(4)----|
|
| W          +W           +W           +W
|----------|------------|------------|--------|
|----------|------------|------------|--------|
|----------|------------|------------|--------|
|-6--------|-(6)--------|-(6)--------|-(6)----|
|-6--------|-(6)--------|-(6)--------|-(6)----|
|-4--------|-(4)--------|-(4)--------|-(4)----|


   W             W                W                W
|-------------|---------------|----------------|-/16--------|
|-------------|-/9------------|-/15------------|------------|
|-/7----------|---------------|----------------|------------|
|-------------|---------------|----------------|------------|
|-------------|---------------|----------------|------------|
|-------------|---------------|----------------|------------|
|
|                                                  ~~~~~~~
|  H     H      +H       H       +H       H        W
|-------------|---------------|---------/13----|-[14]b16----|
|-------/6----|-(6)----/12----|-(12)-----------|------------|
|-------------|---------------|----------------|------------|
|--6----------|---------------|----------------|------------|
|--6----------|---------------|----------------|------------|
|--4----------|---------------|----------------|------------|


 Verse
  E E Q   H         W                  E E E E E E E E   E E E E E E Q
|-----------------|------------------|-----------------|-----------------|
|-----------------|------------------|-----------------|-----------------|
|-----------------|------------------|-----------------|-----------------|
|-----------------|------------------|-----------------|-----9---8-------|
|-----------------|------------------|-----------------|-------------8---|
|-0-0-------------|------------------|-6-6-7-6-9-6-7-6-|-9-6---6---6-----|
|
| E E E E E E E E   E E E E S S E Q    E E E E E E E E   E E E E E E Q
|-----------------|------------------|-----------------|-----------------|
|-----------------|------------------|-----------------|-----------------|
|-----------------|-3----------------|-----------------|-----------------|
|-----2---3---5---|-----5---3h5p3-2--|-----------------|-----9---8-------|
|-----------------|------------------|-----------------|-------------8---|
|-0-0---0---0---0-|---0---0----------|-6-6-7-6-9-6-7-6-|-9-6---6---6-----|


  E E Q   H         W                  E E E E E E E E   E E E E E E Q
|-----------------|------------------|-----------------|-----------------|
|-----------------|------------------|-----------------|-----------------|
|-----------------|------------------|-----------------|-----------------|
|-----------------|------------------|-----------------|-----6---5-------|
|-----------------|------------------|-----------------|-------------5---|
|-0-0-------------|------------------|-3-3-4-3-6-3-4-3-|-6-3---3---3-----|
|
| E E E E E E E E   E E E E S S E Q    E E E E E E E E   E E E E E E Q
|-----------------|------------------|-----------------|-----------------|
|-----------------|------------------|-----------------|-----------------|
|-----------------|-3----------------|-----------------|-----------------|
|-----2---3---5---|-----5---3h5p3-2--|-----------------|-----6---5-------|
|-----------------|------------------|-----------------|-------------5---|
|-0-0---0---0---0-|---0---0----------|-3-3-4-3-6-3-4-3-|-6-3---3---3-----|


  E E E Q   Q   E   +E  Q   Q     Q   E   E E E E E E E E   E E E E E E Q
|-----------------|---------------------|-----------------|-----------------|
|-----------------|---------------------|-----------------|-----------------|
|-----------------|---------------------|-----------------|-----------------|
|-----------------|---------------------|-----------------|-----9---8-------|
|-2-2-2-2---2---2-|-(2)-2---2-----2---2-|-----------------|-------------8---|
|-0-0-0-0---0---0-|-(0)-0---0-----0---0-|-6-6-7-6-9-6-7-6-|-9-6---6---6-----|
|
| E E E E E E E E    E  E E E S S E Q     E E E E E E E E   E E E E E E Q
|-----------------|---------------------|-----------------|-----------------|
|-----------------|---------------------|-----------------|-----------------|
|-----------------|--3------------------|-----------------|-----------------|
|-----2---3---5---|-------5---3h5p3-2---|-----------------|-----9---8-------|
|-----------------|---------------------|-----------------|-------------8---|
|-0-0---0---0---0-|-----0---0-----------|-6-6-7-6-9-6-7-6-|-9-6---6---6-----|


  W                 W
|-----------------|-------------------|
|-----------------|-------------------|
|-----------------|-------------------|
|-2---------------|-x\----------------|
|-2---------------|-x\----------------|
|-0---------------|-x\----------------|
|
| E E E E E E E E   E  E E E S S E Q
|-----------------|-------------------|
|-----------------|-------------------|
|-----------------|-3-----------------|
|-----2---3---5---|------5---3h5p3-2--|
|-----------------|-------------------|
|-0-0---0---0---0-|----0---0----------|


  E E E E E E E E   E E E E E E Q    E E E E E E E E   E E E E E E Q
|-----------------|----------------|-----------------|----------------|
|-----------------|----------------|-----------------|-----9---8------|
|-----------------|----------------|-----------------|-------------7--|
|-----------------|-----6---5------|-5-5-6-5-8-5-6-5-|-8-5---5---5----|
|-----------------|-------------5--|-----------------|----------------|
|-3-3-4-3-6-3-4-3-|-6-3---3---3----|-----------------|----------------|
|
| E E E E E E E E   E E E E E E Q    E E E E E E E E   E E E E E E Q
|-----------------|----------------|-----------------|----------------|
|-----------------|----------------|-----------------|-----9---8------|
|-----------------|----------------|-----------------|-------------7--|
|-----------------|-----6---5------|-5-5-6-5-8-5-6-5-|-8-5---5---5----|
|-----------------|-------------5--|-----------------|----------------|
|-3-3-4-3-6-3-4-3-|-6-3---3---3----|-----------------|----------------|


 Chorus
  H     H      H    H      H     H      H    H      H     H      H    H
|------------|-----------|------------|-----------|------------|-----------|
|------------|-----------|------------|-----------|------------|-----------|
|------------|-----------|------------|-----------|------------|-----------|
|-7----10----|-6----3----|-7----10----|-6----3----|-7----10----|-6----3----|
|-x-----x----|-x----x----|-x-----x----|-x----x----|-x-----x----|-x----x----|
|-5-----8----|-4----1----|-5-----8----|-4----1----|-5-----8----|-4----1----|
|
| H     H      H    H      H     H      H    H      H     H      H    H
|------------|-----------|------------|-----------|------------|-----------|
|------------|-----------|------------|-----------|------------|-----------|
|------------|-----------|------------|-----------|------------|-----------|
|-7----10----|-6----3----|-7----10----|-6----3----|-7----10----|-6----3----|
|-x-----x----|-x----x----|-x-----x----|-x----x----|-x-----x----|-x----x----|
|-5-----8----|-4----1----|-5-----8----|-4----1----|-5-----8----|-4----1----|


  H.      E E   Q.   Q.   Q    E   E   Q   S S S S e e
|-------------|--------------|-------------------------|
|-------------|--------------|-------------------------|
|-------------|--------------|-------------------------|
|-3-------x-x-|-3----2----6--|-------------------------|
|-3-------x-x-|-3----2----6--|-------------------------|
|-1-------x-x-|-1----0----4--|-0-----------0-0-0-0-0-0-|
|
| H.      E E   Q.   Q.   Q    S S S S e e H
|-------------|--------------|-------------------------|
|-------------|--------------|-------------------------|
|-------------|--------------|-------------------------|
|-3-------x-x-|-3----2----6--|-------------------------|
|-3-------x-x-|-3----2----6--|-------------------------|
|-1-------x-x-|-1----0----4--|-0-0-0-0-0-0-------------|


  H           S S S S e e   H           S S S S e e   H           S S S S e e
|-------------------------|-------------------------|--------------------------|
|-------------------------|-------------------------|--------------------------|
|-------------------------|-------------------------|--------------------------|
|-------------------------|-------------------------|--------------------------|
|-------------------------|-------------------------|--------------------------|
|-------------0-0-0-0-0-0-|-------------0-0-0-0-0-0-|-------------0-0-0-0-0-0--|
|
| S S S S e e H             S S S S e e H             S S S S e e H
|-------------------------|-------------------------|--------------------------|
|-------------------------|-------------------------|--------------------------|
|-------------------------|-------------------------|--------------------------|
|-------------------------|-------------------------|--------------------------|
|-------------------------|-------------------------|--------------------------|
|-0-0-0-0-0-0-------------|-0-0-0-0-0-0-------------|-0-0-0-0-0-0--------------|


   W             W                W                W
|-------------|---------------|----------------|-/16--------|
|-------------|-/9------------|-/15------------|------------|
|-/7----------|---------------|----------------|------------|
|-------------|---------------|----------------|------------|
|-------------|---------------|----------------|------------|
|-------------|---------------|----------------|------------|
|
|                                                  ~~~~~~~
|  H     H      +H       H       +H       H        W
|-------------|---------------|---------/13----|-[14]b16----|
|-------/6----|-(6)----/12----|-(12)-----------|------------|
|-------------|---------------|----------------|------------|
|-------------|---------------|----------------|------------|
|-------------|---------------|----------------|------------|
|-------------|---------------|----------------|------------|


 Verse
  E E Q   H         W                  E E E E E E E E   E E E E E E Q
|-----------------|------------------|-----------------|-----------------|
|-----------------|------------------|-----------------|-----------------|
|-----------------|------------------|-----------------|-----------------|
|-----------------|------------------|-----------------|-----9---8-------|
|-----------------|------------------|-----------------|-------------8---|
|-0-0-------------|------------------|-6-6-7-6-9-6-7-6-|-9-6---6---6-----|
|
| E E E E E E E E   E E E E S S E Q    E E E E E E E E   E E E E E E Q
|-----------------|------------------|-----------------|-----------------|
|-----------------|------------------|-----------------|-----------------|
|-----------------|-3----------------|-----------------|-----------------|
|-----2---3---5---|-----5---3-5-3-2--|-----------------|-----9---8-------|
|-----------------|------------------|-----------------|-------------8---|
|-0-0---0---0---0-|---0---0----------|-6-6-7-6-9-6-7-6-|-9-6---6---6-----|


  E E Q   H         W                  E E E E E E E E   E E E E E E Q
|-----------------|------------------|-----------------|-----------------|
|-----------------|------------------|-----------------|-----------------|
|-----------------|------------------|-----------------|-----------------|
|-----------------|------------------|-----------------|-----6---5-------|
|-----------------|------------------|-----------------|-------------5---|
|-0-0-------------|------------------|-3-3-4-3-6-3-4-3-|-6-3---3---3-----|
|
| E E E E E E E E   E E E E S S E Q    E E E E E E E E   E E E E E E Q
|-----------------|------------------|-----------------|-----------------|
|-----------------|------------------|-----------------|-----------------|
|-----------------|-3----------------|-----------------|-----------------|
|-----2---3---5---|-----5---3-5-3-2--|-----------------|-----6---5-------|
|-----------------|------------------|-----------------|-------------5---|
|-0-0---0---0---0-|---0---0----------|-3-3-4-3-6-3-4-3-|-6-3---3---3-----|


  E E E Q   Q   E   +E  Q   Q     Q   E   E E E E E E E E   E E E E E E Q
|-----------------|---------------------|-----------------|-----------------|
|-----------------|---------------------|-----------------|-----------------|
|-----------------|---------------------|-----------------|-----------------|
|-----------------|---------------------|-----------------|-----9---8-------|
|-2-2-2-2---2---2-|-(2)-2---2-----2---2-|-----------------|-------------8---|
|-0-0-0-0---0---0-|-(0)-0---0-----0---0-|-6-6-7-6-9-6-7-6-|-9-6---6---6-----|
|
| E E E E E E E E    E  E E E S S E Q     E E E E E E E E   E E E E E E Q
|-----------------|---------------------|-----------------|-----------------|
|-----------------|---------------------|-----------------|-----------------|
|-----------------|--3------------------|-----------------|-----------------|
|-----2---3---5---|-------5---3-5-3-2---|-----------------|-----9---8-------|
|-----------------|---------------------|-----------------|-------------8---|
|-0-0---0---0---0-|-----0---0-----------|-6-6-7-6-9-6-7-6-|-9-6---6---6-----|


  W                 W
|-----------------|-------------------|
|-----------------|-------------------|
|-----------------|-------------------|
|-2---------------|-x\----------------|
|-2---------------|-x\----------------|
|-0---------------|-x\----------------|
|
| E E E E E E E E   E  E E E S S E Q
|-----------------|-------------------|
|-----------------|-------------------|
|-----------------|-3-----------------|
|-----2---3---5---|------5---3-5-3-2--|
|-----------------|-------------------|
|-0-0---0---0---0-|----0---0----------|


  E E E E E E E E   E E E E E E Q    E E E E E E E E   E E E E E E Q
|-----------------|----------------|-----------------|----------------|
|-----------------|----------------|-----------------|-----9---8------|
|-----------------|----------------|-----------------|-------------7--|
|-----------------|-----6---5------|-5-5-6-5-8-5-6-5-|-8-5---5---5----|
|-----------------|-------------5--|-----------------|----------------|
|-3-3-4-3-6-3-4-3-|-6-3---3---3----|-----------------|----------------|
|
| E E E E E E E E   E E E E E E Q    E E E E E E E E   E E E E E E Q
|-----------------|----------------|-----------------|----------------|
|-----------------|----------------|-----------------|-----9---8------|
|-----------------|----------------|-----------------|-------------7--|
|-----------------|-----6---5------|-5-5-6-5-8-5-6-5-|-8-5---5---5----|
|-----------------|-------------5--|-----------------|----------------|
|-3-3-4-3-6-3-4-3-|-6-3---3---3----|-----------------|----------------|


 Chorus
  H     H      H    H      H     H      H    H      H     H      H    H
|------------|-----------|------------|-----------|------------|-----------|
|------------|-----------|------------|-----------|------------|-----------|
|------------|-----------|------------|-----------|------------|-----------|
|-7----10----|-6----3----|-7----10----|-6----3----|-7----10----|-6----3----|
|-x-----x----|-x----x----|-x-----x----|-x----x----|-x-----x----|-x----x----|
|-5-----8----|-4----1----|-5-----8----|-4----1----|-5-----8----|-4----1----|
|
| H     H      H    H      H     H      H    H      H     H      H    H
|------------|-----------|------------|-----------|------------|-----------|
|------------|-----------|------------|-----------|------------|-----------|
|------------|-----------|------------|-----------|------------|-----------|
|-7----10----|-6----3----|-7----10----|-6----3----|-7----10----|-6----3----|
|-x-----x----|-x----x----|-x-----x----|-x----x----|-x-----x----|-x----x----|
|-5-----8----|-4----1----|-5-----8----|-4----1----|-5-----8----|-4----1----|


  H.      E E   Q.   Q.   Q    H           S S S S e e
|-------------|--------------|-------------------------|
|-------------|--------------|-------------------------|
|-------------|--------------|-------------------------|
|-3-------x-x-|-3----2----6--|-------------------------|
|-3-------x-x-|-3----2----6--|-------------------------|
|-1-------x-x-|-1----0----4--|-------------0-0-0-0-0-0-|
|
| H.      E E   Q.   Q.   Q    S S S S e e H
|-------------|--------------|-------------------------|
|-------------|--------------|-------------------------|
|-------------|--------------|-------------------------|
|-3-------x-x-|-3----2----6--|-------------------------|
|-3-------x-x-|-3----2----6--|-------------------------|
|-1-------x-x-|-1----0----4--|-0-0-0-0-0-0-------------|


  H           S S S S e e   H           S S S S e e   H           S S S S e e
|-------------------------|-------------------------|--------------------------|
|-------------------------|-------------------------|--------------------------|
|-------------------------|-------------------------|--------------------------|
|-------------------------|-------------------------|--------------------------|
|-------------------------|-------------------------|--------------------------|
|-------------0-0-0-0-0-0-|-------------0-0-0-0-0-0-|-------------0-0-0-0-0-0--|
|
| S S S S e e H             S S S S e e H             S S S S e e H
|-------------------------|-------------------------|--------------------------|
|-------------------------|-------------------------|--------------------------|
|-------------------------|-------------------------|--------------------------|
|-------------------------|-------------------------|--------------------------|
|-------------------------|-------------------------|--------------------------|
|-0-0-0-0-0-0-------------|-0-0-0-0-0-0-------------|-0-0-0-0-0-0--------------|


    H           S S S S e e   H           S S S S e e
||--------------------------|-------------------------|
||o-------------------------|-------------------------|
||--------------------------|-------------------------|
||--------------------------|-------------------------|
||o-------------------------|-------------------------|
||--------------0-0-0-0-0-0-|-------------0-0-0-0-0-0-|
|
|   S S S S e e H             S S S S e e H
||--------------------------|-------------------------|
||o-------------------------|-------------------------|
||--------------------------|-------------------------|
||--------------------------|-------------------------|
||o-------------------------|-------------------------|
||--0-0-0-0-0-0-------------|-0-0-0-0-0-0-------------|


  H           S S S S e e   H            H      3x
|-------------------------|---------------------||
|-------------------------|--------------------o||
|-------------------------|---------------------||
|-------------------------|---------------------||
|-------------------------|--------------------o||
|-------------0-0-0-0-0-0-|-------------19\-----||
|
| S S S S e e H             S S S S e e  H      3x
|-------------------------|---------------------||
|-------------------------|--------------------o||
|-------------------------|---------------------||
|-------------------------|---------------------||
|-------------------------|--------------------o||
|-0-0-0-0-0-0-------------|-0-0-0-0-0-0-19\-----||


   Breakdown
    E E E E E E E E   E E E E E E E E   E E E E E E E E   E E E E E E E E
||------------------|-----------------|-----------------|------------------|
||o-----------------|-----------------|-----------------|------------------|
||------------------|-----------------|-----------------|------------------|
||--------4p2h4-----|---4p2h4---------|-------4p2h4-----|---4p2h4----------|
||o-----------------|---------0h3-0h3-|-----------------|---------0h3-0h3--|
||--2h3p2-------2h3p|=2---------------|-2h3p2-------2h3p|=2----------------|
|
|   E E E E E E E E   E E E E E E E E   E E E E E E E E   E E E E E E E E
||------------------|-----------------|-----------------|------------------|
||o-----------------|-----------------|-----------------|------------------|
||------------------|-----------------|-----------------|------------------|
||--------4p2h4-----|---4p2h4---------|-------4p2h4-----|---4p2h4----------|
||o-----------------|---------0h3-0h3-|-----------------|---------0h3-0h3--|
||--2h3p2-------2h3p|=2---------------|-2h3p2-------2h3p|=2----------------|


  E E E E E E E E   E E E E E E E E   E E E E E E  Q    Q  Q  Q    +Q
|-----------------|-----------------|-----------------|------------------||
|-----------------|-----------------|-----------------|-----------------o||
|-----------------|-----------------|-----------------|-------4b6--(4)---||
|-------4p2h4-----|---4p2h4---------|-------4p2h4-----|------------------||
|-----------------|---------0h3-0h3-|-------------/7--|-3--2------------o||
|-2h3p2-------2h3p|=2---------------|-2h3p2-----------|------------------||
|
| E E E E E E E E   E E E E E E E E   E E E E E E  Q    Q  Q  Q    +Q
|-----------------|-----------------|-----------------|------------------||
|-----------------|-----------------|-----------------|-----------------o||
|-----------------|-----------------|-----------------|-------4b6--(4)---||
|-------4p2h4-----|---4p2h4---------|-------4p2h4-----|------------------||
|-----------------|---------0h3-0h3-|-------------/7--|-3--2------------o||
|-2h3p2-------2h3p|=2---------------|-2h3p2-----------|------------------||


   E  E  E  E  E  E  E  E    E  E  E  E  E  E  E  E
|-------------------------|-------------------------|
|----------------------15-|-------18-17-15----------|
|-------16-17-16-14-------|-17-16----------17-16-14-|
|----14-------------17----|-------------------------|
|-12----------------------|-------------------------|
|-------------------------|-------------------------|
|
|  E  E  E  E  E  E  E  E    E  E  E  E  E  E  E  E
|-------------------------|-------------------------|
|-----------------------3-|--1--0--6--5--3----------|
|--------4--5--4--2--0----|-----------------5--4--2-|
|-----2-------------------|-------------------------|
|--0----------------------|-------------------------|
|-------------------------|-------------------------|


   E  E  E  E  E  E  E  E    E  E  E  E  E  E  E  E
|-------------------------|-------------------------|
|----------------------15-|-------18-17-15----------|
|-------16-17-16-14-------|-17-16----------17-16-14-|
|----14-------------17----|-------------------------|
|-12----------------------|-------------------------|
|-------------------------|-------------------------|
|
|  E  E  E  E  E  E  E  E    E  E  E  E  E  E  E  E
|-------------------------|-------------------------|
|-----------------------3-|--1--0--6--5--3----------|
|--------4--5--4--2--0----|-----------------5--4--2-|
|-----2-------------------|-------------------------|
|--0----------------------|-------------------------|
|-------------------------|-------------------------|


   E  E E  E  E  E  E  E    E  E  E  E  E  E  E  E
|------------------------|-------------------------|
|---------------------15-|-------18-17-15----------|
|----17-x-17-16-14-------|-17-16----------17-16-14-|
|------------------17----|-------------------------|
|------------------------|-------------------------|
|-13---------------------|-------------------------|
|
|  E  E E  E  E  E  E  E    E  E  E  E  E  E  E  E
|------------------------|-------------------------|
|----------------------3-|--1--0--6--5--3----------|
|-----5-x--5--4--2--0----|-----------------5--4--2-|
|--3---------------------|-------------------------|
|------------------------|-------------------------|
|------------------------|-------------------------|


   E  E E  E  E  E  E  E    E  E  E  E  E  E  E  E
|------------------------|-------------------------|
|---------------------15-|-------18-17-15----------|
|----17-x-17-16-14-------|-17-16----------17-16-14-|
|------------------17----|-------------------------|
|------------------------|-------------------------|
|-13---------------------|-------------------------|
|
|  E  E E  E  E  E  E  E    E  E  E  E  E  E  E  E
|------------------------|-------------------------|
|----------------------3-|--1--0--6--5--3----------|
|-----5-x--5--4--2--0----|-----------------5--4--2-|
|--3---------------------|-------------------------|
|------------------------|-------------------------|
|------------------------|-------------------------|


    E E E E E E E E   E E E E E E E E   E E E E E E E E   E E E E E E E E
||------------------|-5-6-5-6---------|-----------------|-5-6-5-6-----------||
||o-5-6-5-6-5-6-5-6-|---------6-8-6-8-|-5-6-5-6-5-6-5-6-|---------6-8-6-8--o||
||------------------|-----------------|-----------------|-------------------||
||------------------|-----------------|-----------------|-------------------||
||o-----------------|-----------------|-----------------|------------------o||
||------------------|-----------------|-----------------|-------------------||
|
|   E E E E E E E E   E E E E E E E E   E E E E E E E E   E E E E E E E E
||------------------|-5-6-5-6---------|-----------------|-5-6-5-6-----------||
||o-5-6-5-6-5-6-5-6-|---------6-8-6-8-|-5-6-5-6-5-6-5-6-|---------6-8-6-8--o||
||------------------|-----------------|-----------------|-------------------||
||------------------|-----------------|-----------------|-------------------||
||o-----------------|-----------------|-----------------|------------------o||
||------------------|-----------------|-----------------|-------------------||


   E  E  E  E  E  E  E  E    E  E  E  E  E  E  E  E
|-------------------------|-------------------------|
|----------------------15-|-------18-17-15----------|
|-------16-17-16-14-------|-17-16----------17-16-14-|
|----14-------------17----|-------------------------|
|-12----------------------|-------------------------|
|-------------------------|-------------------------|
|
|  E  E  E  E  E  E  E  E    E  E  E  E  E  E  E  E
|-------------------------|-------------------------|
|-------------------------|-------10--8-------------|
|--------7--9--7-------10-|--9--7-------10--9--7----|
|-----7----------10--9----|-----------------------7-|
|--0----------------------|-------------------------|
|-------------------------|-------------------------|


   E  E  E  E  E  E  E  E    E  E  E  E  E  E  E  E
|-------------------------|-------------------------|
|----------------------15-|-------18-17-15----------|
|-------16-17-16-14-------|-17-16----------17-16-14-|
|----14-------------17----|-------------------------|
|-12----------------------|-------------------------|
|-------------------------|-------------------------|
|
|  E  E  E  E  E  E  E  E    E  E  E  E  E  E  E  E
|-------------------------|-------------------------|
|-------------------------|-------10--8-------------|
|--------7--9--7-------10-|--9--7-------10--9--7----|
|-----7----------10--9----|-----------------------7-|
|--0----------------------|-------------------------|
|-------------------------|-------------------------|


   E  E E  E  E  E  E  E    E  E  E  E  E  E  E  E
|------------------------|-------------------------|
|---------------------15-|-------18-17-15----------|
|----17-x-17-16-14-------|-17-16----------17-16-14-|
|------------------17----|-------------------------|
|------------------------|-------------------------|
|-13---------------------|-------------------------|
|
|  E  E E  E  E  E  E  E    E  E  E  E  E  E  E  E
|------------------------|-------------------------|
|------------------------|-------10--8-------------|
|----------9--7-------10-|--9--7-------10--9--7----|
|----10-x-------10--9----|-----------------------7-|
|--8---------------------|-------------------------|
|------------------------|-------------------------|


   E  E E  E  E  E  E  E    E  E  E  E  E  E  E  E
|------------------------|-------------------------|
|---------------------15-|-------18-17-15----------|
|----17-x-17-16-14-------|-17-16----------17-16-14-|
|------------------17----|-------------------------|
|------------------------|-------------------------|
|-13---------------------|-------------------------|
|
|  E  E E  E  E  E  E  E    E  E  E  E  E  E  E  E
|------------------------|-------------------------|
|------------------------|-------10--8-------------|
|----------9--7-------10-|--9--7-------10--9--7----|
|----10-x-------10--9----|-----------------------7-|
|--8---------------------|-------------------------|
|------------------------|-------------------------|


   E  E  E  E  E  E  E  E    E  E  E  E  E  E  E  E
|-------------------------|-12-13-12-13-------------|
|-12-13-12-13-12-13-12-13-|-------------13-15-13-15-|
|-------------------------|-------------------------|
|-------------------------|-------------------------|
|-------------------------|-------------------------|
|-------------------------|-------------------------|
|
|  E  E  E  E  E  E  E  E    E  E  E  E  E  E  E  E
|-------------------------|--5--6--5--6-------------|
|--5--6--5--6--5--6--5--6-|--------------6--8--6--8-|
|-------------------------|-------------------------|
|-------------------------|-------------------------|
|-------------------------|-------------------------|
|-------------------------|-------------------------|


   E  E  E  E  E  E  E  E    E  E  E  E  E  E  E  E
|-------------------------|-12-13-12-13-------------|
|-12-13-12-13-12-13-12-13-|-------------13-15-13-15-|
|-------------------------|-------------------------|
|-------------------------|-------------------------|
|-------------------------|-------------------------|
|-------------------------|-------------------------|
|
|  E  E  E  E  E  E  E  E    E  E  E  E  E  E  E  E
|-------------------------|--5--6--5--6-------------|
|--5--6--5--6--5--6--5--6-|--------------6--8--6--8-|
|-------------------------|-------------------------|
|-------------------------|-------------------------|
|-------------------------|-------------------------|
|-------------------------|-------------------------|


   E  E  E  E  E  E  E  E    E  E  E  E  E  E  E  E
|-------------------------|-12-13-12-13-------------|
|-12-13-12-13-12-13-12-13-|-------------13-15-13-15-|
|-------------------------|-------------------------|
|-------------------------|-------------------------|
|-------------------------|-------------------------|
|-------------------------|-------------------------|
|
|  E  E  E  E  E  E  E  E    E  E  E  E  E  E  E  E
|-------------------------|--5--6--5--6-------------|
|--5--6--5--6--5--6--5--6-|--------------6--8--6--8-|
|-------------------------|-------------------------|
|-------------------------|-------------------------|
|-------------------------|-------------------------|
|-------------------------|-------------------------|


   E  E  E  E  E  E  E  E    E  E  E  E  E  E  E  E
|-------------------------|-12-13-12-13-------------|
|-12-13-12-13-12-13-12-13-|-------------13-15-13-15-|
|-------------------------|-------------------------|
|-------------------------|-------------------------|
|-------------------------|-------------------------|
|-------------------------|-------------------------|
|
|  E  E  E  E  E  E  E  E    E  E  E  E  E  E  E  E
|-------------------------|-------------------------|
|--5--6--5--6--5--6--5--6-|-------------------------|
|-------------------------|----------------------12-|
|-------------------------|-------------12-14-15----|
|-------------------------|----12-14-15-------------|
|-------------------------|-15----------------------|


 Guitar Solo
      W           +W           +W                       +W
|--------------|-------------|------------------------|-----------------------|
|--------------|-------------|------------------------|-----------------------|
|--------------|-------------|------------------------|-----------------------|
|-----7--------|--(7)--------|-(7)--------------------|-(7)-------------------|
|-----7--------|--(7)--------|-(7)--------------------|-(7)-------------------|
|-----5--------|--(5)--------|-(5)--------------------|-(5)-------------------|
|
|     ~~~~~~~~~~~~~~~~
|                               |--------3---------|     |-------3-------|
|  a  W           +W            Q   Q  Q  a  Q  Q  Q     Q   Q  Q  Q  Q  Q
|--------------|-------------|------------------------|-----------------------|
|--------------|-------------|-17-----17-17-18-17-15--|-----------------------|
|-12-14--------|-(14)--------|-----17-----------------|-17--16----------------|
|--------------|-------------|------------------------|--------17-15-14-------|
|--------------|-------------|------------------------|-----------------17----|
|--------------|-------------|------------------------|-----------------------|


       Q   Q   Q   Q      H        Q   Q
|---------------------|---------------12b13r=|
|-----------------12--|--12b13r===10---------|
|----/10--12--14------|----------------------|
|---------------------|----------------------|
|---------------------|----------------------|
|---------------------|----------------------|
|
|  a   W                 +H        H
|---------------------|----------------------|
|---------------------|----------------------|
|---------------------|----------------------|
|-14--15--------------|-(15)------14---------|
|---------------------|----------------------|
|---------------------|----------------------|


      +Q    S  S  E  E  E  E  E     E   E  E  E  E  E Q
|----(12)--10h12p10----10-------|-------------------------|
|-------------------13----13-12-|--10--12-10----10--------|
|-------------------------------|------------13----13-9---|
|-------------------------------|-------------------------|
|-------------------------------|-------------------------|
|-------------------------------|-------------------------|
|
|  a   W                           +H            H
|-------------------------------|-------------------------|
|-------------------------------|-------------------------|
|-------------------------------|-------------------------|
|-14--15------------------------|-(15)----------14--------|
|-------------------------------|-------------------------|
|-------------------------------|-------------------------|


   ~~~~~~
   W                    +H            H
|---------------------|--------------------------|
|---------------------|--------------------------|
|---------------------|--------------------------|
|-/6------------------|-(6)----------/7----------|
|---------------------|--------------------------|
|---------------------|--------------------------|
|
|  H         H           E   E  E  E  E  E  E  E
|---------------------|--------------------------|
|---------------------|--------------------------|
|---------------------|--------------------------|
|---------------------|--------12-14-15-14-12----|
|-----------11tr12----|-14--15----------------15-|
|-12tr13--------------|--------------------------|


   ~~~~~~
   W                    +H             H
|---------------------|---------------------------|
|---------------------|--------------/10----------|
|---------------------|---------------------------|
|-/6------------------|-(6)-----------------------|
|---------------------|---------------------------|
|---------------------|---------------------------|
|
|  H         H           E   E  E  E   E  E  E  E
|---------------------|---------------------------|
|---------------------|-----------15--18-17-15----|
|-----------13tr14----|-14--16-17--------------17-|
|-14tr15--------------|---------------------------|
|---------------------|---------------------------|
|---------------------|---------------------------|


   ~~~~~~
   W                    +H             H
|---------------------|--------------/17---------|
|-/9------------------|-(9)----------------------|
|---------------------|--------------------------|
|---------------------|--------------------------|
|---------------------|--------------------------|
|---------------------|--------------------------|
|
|  H         H           E   E  E  E   E  E  E E
|-----------16tr17----|-16--17-19-20--19-17-16p0-|
|-17tr18--------------|--------------------------|
|---------------------|--------------------------|
|---------------------|--------------------------|
|---------------------|--------------------------|
|---------------------|--------------------------|


    ~~~~                                   ~~~
                   |---3---|
    H.             E  E    E     Q    Q    H
|-/16-------------16-16---16-|-/16h==17---17--------|
|----------------------------|----------------------|
|----------------------------|----------------------|
|----------------------------|----------------------|
|----------------------------|----------------------|
|----------------------------|----------------------|
|
|   E E  E E  E E  E    E        E E  E E  E E  E E
|--19p0-19p0-19p0-20p===0----|--19p0-20p0-19p0-20p0-|
|----------------------------|----------------------|
|----------------------------|----------------------|
|----------------------------|----------------------|
|----------------------------|----------------------|
|----------------------------|----------------------|


   W                    +W
|---------------------|---------------------|
|---------------------|---------------------|
|---------------------|---------------------|
|--7------------------|-(7)-----------------|
|--7------------------|-(7)-----------------|
|--5------------------|-(5)-----------------|
|
|                        ~~~~~
|  H.         S  S  E    H.         S  S  E
|---------------------|---------------------|
|-20b22------19h20p19-|-20b22------19h20p19-|
|---------------------|---------------------|
|---------------------|---------------------|
|---------------------|---------------------|
|---------------------|---------------------|


   W                             +W
|------------------------------|----------------------------------------|
|------------------------------|----------------------------------------|
|------------------------------|----------------------------------------|
|--7---------------------------|-(7)------------------------------------|
|--7---------------------------|-(7)------------------------------------|
|--5---------------------------|-(5)------------------------------------|
|
|                      |--3--|    |----------------3----------------|
|  Q      E  E  Q      E  E  E    E   E  E  E  E  E  E  E  E  E  E  E
|-18b20--19-17-18b20--19-17----|-17--15-13-15-13----13------------------|
|---------------------------17-|-----------------17----17-15------------|
|------------------------------|-----------------------------13-14-16---|
|------------------------------|----------------------------------------|
|------------------------------|----------------------------------------|
|------------------------------|----------------------------------------|


                 |--3--|              |------3-------|
      H.         E  E  E     H        E  E  E  E  E  E
|----20b22------22-20-19-|--20b22----20-19-20-19-17----|
|------------------------|--------------------------20-|
|------------------------|-----------------------------|
|------------------------|-----------------------------|
|------------------------|-----------------------------|
|------------------------|-----------------------------|
|
|     ~~~~~~~~~~~~~~~~~~~~~~~~~~~~
|  a  W                     +H        H
|------------------------|-----------------------------|
|-17-18------------------|-(18)------17----------------|
|------------------------|-----------------------------|
|------------------------|-----------------------------|
|------------------------|-----------------------------|
|------------------------|-----------------------------|


      |------3-------|         |--3--|
      E  E  E  E  E  E  Q      E  E  E     W
|----------------------22b24--20-22-20-|--22b24----------|
|----18-17-18-17-----------------------|-----------------|
|----------------19-17-----------------|-----------------|
|--------------------------------------|-----------------|
|--------------------------------------|-----------------|
|--------------------------------------|-----------------|
|
|     ~~~~~~~~~~~~~~~~~~~~~~~~~~~~~~~~~~~~~~~~~~
|  a  W                                   +H        H
|--------------------------------------|-----------------|
|-17-18--------------------------------|-(18)------17----|
|--------------------------------------|-----------------|
|--------------------------------------|-----------------|
|--------------------------------------|-----------------|
|--------------------------------------|-----------------|


   ~~~~~~~~~~~~~~~~
   H         H           E  E  E  E  E  E  E  E
|---------------------|-------------------------|
|---------------------|-------------------------|
|---------------------|-------------------------|
|---------------------|-----------5--6--5-------|
|---------------------|--5--7--8-----------8--7-|
|--4---------7--------|-------------------------|
|
|  H         H           E  E  E  E  E  E  E  E
|---------------------|-------------------------|
|---------------------|-------------------------|
|---------------------|-------------------------|
|---------------------|-------12-14-15-14-12----|
|-----------11tr12----|-14-15----------------15-|
|-12tr13--------------|-------------------------|


   ~~~~~~~~~~~~~~~~
   H         H           E  E  E  E  E  E  E  E
|---------------------|-------------------------|
|---------------------|-------------10----------|
|---------------------|--------9-10----12-10--9-|
|--6---------9--------|-10-12-------------------|
|---------------------|-------------------------|
|---------------------|-------------------------|
|
|  H         H           E  E  E  E  E  E  E  E
|---------------------|-------------------------|
|---------------------|----------15-18-17-15----|
|-----------13tr14----|-14-16-17-------------17-|
|-14tr15--------------|-------------------------|
|---------------------|-------------------------|
|---------------------|-------------------------|


   ~~~~~~~~~~~~~~~~
   H         H           E  E  E  E  E  E  E E
|---------------------|-12-13-16-17-16-13-12p0-|
|---------------------|------------------------|
|--9--------13--------|------------------------|
|---------------------|------------------------|
|---------------------|------------------------|
|---------------------|------------------------|
|
|  H         H           E  E  E  E  E  E  E E
|-----------16tr17----|-16-17-19-20-19-17-16p0-|
|-17tr18--------------|------------------------|
|---------------------|------------------------|
|---------------------|------------------------|
|---------------------|------------------------|
|---------------------|------------------------|


   E E  E E  E E  E E    E E  E E  E E  E E
|-16p0-16p0-16p0-17p0-|-16p0-17p0-16p0-17p0-|
|---------------------|---------------------|
|---------------------|---------------------|
|---------------------|---------------------|
|---------------------|---------------------|
|---------------------|---------------------|
|
|  E E  E E  E E  E E    E E  E E  E E  E E
|-19p0-19p0-19p0-20p0-|-19p0-20p0-19p0-20p0-|
|---------------------|---------------------|
|---------------------|---------------------|
|---------------------|---------------------|
|---------------------|---------------------|
|---------------------|---------------------|


 Pre-Chorus
  W          +W
|----------|--------------------|
|----------|--------------------|
|----------|--------------------|
|-7--------|-(7)----------------|
|-7--------|-(7)----------------|
|-5--------|-(5)----------------|
|
| W          +H      E  E  E  E
|----------|--------------------|
|----------|--------13-13-13-13-|
|----------|---------x--x--x--x-|
|-7--------|-(7)----10-10-10-10-|
|-7--------|-(7)----------------|
|-5--------|-(5)----------------|


   W                         W
|-------------------------|-------------------------|
|-------------------------|-------------------------|
|-------------------------|-------------------------|
|--7----------------------|--7----------------------|
|--7----------------------|--7----------------------|
|--5----------------------|--5----------------------|
|
|  E  E  E  E  E  E  E  E    E  E  E  E  E  E  E  E
|-------------------------|-------------------------|
|-12-12-12-12-12-12-12-12-|-13-13-13-13-13-13-13-13-|
|--x--x--x--x--x--x--x--x-|--x--x--x--x--x--x--x--x-|
|--9--9--9--9--9--9--9--9-|-10-10-10-10-10-10-10-10-|
|-------------------------|-------------------------|
|-------------------------|-------------------------|


   W                         W
|-------------------------|-------------------------|
|-------------------------|-------------------------|
|-------------------------|-------------------------|
|--3----------------------|--3----------------------|
|--3----------------------|--3----------------------|
|--1----------------------|--1----------------------|
|
|  E  E  E  E  E  E  E  E    E  E  E  E  E  E  E  E
|-------------------------|-------------------------|
|-13-13-13-13-13-13-13-13-|-12-12-12-12-12-12-12-12-|
|--x--x--x--x--x--x--x--x-|--x--x--x--x--x--x--x--x-|
|-10-10-10-10-10-10-10-10-|--9--9--9--9--9--9--9--9-|
|-------------------------|-------------------------|
|-------------------------|-------------------------|


  W                 W
|-----------------|-----------------|
|-----------------|-----------------|
|-----------------|-----------------|
|-3---------------|-3---------------|
|-3---------------|-3---------------|
|-1---------------|-1---------------|
|
| E E E E E E E E   E E E E E E E E
|-----------------|-----------------|
|-8-8-8-8-8-8-8-8-|-6-6-6-6-6-6-6-6-|
|-x-x-x-x-x-x-x-x-|-x-x-x-x-x-x-x-x-|
|-5-5-5-5-5-5-5-5-|-3-3-3-3-3-3-3-3-|
|-----------------|-----------------|
|-----------------|-----------------|


                                           2/4
  H     H       +H     H      H     H       +H
|-------0-----|-(0)---------|-------0-----|-(0)----|
|-------0-----|-(0)---------|-------0-----|-(0)----|
|-------------|-------------|-------------|--------|
|-2----(2)----|-(2)----3----|-2----(2)----|-(2)----|
|-2----(2)----|-(2)---------|-------------|--------|
|-0----(0)----|-(0)---------|-------------|--------|
|
| H     H       +H     H      H     H       +H
|-------0-----|-(0)---------|-------0-----|-(0)----|
|-------0-----|-(0)---------|-------0-----|-(0)----|
|-------------|-------------|-------------|--------|
|-2----(2)----|-(2)----3----|-2----(2)----|-(2)----|
|-2----(2)----|-(2)---------|-------------|--------|
|-0----(0)----|-(0)---------|-------------|--------|


 4/4                                                   2/4
  H    H       H     +H       H    H      +H     H      +H
|-----------|--0-----(0)----|-----------|-------------|--------|
|-----------|--0-----(0)----|-----------|-------------|--------|
|-----------|---------------|-----------|-------------|--------|
|-3----2----|-(2)----(2)----|-3----2----|-(2)----6----|-(6)----|
|-----------|---------------|-----------|-------------|--------|
|-----------|---------------|-----------|-------------|--------|
|
| H    H       H     +H       H    H      +H     H      +H
|-----------|--0-----(0)----|-----------|-------------|--------|
|-----------|--0-----(0)----|-----------|-------------|--------|
|-----------|---------------|-5----4----|-(4)----1----|-(1)----|
|-----------|---------------|-----------|-------------|--------|
|-3----2----|-(2)----(2)----|-----------|-------------|--------|
|-----------|---------------|-----------|-------------|--------|


   Chorus
   4/4
    W           W          W          W
||-----------|-----------|----------|-------||
||o----------|-----------|----------|------o||
||-----------|-----------|----------|-------||
||--7--------|-10--------|-6--------|-3-----||
||o-x--------|--x--------|-x--------|-x----o||
||--5--------|--8--------|-4--------|-1-----||
|
|   W           W          W          W
||-----------|-----------|----------|-------||
||o----------|-----------|----------|------o||
||-----------|-----------|----------|-------||
||--7--------|-10--------|-6--------|-3-----||
||o-x--------|--x--------|-x--------|-x----o||
||--5--------|--8--------|-4--------|-1-----||


  H     H      H    H      H     H      H    H
|------------|-----------|------------|-----------|
|------------|-----------|------------|-----------|
|------------|-----------|------------|-----------|
|-7----10----|-6----3----|-7----10----|-6----3----|
|-x-----x----|-x----x----|-x-----x----|-x----x----|
|-5-----8----|-4----1----|-5-----8----|-4----1----|
|
| H     H      H    H      H     H      H    H
|------------|-----------|------------|-----------|
|------------|-----------|------------|-----------|
|------------|-----------|------------|-----------|
|-7----10----|-6----3----|-7----10----|-6----3----|
|-x-----x----|-x----x----|-x-----x----|-x----x----|
|-5-----8----|-4----1----|-5-----8----|-4----1----|


                                               |-------------3-------------|
  Q   Q  Q  Q    Q   Q  Q  Q    Q   Q  Q  Q    E E E  E  E  E E E E  E  E  E
|--------------|--------------|--------------|-------------------------------|
|--------------|--------------|--------------|-------------------------------|
|--------------|--------------|--------------|-------------------------------|
|-7--10--6--3--|-7--10--6--3--|-7--10--6--3--|-7-7-7-10-10-10-6-6-6--3--3--3-|
|-x---x--x--x--|-x---x--x--x--|-x---x--x--x--|-------------------------------|
|-5---8--4--1--|-5---8--4--1--|-5---8--4--1--|-------------------------------|
|
|                                              |-------------3-------------|
| Q   Q  Q  Q    Q   Q  Q  Q    Q   Q  Q  Q    E E E  E  E  E E E E  E  E  E
|--------------|--------------|--------------|-------------------------------|
|--------------|--------------|--------------|-------------------------------|
|--------------|--------------|--------------|-9-9-9-12-12-12-8-8-8----------|
|-7--10--6--3--|-7--10--6--3--|-7--10--6--3--|----------------------10-10-10-|
|-x---x--x--x--|-x---x--x--x--|-x---x--x--x--|-------------------------------|
|-5---8--4--1--|-5---8--4--1--|-5---8--4--1--|-------------------------------|


 Breakdown
  W          +W
|----------|--------|
|----------|--------|
|----------|--------|
|-3--------|-(3)----|
|-3--------|-(3)----|
|-1--------|-(1)----|
|
| W          +W
|----------|--------|
|----------|--------|
|----------|--------|
|-3--------|-(3)----|
|-3--------|-(3)----|
|-1--------|-(1)----|


  H.      E E   Q.   Q.   Q    E q  q  q  e   +E  q  q  q  e
|-------------|--------------|--------------|----------------|
|-------------|--------------|--------------|----------------|
|-------------|--------------|--------------|----------------|
|-3-----------|-3----2----5--|--------------|----------------|
|-3-------3-3-|-3----2----5--|-2-2--2--2--2-|-(2)-2--2--2--2-|
|-1-------1-1-|-1----0----3--|-0-0--0--0--0-|-(0)-0--0--0--0-|
|
| H.      E E   Q.   Q.   Q    E q  q  q  e   +E  q  q  q  e
|-------------|--------------|--------------|----------------|
|-------------|--------------|--------------|----------------|
|-------------|--------------|--------------|----------------|
|-3-----------|-3----2----5--|--------------|----------------|
|-3-------3-3-|-3----2----5--|-2-2--2--2--2-|-(2)-2--2--2--2-|
|-1-------1-1-|-1----0----3--|-0-0--0--0--0-|-(0)-0--0--0--0-|


  E Q  Q  Q  E   +E  Q  Q  Q  E   E E E E E E E E   E E E E E E Q
|--------------|----------------|-----------------|----------------|
|--------------|----------------|-----------------|----------------|
|--------------|----------------|-----------------|----------------|
|-9-9--9--9--9-|-(9)-9--9--9--9-|-----------------|-----9---8------|
|-7-7--7--7--7-|-(7)-7--7--7--7-|-----------------|-------------8--|
|-0-0--0--0--0-|-(0)-0--0--0--0-|-6-6-7-6-9-6-7-6-|-9-6---6---6----|
|
| E Q  Q  Q  E   +E  Q  Q  Q  E   E E E E E E E E   E E E E E E Q
|--------------|----------------|-----------------|----------------|
|--------------|----------------|-----------------|----------------|
|--------------|----------------|-----------------|----------------|
|-9-9--9--9--9-|-(9)-9--9--9--9-|-----------------|-----9---8------|
|-7-7--7--7--7-|-(7)-7--7--7--7-|-----------------|-------------8--|
|-0-0--0--0--0-|-(0)-0--0--0--0-|-6-6-7-6-9-6-7-6-|-9-6---6---6----|


                                ~
  E E E E E E E E   E E E E E E Q
|-----------------|----------------|
|-----------------|-----9---8------|
|-----------------|-------------7--|
|-5-5-6-5-8-5-6-5-|-8-5---5---5----|
|-----------------|----------------|
|-----------------|----------------|
|
|                               ~
| E E E E E E E E   E E E E E E Q
|-----------------|----------------|
|-----------------|-----9---8------|
|-----------------|-------------7--|
|-5-5-6-5-8-5-6-5-|-8-5---5---5----|
|-----------------|----------------|
|-----------------|----------------|


   Interlude
    Gtr I
    Q   Q    Q    Q      Q    Q    S   S   E   Q    7x
||--------------------|-----------------------------||
||o-------------------|----------------------------o||
||--------------------|--3--------------------------||
||------2----3----5---|-------5----3---5---3---2----||
||o-------------------|----------------------------o||
||--0--(0)--(0)--(0)--|-(0)--(0)--(0)-(0)-(0)-(0)---||


  W          +W           +W           +W
|----------|------------|------------|--------|
|----------|------------|------------|--------|
|----------|------------|------------|--------|
|----------|------------|------------|--------|
|----------|------------|------------|--------|
|-0--------|-(0)--------|-(0)--------|-(0)----|


   Out-Chorus
    Gtr II
    Q  Q  H      H    H      H    H      Q  Q  H     3x
||-------------|-----------|-----------|-------------||
||o------------|-----------|-----------|------------o||
||-------------|-----------|-----------|-------------||
||--------2----|-3----5----|-8----5----|-3--5--2-----||
||o-2--2--2----|-3----5----|-8----5----|-3--5--2----o||
||--0--0--0----|-1----3----|-6----3----|-1S=3--0-----||
|
|   Gtr III
|   Q  Q  H      H    H      H    H      Q  Q  H     3x
||-------------|-----------|-----------|-------------||
||o------------|-----------|-----------|------------o||
||-------------|-----------|-----------|-------------||
||--------2----|-3----5----|-8----5----|-3--5--2-----||
||o-2--2--2----|-3----5----|-8----5----|-3--5--2----o||
||--0--0--0----|-1----3----|-6----3----|-1S=3--0-----||


  Q  Q  H      H    H      H    H      Q   Q      H
|------------|-----------|-----------|-------------------------|
|------------|-----------|-----------|-------------------------|
|------------|-----------|-----------|-------------------------|
|-------2----|-3----5----|-8----5----|-3---5------2------------|
|-2--2--2----|-3----5----|-8----5----|-3---5------2------------|
|-0--0--0----|-1----3----|-6----3----|-1S==3------0------------|
|
| Q  Q  H      H    H      H    H      Q   Q      Q      Q
|------------|-----------|-----------|-------------------------|
|------------|-----------|-----------|-------------------------|
|------------|-----------|-----------|----[3]b5--[3]b5--[3]b5--|
|-------2----|-3----5----|-8----5----|-3-----------------------|
|-2--2--2----|-3----5----|-8----5----|-3-----------------------|
|-0--0--0----|-1----3----|-6----3----|-1-----------------------|


    Q  Q  H      H    H      H    H      Q  Q  H     3x
||-------------|-----------|-----------|-------------||
||o------------|-----------|-----------|------------o||
||-------------|-----------|-----------|-------------||
||--------2----|-3----5----|-8----5----|-3--5--2-----||
||o-2--2--2----|-3----5----|-8----5----|-3--5--2----o||
||--0--0--0----|-1----3----|-6----3----|-1S=3--0-----||
|
|   Q  Q  H      H    H      H    H      Q  Q  H     3x
||-------------|-----------|-----------|-------------||
||o------------|-----------|-----------|------------o||
||-------------|-----------|-----------|-------------||
||--------2----|-3----5----|-8----5----|-3--5--2-----||
||o-2--2--2----|-3----5----|-8----5----|-3--5--2----o||
||--0--0--0----|-1----3----|-6----3----|-1S=3--0-----||


  Q  Q  H      H    H      H    H      Q   Q      H
|------------|-----------|-----------|-------------------------|
|------------|-----------|-----------|-------------------------|
|------------|-----------|-----------|-------------------------|
|-------2----|-3----5----|-8----5----|-3---5------2------------|
|-2--2--2----|-3----5----|-8----5----|-3---5------2------------|
|-0--0--0----|-1----3----|-6----3----|-1S==3------0------------|
|
| Q  Q  H      H    H      H    H      Q   Q      Q      Q
|------------|-----------|-----------|-------------------------|
|------------|-----------|-----------|-------------------------|
|------------|-----------|-----------|----[3]b5--[3]b5--[3]b5--|
|-------2----|-3----5----|-8----5----|-3-----------------------|
|-2--2--2----|-3----5----|-8----5----|-3-----------------------|
|-0--0--0----|-1----3----|-6----3----|-1-----------------------|


  W          +W           +W           +W
|----------|------------|------------|--------|
|----------|------------|------------|--------|
|----------|------------|------------|--------|
|-2--------|-(2)--------|-(2)--------|-(2)----|
|-2--------|-(2)--------|-(2)--------|-(2)----|
|-0--------|-(0)--------|-(0)--------|-(0)----|
|
| W          +W           +W           +W
|----------|------------|------------|--------|
|----------|------------|------------|--------|
|----------|------------|------------|--------|
|-2--------|-(2)--------|-(2)--------|-(2)----|
|-2--------|-(2)--------|-(2)--------|-(2)----|
|-0--------|-(0)--------|-(0)--------|-(0)----|


    +W           +W           +W           +W      3x
||-------------|------------|------------|---------||
||o------------|------------|------------|--------o||
||-------------|------------|------------|---------||
||--(2)--------|-(2)--------|-(2)--------|-(2)-----||
||o-(2)--------|-(2)--------|-(2)--------|-(2)----o||
||--(0)--------|-(0)--------|-(0)--------|-(0)-----||
|
|   +W           +W           +W           +W      3x
||-------------|------------|------------|---------||
||o------------|------------|------------|--------o||
||-------------|------------|------------|---------||
||--(2)--------|-(2)--------|-(2)--------|-(2)-----||
||o-(2)--------|-(2)--------|-(2)--------|-(2)----o||
||--(0)--------|-(0)--------|-(0)--------|-(0)-----||



Duration Legend
---------------
W - whole; H - half; Q - quarter; E - 8th; S - 16th; T - 32nd; X - 64th; a - acciaccatura
+ - note tied to previous; . - note dotted; .. - note double dotted
Uncapitalized letters represent notes that are staccato (1/2 duration)
Irregular groupings are notated above the duration line
Duration letters will always appear directly above the note/fret number it represents the
duration for.  Duration letters with no fret number below them represent rests.  Multi-
bar rests are notated in the form Wxn, where n is the number of bars to rest for.  Low
melody durations appear below the staff

Tablature Legend
----------------
 h   - hammer-on
 p   - pull-off
 b   - bend
 pb  - pre-bend
 r   - bend release (if no number after the r, then release immediately)
 /\  - slide into or out of (from/to "nowhere")
 s   - legato slide
 S   - shift slide
 - natural harmonic
[n]  - artificial harmonic
n(n) - tapped harmonic
 ~   - vibrato
 tr  - trill
 T   - tap
 TP  - trem. picking
 PM  - palm muting
\n/  - tremolo bar dip; n = amount to dip
 \n  - tremolo bar down
 n/  - tremolo bar up
/n\  - tremolo bar inverted dip
 =   - hold bend; also acts as connecting device for hammers/pulls
 <> - volume swell (louder/softer)
 x   - on rhythm slash represents muted slash
 o   - on rhythm slash represents single note slash

Misc Legend
-----------
 |  - bar
||  - double bar
||o - repeat start
o|| - repeat end
*|  - double bar (ending)
 :  - bar (freetime)
 $  - Segno
 &  - Coda
Tempo markers -  = BPM(8/16=s8/s16), where s8 = swing 8ths, s16 = swing 16ths

comments
print report bad tab
3 comments total.
+2 reply
rongold360 wrote on November 4 2009, 10:42 pm

bloody awsome

0 reply
izzeeeh wrote on September 17 2012, 08:34 am

Tuning? C#?

0 reply
skull_king wrote on October 3 2013, 10:32 am

I don't get why anyone would downvote this comment

I want to post or [tab]
guest
You may want to rate the tab now too:
select rating
Please do not post tabs as comments. Select "correction" instead!