Oops, an error
Loading. Please wait.

Farewell To Arms Tab

ver1
ver1

Intro

Whole song

More versions @911Tabs.com
14,646 views 27 this week
6 commentsread comments
1 2 3 4 5
excellent!
x 7
add to favorites launch autoscroll
font size
0
reset
Autoscroll
+/-
esc
set tempo
stop
Contributor
WARNING: You are trying to view
                                    content from Ultimate-Guitar.com
                                    in an unauthorized application,
                                    which is prohibited.

                                    Please use an official Ultimate
                                    Guitar Tabs application for iPhone,
                                    iPad or Android to access legitimate
                                    chords, guitar, bass, and drum tabs
                                    from Ultimate-Guitar.com database.

                                    Type "ultimate guitar tabs" in Apple
                                    App Store's or Android Market's
                                    search to find the application.
I did not tab this out. It is taken from the guitar pro tab by Darklighter. This is so 
everyone who doesn't have a guitar pro tab can still get a good tab of this. This is 
for one guitar but if there is a harmony I will show it.

I haven't included palm mutes because my computer always screws them up when they do. 
can probably figure it out from the song when they are used.


It is in Drop C tuning.

Intro (clean):
|---5----------------5----------------5---------------------|
|-------6---5---6--------6---5---6--------6---5---6------8--|
|-3---3---3---3---------------------0---0---0---0-----------|
|------------------0---0---0---0---------------------7------|
|-----------------------------------------------------------|
|-----------------------------------------------------------|

Verse 1 (clean):
|-----------------------------------------------------------------|
|-----------------------------------------------------------------|
|-----------------------------------------------------------------|
|---0-----0-----0---0-----0-----0---0-----0-----0-----0-------0---|
|-----0-----0---------1-----1---------0-----0-------5---5---3---3-|
|-0-----0-----0---0-----0-----0---0-----0-----0---5-------3-------|

|---------------------------------------------------------------------------------|
|---------------------------------------------------------------------------------|
|---------------------------------------------------------------------------------|
|---0-----0-----0---0-----0-----0---0-----0-----0-----0-------0-------0-------0---|
|-----0-----0---------1-----1---------0-----0-------5---5---3---3---1---1---3---3-|
|-0-----0-----0---0-----0-----0---0-----0-----0---6-------5-------3-------1-------|

|-----------------------------------------------------------------|
|-----------------------------------------------------------------|
|-----------------------------------------------------------------|
|---0-----0-----0---0-----0-----0---0-----0-----0-----0-------0---|
|-----0-----0---------1-----1---------0-----0-------5---5---3---3-|
|-0-----0-----0---0-----0-----0---0-----0-----0---5-------3-------|

|---------------------------------------------------------------------------------|
|---------------------------------------------------------------------------------|
|---------------------------------------------------------------------------------|
|---0-----0-----0---0-----0-----0---0-----0-----0-----0-------0-------0-------0---|
|-----0-----0---------1-----1---------0-----0-------5---5---3---3---1---1---3---3-|
|-0-----0-----0---0-----0-----0---0-----0-----0---6-------5-------3-------1-------|

|-----------------------------------------------------------------|
|-----------------------------------------------------------------|
|-------------------------------------------------------------5---|
|-8-----8-----8-----8-----8---5---7-----7-----7-----7-----7-------| x2
|---5-----5-----5-----5-----5---5---5-----5-----5-----5-----5---5-|
|-----0-----0-----0-----0-------------0-----0-----0-----0---------|

|-----------------------------------------------------------------|
|-----------------------------------------------------------------|
|-----------------------------------------------------------------|
|-8-----8-----8-----8-----8---5---7-----7-----7---5-----5-----5---|
|---5-----5-----5-----5-----5---5---5-----5-----5---3-----3-----3-|
|-----0-----0-----0-----0-------------0-----0---------0-----0-----|

|-----------------------------------------------------------------|
|-----------------------------------------------------------------|
|-----------------------------------------------------------------|
|-3-----3-----3---1-----1-----1---0-----0-----0---0-----0-----0---|
|---1-----1-----1---1-----1-----1---1-----1-----1---1-----1-----1-|
|-----0-----0---------0-----0---------0-----0---------0-----0-----|

|---------------------------------|
|---------------------------------|
|---------------------------------|
|-0-----0-----0---0-----0-----0---|
|---1-----1-----1---1-----1-----1-|
|-----0-----0---------0-----0-----|

Repeat all of verse 1 and then:

Main Riff (distorted):
Guitar 1
|----------------------------------------------------------------------|
|----------------------------------------------------------------------|
|----------------------------------------------------------------------|
|----------------------------------------------------------------------|
|-0-1-0--0-0-0-0-1-0--0-0-0-0-1-0--0-0-0-0-00-\8-8-8-8-7-7-7-7-6-6-6-6-|
|-0-1-0--0-0-0-0-1-0--0-0-0-0-1-0--0-0-0-0-00--------------------------|
|
|Guitar 2
|----------------------------------------------------------------------| x2
|----------------------------------------------------------------------|
|----------------------------------------------------------------------|
|-0-------------------------------------------\7-7-7-7-6-6-6-6-5-5-5-5-|
|-0--------------------------------------------------------------------|
|-0--------------------------------------------------------------------|

Guitar 1
|----------------------------------------------------------------------|
|----------------------------------------------------------------------|
|----------------------------------------------------------------------|
|----------------------------------------------------------------------|
|-0-1-0--0-0-0-0-1-0--0-0-0-0-1-0--0-0-0-0-00-\8-8-8-8-7-7-7-7-6-6-6-6-|
|-0-1-0--0-0-0-0-1-0--0-0-0-0-1-0--0-0-0-0-00--------------------------|
|
|Guitar 2
|----------------------------------------------------------------------| x4
|----------------------------------------------------------------------|
|----------------------------------------------------------------------|
|---------------------------------------------\7-7-7-7-6-6-6-6-5-5-5-5-|
|-0-1-0--0-0-0-0-1-0--0-0-0-0-1-0--0-0-0-0-00--------------------------|
|-0-1-0--0-0-0-0-1-0--0-0-0-0-1-0--0-0-0-0-00--------------------------|

Pre-chorus (clean):
|-----------------------------------------------------------------|
|-----------------------------------------------------------------|
|-------------------------------------------------------------5---|
|-8-----8-----8-----8-----8---5---7-----7-----7-----7-----7-------|
|---5-----5-----5-----5-----5---5---5-----5-----5-----5-----5---5-|
|-----0-----0-----0-----0-------------0-----0-----0-----0---------|

|-----------------------------------------------------------------|
|-----------------------------------------------------------------|
|---------------------------------------------------7-7-7-7-7-7-7-|
|-8-----8-----8-----8-----8---5---7-----7-----7-------------------|
|---5-----5-----5-----5-----5---5---5-----5-----5---5-5-5-5-5-5-5-|
|-----0-----0-----0-----0-------------0-----0-----0---------------|

Chorus (distorted):
|--------------------|
|-10-8-------------8-|
|------10-9-7-9-10---|x6
|--------------------|
|--------------------|
|--------------------|

|----------------------------------------------|
|-10-11-10-11-10-11-10-11-10-11-10-8-10-8-10---|
|--------------------------------------------8-|
|----------------------------------------------|
|----------------------------------------------|
|----------------------------------------------|

|--------------------|
|-10-8-------------8-|
|------10-9-7-9-10---|x6
|--------------------|
|--------------------|
|--------------------|

|-------------------------------------------------|
|-10-11-10-11-10-11-10-11-10-11-10-11-10-11-10-11-|
|-14-14-14-14-14-14-14-14-14-14-14-14-14-14-14-14-|
|-------------------------------------------------|
|-------------------------------------------------|
|-------------------------------------------------|

Verse 2:
Guitar 1
|----------------------------------------------------------------------|
|----------------------------------------------------------------------|
|----------------------------------------------------------------------|
|----------------------------------------------------------------------|
|-0-1-0--0-0-0-0-1-0--0-0-0-0-1-0--0-0-0-0-00-\8-8-8-8-7-7-7-7-6-6-6-6-|
|-0-1-0--0-0-0-0-1-0--0-0-0-0-1-0--0-0-0-0-00--------------------------|
|
|Guitar 2
|----------------------------------------------------------------------|
|----------------------------------------------------------------------|
|----------------------------------------------------------------------|
|-0-------------------------------------------\7-7-7-7-6-6-6-6-5-5-5-5-|
|-0--------------------------------------------------------------------|
|-0--------------------------------------------------------------------|

Guitar 1
|----------------------------------------------------------------------|
|----------------------------------------------------------------------|
|----------------------------------------------------------------------|
|----------------------------------------------------------------------|
|-0-1-0--0-0-0-0-1-0--0-0-0-0-1-0--0-0-0-0-00-\8-8-8-8-7-7-7-7-6-6-6-6-|
|-0-1-0--0-0-0-0-1-0--0-0-0-0-1-0--0-0-0-0-00--------------------------|
|
|Guitar 2
|----------------------------------------------------------------------| x3
|----------------------------------------------------------------------|
|----------------------------------------------------------------------|
|---------------------------------------------\7-7-7-7-6-6-6-6-5-5-5-5-|
|-0-1-0--0-0-0-0-1-0--0-0-0-0-1-0--0-0-0-0-00--------------------------|
|-0-1-0--0-0-0-0-1-0--0-0-0-0-1-0--0-0-0-0-00--------------------------|


|---------------------------------|
|---------------------------------|
|---------------------------------|
|---------------------------------| x4
|---------------------------------|
|-3-2-1-2-1-3-2-3-2-1-2-1-0-1-0-1-|

|---------------------------------|
|---------------------------------|
|---------------------------------|
|---------------------------------| x2
|-8-7-6-7-6-8-7-8-7-6-7-6-5-6-5-6-|
|---------------------------------|

|---------------------------------|
|---------------------------------|
|---------------------------------|
|-7-6-5-6-5-7-6-7-6-5-6-5-4-5-4-5-| x2
|---------------------------------|
|---------------------------------|

Pre-chorus (clean):
|-5-------------------3-------3---5-------------------------------|
|-----6---5---6---6-------6-----------6---5---6---6---8---6---8---|
|---3---3---3---3---3---3---3---3---------------------------------|
|-----------------------------------0---0---0---0---0---0---0---0-|
|-----------------------------------------------------------------|
|-----------------------------------------------------------------|

|-5-------------------------------5---6---5-------------|
|-----6---5---6---6---8---6---8---------------8---8--6--|
|---0---0---0---0---0---0---0---0-----------------------|
|-----------------------------------7---7---7---7-------|
|-------------------------------------------------------|
|-------------------------------------------------------|

Chorus (distorted):
|--------------------|
|-10-8-------------8-|
|------10-9-7-9-10---|x6
|--------------------|
|--------------------|
|--------------------|

|----------------------------------------------|
|-10-11-10-11-10-11-10-11-10-11-10-8-10-8-10---|
|--------------------------------------------8-|
|----------------------------------------------|
|----------------------------------------------|
|----------------------------------------------|

|--------------------|
|-10-8-------------8-|
|------10-9-7-9-10---|x6
|--------------------|
|--------------------|
|--------------------|

|-------------------------------------------------|
|-10-11-10-11-10-11-10-11-10-11-10-11-10-11-10-11-|
|-14-14-14-14-14-14-14-14-14-14-14-14-14-14-14-14-|
|-------------------------------------------------|
|-------------------------------------------------|
|-------------------------------------------------|

Bridge:
|----------------------------------|
|----------------------------------|
|----------------------------------|
|-0--------------------------------|
|-0----ring out for a long time----|
|-0--------------------------------|

|----------------------------------------------------------------------|
|----------------------------------------------------------------------|
|----------------------------------------------------------------------|
|----------------------------------------------------------------------| x4
|----------------------------------------------------------------------|
|-12-10-12-0-12-10-12-10-12-0-12-10-12-10-12-0-12-10-12-10-12-13-12-10-|

|-------------------------------------------------------------------|
|-------------------------------------------------------------------|
|-------------------------------------------------------------------|
|-------------------------------------------------------------------| x2
|-12-10-12--12-10-12-10-12--12-10-12-10-12--12-10-12-10-12-13-12-10-|
|-12-10-12--12-10-12-10-12--12-10-12-10-12--12-10-12-10-12-13-12-10-|

|----------------------------------------------------------------------|
|----------------------------------------------------------------------|
|----------------------------------------------------------------------|
|----------------------------------------------------------------------| x2
|----------------------------------------------------------------------|
|-12-10-12-0-12-10-12-10-12-0-12-10-12-10-12-0-12-10-12-10-12-13-12-10-|

|----------------------------------------------------------------------|
|----------------------------------------------------------------------|
|----------------------------------------------------------------------|
|----------------------------------------------------------------------|
|----------------------------------------------------------------------|
|-15-14-15-0-15-14-15-14-15-0-15-14-15-14-15-0-15-14-15-14-15-17-15-14-|

|----------------------------------------------------------------------|
|----------------------------------------------------------------------|
|----------------------------------------------------------------------|
|----------------------------------------------------13-13-13-13-13-13-|
|-12-10-12---12-10-12-10-12---12-10-12-10-12---12-10-------------------|
|----------0----------------0----------------0-------------------------|

|--------------------------------------------------------------------------------|
|------------------------------------------------------------------------------6-|
|--------------------------------------------------------------5-7-8-----5-7-8---|
|----------------------------------\8--7--7--------------5-7-8-------7-8---------| x2
|-3--------------5--------6--------\6--5--5--------------------------------------|
|-3--0-0-0-0-0-0-5--0-0-0-6--0-0-0-----------0-0-0-0-0-0-------------------------|

|----------------------------------------------------------------------|
|----------------------------------------------------------------------|
|----------------------------------------------------------------------|
|----------------------------------------------------------------------|
|----------------------------------------------------------------------|
|-12-10-12-0-12-10-12-10-12-0-12-10-12-10-12-0-12-10-12-10-12-13-12-10-|

|----------------------------------------------------------------------|
|----------------------------------------------------------------------|
|----------------------------------------------------------------------|
|-12-10-12-0-12-10-12-10-12-0-12-10-12-10-12-0-12-10-12-10-12-13-12-10-|
|----------------------------------------------------------------------|
|----------------------------------------------------------------------|

|----------------------------------------------------------------------|
|----------------------------------------------------------------------|
|----------------------------------------------------------------------|
|-15-14-15-0-15-14-15-14-15-0-15-14-15-14-15-0-15-14-15-14-15-17-15-14-|
|----------------------------------------------------------------------|
|----------------------------------------------------------------------|

|----------------------------------------------------------------------|
|----------------------------------------------------16-16-16-16-16-16-|
|----------------------------------------------------------------------|
|-19-17-19-0-19-17-19-17-19-0-19-17-19-17-19-0-19-17-------------------|
|----------------------------------------------------------------------|
|----------------------------------------------------------------------|

|--------------------------------------------------------------------------------|
|------------------------------------------------------------------------------6-|
|--------------------------------------------------------------5-7-8-----5-7-8---|
|----------------------------------\8--7--7--------------5-7-8-------7-8---------| x2
|-3--------------5--------6--------\6--5--5--------------------------------------|
|-3--0-0-0-0-0-0-5--0-0-0-6--0-0-0-----------0-0-0-0-0-0-------------------------|

Solo: (Most of the solo has a triplet feel)
|-------------------------------------------------------------------------|
|-13b--13b-13-13b-13-13b-13-13b-13-13b-13-13b-13-13b-13-13b-13-13b-13-13b-|
|-12---12-----12-----12-----12-----10-----10-----10------9------9------9--|
|-------------------------------------------------------------------------|
|-------------------------------------------------------------------------|
|-------------------------------------------------------------------------|

|----------------------------------------------------------10b--13--15--|
|-13--------------------------------------------------------------------|
|----9-7h9p7-5-7-9\10-9h10p9-7-9-10\12-10h12p10-9-10-12\14--------------|
|-----------------------------------------------------------------------|
|-----------------------------------------------------------------------|
|-----------------------------------------------------------------------|

|-15b--15b-15b-15b-15b-15b-15b-15b-15b-15b-15b-15br--|
|----------------------------------------------------|
|----------------------------------------------------|
|----------------------------------------------------|
|----------------------------------------------------|
|----------------------------------------------------|

|-15-15-13-13-12-12-12-12-13-12-17p13----13-------------------------|
|-------------------------------------15----15-13-------------------|
|-------------------------------------------------15p14-12-14-12----|
|----------------------------------------------------------------15-|
|-------------------------------------------------------------------|
|-------------------------------------------------------------------|

|-------------------ph-------22p18----22p18----22p18----22p18----22p18----|
|-------------------14bv-----------20-------20-------20-------20-------20-|
|-------14-------14-------------------------------------------------------|
|-12-15----14-15----------------------------------------------------------|
|-------------------------------------------------------------------------|
|-------------------------------------------------------------------------|

|-22p18----22p18----22p18----22p18----22p18----22-20-18-20-|
|-------20-------20-------20-------20-------20-------------|
|----------------------------------------------------------|
|----------------------------------------------------------|
|----------------------------------------------------------|
|----------------------------------------------------------|

|-18----18-17----17-15----15-13----13-10--10-10-10-10-10-10-10-10-10-10-10-|
|----15-------15-------15-------15----13b-15-15-15-15-15-15-15-15-15-15-15-|
|--------------------------------------------------------------------------|
|--------------------------------------------------------------------------|
|--------------------------------------------------------------------------|
|--------------------------------------------------------------------------|

|-10---10--10--10--13-10--------13-10---10--10--10--13-------------13-|
|-15b--15b-15b-15b----15b---15b----15b--15b-15b-15b----15b--r--15b----|
|---------------------------------------------------------------------|
|---------------------------------------------------------------------|
|---------------------------------------------------------------------|
|---------------------------------------------------------------------|

|-17-15-------17-17-15-------17-17-15-------17-17-15-------|
|-------18-17----------18-17----------18-17----------18-17-|
|----------------------------------------------------------|
|----------------------------------------------------------|
|----------------------------------------------------------|
|----------------------------------------------------------|

|-22-22-20-------22-22-20-------24-24-22-------24-24-24--ph---------------|
|----------18-17----------18-17----------18-17-----------13-whammy dive---|
|-------------------------------------------------------------------------|
|-------------------------------------------------------------------------|
|-------------------------------------------------------------------------|
|-------------------------------------------------------------------------|

Rhythm behind solo:
|-----------------------------------------------|
|-----------------------------------------------|
|--------------------10-10-10-9-9-9-5-5-5-5-5-5-|
|-----------------------------------------------|
|-3--3-3--3--3-3-3-3--8--8--8-7-7-7-5-5-5-3-3-3-|
|-3--3-3--3--3-3-3-3----------------------------|

|-----------------------------------------------|
|-----------------------------------------------|
|--------------------10-10-10-9-9-9-5-5-5-5-5-5-|
|-5--5-5--5--5-5-5-5----------------------------|
|-3--3-3--3--3-3-3-3--8--8--8-7-7-7-5-5-5-3-3-3-|
|-----------------------------------------------|

|-----------------------------------------------|
|-----------------------------------------------|
|--------------------10-10-10-9-9-9-5-5-5-5-5-5-|
|-7--7-7--7--7-7-7-7----------------------------|
|-5--5-5--5--5-5-5-5--8--8--8-7-7-7-5-5-5-3-3-3-|
|-----------------------------------------------|

|-----------------------------------------------|
|-----------------------------------------------|
|--------------------10-10-10-9-9-9-5-5-5-5-5-5-|
|-----------------------------------------------|
|-7--7-7--7--7-7-7-7--8--8--8-7-7-7-5-5-5-3-3-3-|
|-7--7-7--7--7-7-7-7----------------------------|

|-----------------------------------------------|
|-----------------------------------------------|
|--------------------10-10-10-9-9-9-5-5-5-5-5-5-|
|-----------------------------------------------|
|-8--8-8--8--8-8-8-8--8--8--8-7-7-7-5-5-5-3-3-3-|
|-8--8-8--8--8-8-8-8----------------------------|

|-----------------------------------------------|
|-----------------------------------------------|
|--------------------10-10-10-9-9-9-5-5-5-5-5-5-|
|-----------------------------------------------|
|-0--0-0--0--0-0-0-0--8--8--8-7-7-7-5-5-5-3-3-3-|
|-0--0-0--0--0-0-0-0----------------------------|

|-----------------------------------------------|
|-----------------------------------------------|
|--------------------10-10-10-9-9-9-5-5-5-5-5-5-|
|-----------------------------------------------|
|-5--5-5--5--5-5-5-5--8--8--8-7-7-7-5-5-5-3-3-3-|
|-5--5-5--5--5-5-5-5----------------------------|

|-----------------------------------------------|
|-----------------------------------------------|
|--------------------10-10-10-9-9-9-5-5-5-5-5-5-|
|-----------------------------------------------|
|-7--7-7--7--7-7-7-7--8--8--8-7-7-7-5-5-5-3-3-3-|
|-7--7-7--7--7-7-7-7----------------------------|

Under whammy dive at the end:
|------------------------------------------------------------|
|------------------------------------------------------------|
|------------------------------------------------------------|
|-7--------------7--------------/10--8--5--7--------------7--|
|-5--------------5--------------/-8--6--3--5--------------5--|
|----0-0-0-0-0-0----0-0-0-0-0-0---------------0-0-0-0-0-0----|

Both guitars:
|------------------------------------------|
|------------------------------------------|
|------------------------------------------|
|-------------/10--8--5--7--------------7--| x2
|-------------/-8--6--3--5--------------5--|
|-0-0-0-0-0-0---------------0-0-0-0-0-0----|

|----------------------------------------------------------|
|----------------------------------------------------------|
|----------------------------------------/10-8----/10-8----|
|-------------/10--8--5------------------------10-------10-|
|-------------/-8--6--3--/8-6----/8-6----------------------|
|-0-0-0-0-0-0-----------------10------10-------------------|

|---------------------------|
|---------------------------|
|----------nh..............-|
|-8--8--8--5-5-5-5-5-5-5-5--| x8
|-6--6--6-------------------|
|---------------------------|

Final verse:

|--------------------------------------------------|
|--------------------------------------------------|
|--------------------------------------------------|
|--------------------------------------------------|
|-0--3--5/6--5--3--0-0-0-0-0-0-0-0-0-0-0-0-0-0-0-0-|
|-0--3--5/6--5--3--0-0-0-0-0-0-0-0-0-0-0-0-0-0-0-0-|

|--------------------------------------------------|
|--------------------------------------------------|
|--------------------------------------------------|
|--------------------------------------------------|
|-0--3--5/6--5--3--1-1-1-1-1-1-1-1-1-1-1-1-1-1-1-1-|
|-0--3--5/6--5--3--1-1-1-1-1-1-1-1-1-1-1-1-1-1-1-1-|

|------------------------------------------------------------------|
|------------------------------------------------------------------|
|------------------------------------------------------------------|
|------------------------------------------------------------------|
|-0--3--5/6--5--3--10-10-10-10-10-10-10-10-10-10-10-10-10-10-10-10-|
|-0--3--5/6--5--3--10-10-10-10-10-10-10-10-10-10-10-10-10-10-10-10-|

|--------------------------------------------------|
|--------------------------------------------------|
|--------------------------------------------------|
|--------------------------------------------------|
|-0--3--5/6--5--3--6-6-6-6-6-6-6-6-6-6-6-6-6-6-6-6-|
|-0--3--5/6--5--3--6-6-6-6-6-6-6-6-6-6-6-6-6-6-6-6-|

|---------------------------|
|---------------------------|
|----------nh..............-|
|-8--8--8--5-5-5-5-5-5-5-5--| x4
|-6--6--6-------------------|
|---------------------------|

|--------------------------------------------------|
|--------------------------------------------------|
|--------------------------------------------------|
|--------------------------------------------------|
|-0--3--5/6--5--3--0-0-0-0-0-0-0-0-0-0-0-0-0-0-0-0-|
|-0--3--5/6--5--3--0-0-0-0-0-0-0-0-0-0-0-0-0-0-0-0-|

|--------------------------------------------------|
|--------------------------------------------------|
|--------------------------------------------------|
|--------------------------------------------------|
|-0--3--5/6--5--3--1-1-1-1-1-1-1-1-1-1-1-1-1-1-1-1-|
|-0--3--5/6--5--3--1-1-1-1-1-1-1-1-1-1-1-1-1-1-1-1-|

|------------------------------------------------------------------|
|------------------------------------------------------------------|
|------------------------------------------------------------------|
|------------------------------------------------------------------|
|-0--3--5/6--5--3--10-10-10-10-10-10-10-10-10-10-10-10-10-10-10-10-|
|-0--3--5/6--5--3--10-10-10-10-10-10-10-10-10-10-10-10-10-10-10-10-|

|--------------------------------------------------|
|--------------------------------------------------|
|--------------------------------------------------|
|--------------------------------------------------|
|-0--3--5/6--5--3--6-6-6-6-6-6-6-6-6-6-6-6-6-6-6-6-|
|-0--3--5/6--5--3--6-6-6-6-6-6-6-6-6-6-6-6-6-6-6-6-|

|--------------------------|
|-9--9--9------------------|
|--------------------------|
|-6--6--6------------------| x4
|----------0-0-0-0-0-0-0-0-|
|----------0-0-0-0-0-0-0-0-|

|--------------------------|
|--------------------------|
|--------------------------|
|--------------------------| x4
|-6--6--6--0-0-0-0-0-0-0-0-|
|-6--6--6--0-0-0-0-0-0-0-0-|

|-------------------------|
|-------------------------|
|-------------------------|
|-------------------------|
|-6--6--6--0-0--0-0--0-0--|
|-6--6--6--0-0--0-0--0-0--|

|--------------------------|
|--------------------------|
|--------------------------|
|--------------------------|
|-6--6--6--0-0-0-0-0-0-0-0-|
|-6--6--6--0-0-0-0-0-0-0-0-|

|-------------------------|
|-------------------------|
|-------------------------|
|-------------------------|
|-6--6--6--0-0--0-0--0-0--|
|-6--6--6--0-0--0-0--0-0--|

|--------------------------|
|--------------------------|
|--------------------------|
|--------------------------|
|-6--6--6--0-0-0-0-0-0-0-0-|
|-6--6--6--0-0-0-0-0-0-0-0-|

|-------------------------|
|-------------------------|
|-------------------------|
|-------------------------|
|-6--6--6--0-0--0-0--0-0--|
|-6--6--6--0-0--0-0--0-0--|

|--------------------------|
|--------------------------|
|--------------------------|
|--------------------------|
|-6--6--6--0-0-0-0-0-0-0-0-|
|-6--6--6--0-0-0-0-0-0-0-0-|

|-------------------------|
|-------------------------|
|-------------------------|
|-------------------------|
|-6--6--6--0-0--0-0--0-0--|
|-6--6--6--0-0--0-0--0-0--|

|-------------------------|
|-------------------------|
|-------------------------|
|-------------------------|
|-6--6--6--x/-------------|
|-6--6--6--x/-pickslide---|

Outro: (gradually slow the tempo throughout)
|--------------------------------------------------------------------------|
|--------------------------------------------------------------------------|
|--------------------------------------------------------------------------|
|-10-10-10-----------------------------------------------5--5--5-----------|
|--8--8--8--0--0--0--7--7--7--0--0--0--5--5--5--0--0--0--3--3--3--0--0--0--|
|--8--8--8--0--0--0--7--7--7--0--0--0--5--5--5--0--0--0--3--3--3--0--0--0--|

|--------------------------------------------------------------------------|
|--------------------------------------------------------------------------|
|--------------------------------------------------------------------------|
|-10-10-10-----------------------------------------------5--5--5-----------|
|--8--8--8--0--0--0--7--7--7--0--0--0--5--5--5--0--0--0--3--3--3--0--0--0--|
|--8--8--8--0--0--0--7--7--7--0--0--0--5--5--5--0--0--0--3--3--3--0--0--0--|

|--------------------------------------------------------------------------|
|--------------------------------------------------------------------------|
|--------------------------------------------------------------------------|
|-14-14-14----------12-12-12----------12-12-12----------12-12-12-----------|
|-10-10-10--0--0--0--8--8--8--0--0--0--8--8--8--0--0--0--8--8--8--0--0--0--|
|-10-10-10--0--0--0--8--8--8--0--0--0--8--8--8--0--0--0--8--8--8--0--0--0--|

|-------------------|
|-------------------|
|-------------------|
|-12----------------|
|--8----------------|
|--8--let ring------|

Clean (very slow tempo):
|---------------------------------------|
|---------------------------------------|
|---------------------------------------|
|---0-----0-----0---0-----0-----0--0----|
|-----0-----0---------1-----1------0----|
|-0-----0-----0---0-----0-----0----0----|


legend:
\ = slide up
/ = slide down
h = hammer on
p = pull off
ph = pinch harmonic
nh = natural harmonic
b = bend
r = release
v = vibrato
6 comments total. Showing first comments.
0 reply
stumtk wrote on November 11 2008, 02:25 pm

I havent read through or tried the tab but Machine Head doesnt tune higher than C# Standard. I think they even said that so this should be in Drop B i think

0 reply
Warlock2019 wrote on November 16 2008, 04:39 am

Burn my Eyes and The Blackening are Drop B 450c (which is halfway between drop b and drop c)

0 reply
GuitarHero_jp wrote on January 4 2009, 09:22 am

This is in drop B but the tab is pretty good! 4*

I want to post or [tab]
guest
You may want to rate the tab now too:
select rating
Please do not post tabs as comments. Select "correction" instead!