Oops, an error
Loading. Please wait.

Now I Lay Thee Down Bass Tab

ver1
ver1

Whole song

Interactive

More versions @911Tabs.com
9,300 views 39 this week
8 commentsread comments
1 2 3 4 5
excellent!
x 5
Autoscroll
+/-
esc
set tempo
stop
Contributor
Hey! There's an official Ultimate Guitar app which is ideal
for learning songs when you're away from computer. Get the app
WARNING: You are trying to view
                                    content from Ultimate-Guitar.com
                                    in an unauthorized application,
                                    which is prohibited.

                                    Please use an official Ultimate
                                    Guitar Tabs application for iPhone,
                                    iPad or Android to access legitimate
                                    chords, guitar, bass, and drum tabs
                                    from Ultimate-Guitar.com database.

                                    Type "ultimate guitar tabs" in Apple
                                    App Store's or Android Market's
                                    search to find the application.
                              Now I Lay Thee Down                               


                                                                    Machine Head
Adam



E ||-------|-------|-------|-------|-------|-------||--------|-------|-------|
B ||-------|-------|-------|-------|-------|-------||*-------|-------|-------|
F#||-------|-------|-------|-------|-------|-------||*-------|-------|-------|
B ||-------|-------|-------|-------|-------|-------||--------|-------|-------|


                            H        E  E     E   E  E  E  E  E   
--------||-------|-------|-----------------|---------------------|
-------*||-------|-------|-----------------|---------------------|
-------*||-------|-------|-----------------|--3S--6--6--6--6--6--|
--------||-------|-------|--------------0--|---------------------|


    E  Q    Q    E     E  Q    Q    E     E  Q    Q    E     E  E  E  E  E  E   
|-------------------|------------------|------------------|--------------------|
|*------------------|------------------|------------------|--------------------|
|*------------------|------------------|------------------|--------------------|
|---8--0----0----0--|--7--0----0----0--|--5--0----0----0--|--3--0--2--0--3--0--|


  E  Q    Q    E     E  Q    Q    E     E  Q    Q    E   
------------------|------------------|------------------|
------------------|------------------|------------------|
------------------|------------------|------------------|
--8--0----0----0--|--7--0----0----0--|--5--0----0----0--|


  E   E  E  E  E  E       E  Q    Q    E     E  Q    Q    E   
----------------------||------------------|------------------|
---------------------*||------------------|------------------|
--3S--6--6--6--6--6--*||-----6----6----6--|-----6----6----6--|
----------------------||--0---------------|--0---------------|


  E  Q    Q    E     E  E  E  E  E  E       E  Q    Q    E     E  Q    Q    E   
------------------|--------------------||-------------------|------------------|
------------------|--------------------||*------------------|------------------|
-----6----6----6--|-----3--3--3--3--3--||*------------------|------------------|
--0---------------|--0-----------------||---8--0----0----0--|--7--0----0----0--|


  E  Q    Q    E     E  E  E  E  E  E     E  Q    Q    E     E  Q    Q    E   
------------------|--------------------|------------------|------------------|
------------------|--------------------|------------------|------------------|
------------------|--------------------|------------------|------------------|
--5--0----0----0--|--3--0--2--0--3--0--|--8--0----0----0--|--7--0----0----0--|


  E  Q    Q    E     E  E  E  E  E  E       E  Q    Q    E     E  Q    Q    E   
------------------|---------------------||------------------|------------------|
------------------|--------------------*||------------------|------------------|
------------------|--3--6--6--6--6--6--*||-----6----6----6--|-----6----6----6--|
--5--0----0----0--|---------------------||--0---------------|--0---------------|


  E  Q    Q    E     E  E  E  E  E  E        E   E   E   E   E   E   
------------------|--------------------||---14----------14----------|
------------------|--------------------||*------15----------15------|
-----6----6----6--|-----3--3--3--3--3--||*----------17----------17--|
--0---------------|--0-----------------||---------------------------|


   E   E   E   E   E   E      E   E   E   E   E   E   
--14----------14----------|--15----------15----------|
------15----------15------|------15----------15------|
----------17----------17--|----------17----------17--|
--------------------------|--------------------------|


   E   E   E   E   E   E     E  Q    Q    E     E  Q    Q    E   
--14----------14----------|------------------|------------------|
------15----------15------|------------------|------------------|
----------17----------17--|------------------|------------------|
--------------------------|--8--0----0----0--|--7--0----0----0--|


  E  Q    Q    E     E  E  E  E  E  E        E   E   E   E   E   E   
------------------|---------------------||--14----------14----------|
------------------|--------------------*||------15----------15------|
------------------|--------------------*||----------17----------17--|
--5--0----0----0--|--3--0--2--0--3--0---||--------------------------|


   E   E   E   E   E   E      E   E   E   E   E   E   
--14----------14----------|--15----------15----------|
------15----------15------|------15----------15------|
----------17----------17--|----------17----------17--|
--------------------------|--------------------------|


   E   E   E   E   E   E      E   E   E   E   E   E   
--14----------14----------|--------------------------|
------15----------15------|--17--15------17--15------|
----------17----------17--|----------17----------17--|
--------------------------|--------------------------|


   E   E   E   E   E   E     E  Q    Q    E     E  Q    Q    E   
--------------------------|------------------|------------------|
--17--15------17--15------|------------------|------------------|
----------17----------17--|-----6----6----6--|-----6----6----6--|
--------------------------|--0---------------|--0---------------|


  E  Q    Q    E     E  Q    Q    E     E  Q    Q    E     E  Q    Q    E   
------------------|------------------|------------------|------------------|
------------------|------------------|------------------|------------------|
-----6----6----6--|-----3----3----3--|------------------|------------------|
--0---------------|--0---------------|--8--0----0----0--|--7--0----0----0--|


  E  Q    Q    E     E  E  E  E  E  E     E  Q    Q    E     E  Q    Q    E   
------------------|--------------------|------------------|------------------|
------------------|--------------------|------------------|------------------|
------------------|--------------------|------------------|------------------|
--5--0----0----0--|--3--0--2--0--3--0--|--8--0----0----0--|--7--0----0----0--|


  E  Q    Q    E     E  E  E  E  E  E       E  Q    Q    E     E  Q    Q    E   
------------------|--------------------||-------------------|------------------|
------------------|--------------------||*------------------|------------------|
------------------|--3--6--6--6--6--6--||*------------------|------------------|
--5--0----0----0--|--------------------||---8--0----0----0--|--7--0----0----0--|


  E  Q    Q    E     E  E  E  E  E  E     E  Q    Q    E     E  Q    Q    E   
------------------|--------------------|------------------|------------------|
------------------|--------------------|------------------|------------------|
------------------|--------------------|------------------|------------------|
--5--0----0----0--|--3--0--2--0--3--0--|--8--0----0----0--|--7--0----0----0--|


  E  Q    Q    E     E  E  E  E  E  E       E  Q    Q    E     E  Q    Q    E   
------------------|---------------------||------------------|------------------|
------------------|--------------------*||------------------|------------------|
------------------|--3--6--6--6--6--6--*||-----6----6----6--|-----6----6----6--|
--5--0----0----0--|---------------------||--0---------------|--0---------------|


  E  Q    Q    E     E  Q    Q    E        E   E   E   E   E   E   
------------------|------------------||---14----------14----------|
------------------|------------------||*------15----------15------|
-----6----6----6--|-----3----3----3--||*----------17----------17--|
--0---------------|--0---------------||---------------------------|


   E   E   E   E   E   E      E   E   E   E   E   E   
--14----------14----------|--15----------15----------|
------15----------15------|------15----------15------|
----------17----------17--|----------17----------17--|
--------------------------|--------------------------|


   E   E   E   E   E   E     E  Q    Q    E     E  Q    Q    E   
--14----------14----------|------------------|------------------|
------15----------15------|------------------|------------------|
----------17----------17--|------------------|------------------|
--------------------------|--8--0----0----0--|--7--0----0----0--|


  E  Q    Q    E     E  E  E  E  E  E        E   E   E   E   E   E   
------------------|---------------------||--14----------14----------|
------------------|--------------------*||------15----------15------|
------------------|--------------------*||----------17----------17--|
--5--0----0----0--|--3--0--2--0--3--0---||--------------------------|


   E   E   E   E   E   E      E   E   E   E   E   E   
--14----------14----------|--15----------15----------|
------15----------15------|------15----------15------|
----------17----------17--|----------17----------17--|
--------------------------|--------------------------|


   E   E   E   E   E   E      E   E   E   E   E   E   
--14----------14----------|--------------------------|
------15----------15------|--17--15------17--15------|
----------17----------17--|----------17----------17--|
--------------------------|--------------------------|


   E   E   E   E   E   E     E  Q    Q    E     E  Q    Q    E   
--------------------------|------------------|------------------|
--17--15------17--15------|------------------|------------------|
----------17----------17--|-----6----6----6--|-----6----6----6--|
--------------------------|--0---------------|--0---------------|


  E  Q    Q    E     E  E  E  E  E  E       H.              H.            
------------------|--------------------||----------------|---------------|
------------------|--------------------||*---------------|---------------|
-----6----6----6--|-----3--3--3--3-----||*---------------|---------------|
--0---------------|--0-----------------||---0------------|--L------------|


  H.              H.            4x   H.              H.            
---------------|----------------||----------------|---------------|
---------------|---------------*||*---------------|---------------|
---------------|---------------*||*---------------|---------------|
--L------------|--L-------------||---0------------|--L------------|


  H.              H.            3x                   H.            
---------------|----------------||-------|-------|----------------|
---------------|---------------*||-------|-------|----------------|
---------------|---------------*||-------|-------|----------------|
--1------------|--L-------------||-------|-------|--12------------|


  H.                 Q    E  Q.        Q    E  E  E  E     Q    E  Q.      
----------------||------------------|-------------------|-----------------|
----------------||*-----------------|-------------------|-----------------|
----------------||*-----------------|-------6--6--6--6--|-----------------|
--L\------------||---0----7--0------|--0----------------|--0----7--0------|


  Q    E  E  E  E     Q    E  Q.        Q    E  E  E  E     Q    E  Q.      
-------------------|-----------------|-------------------|-----------------|
-------3-----------|-----------------|-------------------|-----------------|
----------6--5--3--|-----------------|-------6--6--6--6--|-----------------|
--0----------------|--0----7--0------|--0----------------|--0----7--0------|


  Q    E    E   E   E        E  E  E  E  E  E     E  E  E  E  E  E   
------------------------||---------------------|--------------------|
-----------------------*||*--------------------|--------------------|
-------8S--10--10--10--*||*--------------------|--------------------|
--0---------------------||---3--1--0--3--1--0--|--4--3--1--3--1--0--|


  E  E  E  E  E  E     E  E  E  E  E  E       E  E  E  E  E  E   
--------------------|---------------------||--------------------|
--------------------|--------------------*||--3--1--0--3--1--0--|
--------------------|--------------------*||--------------------|
--3--1--0--3--1--0--|--4--3--1--3--1--0---||--------------------|


  E  E  E  E  E  E     E  E  E  E  E  E     E  E  E  E  E  E   
--------------------|--------------------|--------------------|
--4--3--1--3--1--0--|--3--1--0--3--1--0--|--4--3--1--3--1--0--|
--------------------|--------------------|--------------------|
--------------------|--------------------|--------------------|


  E  E  E  E  E  E     E  E  E  E  E  E      E   E  E   E   E  E   
--------------------|--------------------|------------------------|
--3--1--0--3--1--0--|--4--3--1--3--1--0--|--15--13--0--15--13--0--|
--------------------|--------------------|------------------------|
--------------------|--------------------|------------------------|


   E   E   E   E   E  E       E  Q    Q    E     H.            
-------------------------||-------------------|---------------|
--16--15--13--15--13--0--||*------------------|---------------|
-------------------------||*------------------|---------------|
-------------------------||---5--5----5----5--|--5------------|


  E  Q    Q    E     H.              E  Q    Q    E     H.            
------------------|---------------|------------------|---------------|
------------------|---------------|------------------|---------------|
------------------|---------------|------------------|---------------|
--5--5----5----5--|--5------------|--5--5----5----5--|--5------------|


  E  Q    Q    E     Q    Q    Q                                        4x
------------------|------------------||--------|-------|-------|--------||
------------------|-----------------*||*-------|-------|-------|-------*||
------------------|-----------------*||*-------|-------|-------|-------*||
--5--5----5----5--|--3----6----2-----||--------|-------|-------|--------||


   E   E   E   E   E   E      E   E   E   E   E   E   
--14----------14----------|--14----------14----------|
------15----------15------|------15----------15------|
----------17----------17--|----------17----------17--|
--------------------------|--------------------------|


   E   E   E   E   E   E      E   E   E   E   E   E     E  Q    Q    E   
--15----------15----------|--14----------14----------|------------------|
------15----------15------|------15----------15------|------------------|
----------17----------17--|----------17----------17--|------------------|
--------------------------|--------------------------|--8--0----0----0--|


  E  Q    Q    E     E  Q    Q    E     E  E  E  E  E  E   
------------------|------------------|--------------------|
------------------|------------------|--------------------|
------------------|------------------|--------------------|
--7--0----0----0--|--5--0----0----0--|--3--0--2--0--3--0--|


   E   E   E   E   E   E      E   E   E   E   E   E   
--14----------14----------|--14----------14----------|
------15----------15------|------15----------15------|
----------17----------17--|----------17----------17--|
--------------------------|--------------------------|


   E   E   E   E   E   E      E   E   E   E   E   E     E  Q    Q    E   
--15----------15----------|--14----------14----------|------------------|
------15----------15------|------15----------15------|------------------|
----------17----------17--|----------17----------17--|------------------|
--------------------------|--------------------------|--8--0----0----0--|


  E  Q    Q    E     E  Q    Q    E     E  E  E  E  E  E   
------------------|------------------|--------------------|
------------------|------------------|--------------------|
------------------|------------------|--------------------|
--7--0----0----0--|--5--0----0----0--|--3--0--2--0--3--0--|


   E   E   E   E   E   E      E   E   E   E   E   E   
--14----------14----------|--14----------14----------|
------15----------15------|------15----------15------|
----------17----------17--|----------17----------17--|
--------------------------|--------------------------|


   E   E   E   E   E   E      E   E   E   E   E   E     E  Q    Q    E   
--15----------15----------|--14----------14----------|------------------|
------15----------15------|------15----------15------|------------------|
----------17----------17--|----------17----------17--|------------------|
--------------------------|--------------------------|--8--0----0----0--|


  E  Q    Q    E     E  Q    Q    E     E  E  E  E  E  E   
------------------|------------------|--------------------|
------------------|------------------|--------------------|
------------------|------------------|--------------------|
--7--0----0----0--|--5--0----0----0--|--3--0--2--0--3--0--|


   E   E   E   E   E   E      E   E   E   E   E   E   
--14----------14----------|--14----------14----------|
------15----------15------|------15----------15------|
----------17----------17--|----------17----------17--|
--------------------------|--------------------------|


   E   E   E   E   E   E      E   E   E   E   E   E   
--15----------15----------|--14----------14----------|
------15----------15------|------15----------15------|
----------17----------17--|----------17----------17--|
--------------------------|--------------------------|


   E   E   E   E   E   E      E   E   E   E   E   E     E  Q    Q    E   
--------------------------|--------------------------|------------------|
--17--15------17--15------|--17--15------17--15------|------------------|
----------17----------17--|----------17----------17--|-----6----6----6--|
--------------------------|--------------------------|--0---------------|


  E  Q    Q    E     E  Q    Q    E     E  E  E  E  E  E     E  Q    Q    E   
------------------|------------------|--------------------|------------------|
------------------|------------------|--------------------|------------------|
-----6----6----6--|-----6----6----6--|-----3--3--3--3-----|------------------|
--0---------------|--0---------------|--0-----------------|--0--1----1----1--|


  E  Q    Q    E     E  Q    Q    E     E  E  E  E  E  E       E  Q    Q    E   
------------------|------------------|--------------------||-------------------|
------------------|------------------|--------------------||*------------------|
------------------|------------------|-----3--3--3--3--3--||*------------------|
--0--1----1----1--|--0--1----1----1--|--0-----------------||---0--0----0----0--|


  E  Q    Q    E     E  Q    Q    E     E  E  E  E  E  E   4x                 
------------------|------------------|---------------------||--------|-------|
------------------|------------------|--------------------*||*-------|-------|
------------------|------------------|--------------------*||*-------|-------|
--0--0----0----0--|--0--0----0----0--|--3--0--2--0--3--0---||--------|-------|


                  E  Q    Q    E     E  Q    Q    E     E  Q    Q    E   
-------|-------|------------------|------------------|------------------|
-------|-------|------------------|------------------|------------------|
-------|-------|------------------|------------------|------------------|
-------|-------|--8--0----0----0--|--7--0----0----0--|--5--0----0----0--|


  E  E  E  E  E  E       H.              H.              H.            
---------------------||---------------|---------------|---------------|
--------------------*||---------------|---------------|---------------|
--------------------*||---------------|---------------|---------------|
--3--0--2--0--3--0---||--8------------|--8------------|--8------------|


  H.              H.              H.              E  Q    Q    E   
---------------|---------------|---------------|------------------|
---------------|---------------|---------------|------------------|
---------------|---------------|---------------|-----6----6----6--|
--7------------|--5------------|--5------------|--0---------------|


  E  Q    Q    E     E  Q    Q    E     E  E  E  E  E  E     E  Q    Q    E   
------------------|------------------|--------------------|------------------|
------------------|------------------|--------------------|------------------|
-----6----6----6--|-----6----6----6--|-----3--3--3--3--3--|------------------|
--0---------------|--0---------------|--0-----------------|--0--1----1----1--|


  E  Q    Q    E     E  Q    Q    E     E  E  E  E  E  E     E  Q    Q    E   
------------------|------------------|--------------------|------------------|
------------------|------------------|--------------------|------------------|
------------------|------------------|-----3--3--3--3--3--|------------------|
--0--1----1----1--|--0--1----1----1--|--0-----------------|--0--0----0----0--|


  E  Q    Q    E     E  Q    Q    E     E  E  E  E  E  E     E  Q    Q    E   
------------------|------------------|--------------------|------------------|
------------------|------------------|--------------------|------------------|
------------------|------------------|--------------------|------------------|
--0--0----0----0--|--0--0----0----0--|--3--0--2--0--3--0--|--0--0----0----0--|


  E  Q    Q    E     E  Q    Q    E     Q    Q    Q      
------------------|------------------|-----------------||
------------------|------------------|-----------------||
------------------|------------------|-----------------||
--0--0----0----0--|--0--0----0----0--|--0--------------||




Duration Legend
---------------
W - whole
H - half
Q - quarter
E - 8th
S - 16th
T - 32nd
X - 64th
. - note dotted
|-n-|  - n-tuplets


Tablature Legend
----------------
L - tied note
x - dead note
g - grace note
(n) - ghost note
> - accentuded note
NH - natural harmonic
AH - artificial harmonic
TH - tapped harmonic
SH - semi harmonic
PH - pitch harmonic
h - hammer on
p - pull off
b - bend
br - bendRelease
pb - preBend
pbr - preBendRelease
brb - bendReleaseBend
\n/ - tremolo bar dip
\n - tremolo bar dive
-/n - tremolo bar Release up
/n\ - tremolo bar inverted dip
/n - tremolo bar return
-\n - tremolo bar Release down
S - shift slide
s - legato slide
/ -  slide into from below or out of upwards
\ -  slide into from above or out of downwards
~ - vibrato
W - wide vibrato
tr - trill
TP - tremolo picking
T - tapping
S - slap
P - pop
< - fade in
^ - brush up
v - brush down
comments
print report bad tab
8 comments total. Showing first comments.
0 reply
von demon wrote on August 24 2007, 11:56 am

Thankyou for tabbing this insanely great song. You Rock! Cheers

0 reply
von demon wrote on August 24 2007, 12:28 pm

can you please also tab 'the dagger' by roadrunner united, bass tab. PLEASE!

you can see Christian Wolbers play it on the album dvd. not that you'll need help...if you decide to tab it, ofcourse.

0 reply
beefofjesusbass wrote on August 26 2007, 10:53 am

nice tab can you tab more songs of the blackening please cos that album is ****ing immense

I want to post or [tab]
guest
You may want to rate the tab now too:
select rating
Please do not post tabs as comments. Select "correction" instead!