Oops, an error
Loading. Please wait.

The Blackening Tab

8,120 views 21 this week
4 commentsread comments
1 2 3 4 5
accurate
x 3
add to favorites launch autoscroll
font size
0
reset
Autoscroll
+/-
esc
set tempo
stop
Contributor
Difficulty
Tuning
advanced
B F# B E G# C#
WARNING: You are trying to view
                                    content from Ultimate-Guitar.com
                                    in an unauthorized application,
                                    which is prohibited.

                                    Please use an official Ultimate
                                    Guitar Tabs application for iPhone,
                                    iPad or Android to access legitimate
                                    chords, guitar, bass, and drum tabs
                                    from Ultimate-Guitar.com database.

                                    Type "ultimate guitar tabs" in Apple
                                    App Store's or Android Market's
                                    search to find the application.
The Blackening - Machine Head
By Osiris12

-These are, by no means, my tabs. Authors are at the bottom.

1. Machine Head - Clenching the Fists of Dissent

accoustic intro
                                                                      x6
|---------------------------------------|
|-6--------6--6--5-----------6--6--5----|
|-------5-----------7-----5-------------|
|-------------------8-------------------|
|-5-------------------------------------|
|---------------------------------------|

clean electric
                                                              x2
|-----------------------------------|
|-6------6--6--5---------6--6--5----|
|-----------------7-----------------|
|-----------------8-----------------|
|-5---------------------------------|
|-----------------------------------|


|-------------------------|
|-5------6--6--5--5-------|
|-------------------------|
|-7---------------7-------|
|-------------------------|
|-------------------------|

distortion on

|----
|----
|----
|-0--
|-0--swell
|-0--

main riff

|-------------------------------------------------------------------------------------|
|-------------------------------------------------------------------------------------|
|--------------------------------------------------------<1>p0------<1>p0-------------|
|--------------------------------------------------------------<1>p0------<1>p0-------|
|-3h5-------------------3h6-------3h6--3h5--------------------------------------------|
|------0-0-0-0-0-0-0-0-------0-0------------0-0-0-0-0-0-------------------------------|
        p.m---------------      p.m----                p.m----------------------------|


|-------------------------------------------------------------------------------|
|------------------------------------------------------------------6-4-3--------|
|------------------------------------------------------------------------5------|
|--------------------------------------------0-0-3-3-3-3-6-5-3------------------|
|-3h5-------------------3h6-------3h6--3h5---------------------6----------------|
|------0-0-0-0-0-0-0-0-------0-0------------------------------------------------|
        p.m---------------        p.m---                 p.m--------------------|

|-------------------------------------------------------------------------------------|
|-------------------------------------------------------------------------------------|
|--------------------------------------------------------<1>p0------<1>p0-------------|
|--------------------------------------------------------------<1>p0------<1>p0-------|
|-3h5-------------------3h6-------3h6--3h5--------------------------------------------|
|------0-0-0-0-0-0-0-0-------0-0------------0-0-0-0-0-0-------------------------------|
        p.m---------------      p.m----                p.m----------------------------|


|--------------------------------------------------------------------------------|
|------------------------------------------------------------------6-4-3---------|
|------------------------------------------------------------------------5-------|
|--------------------------------------------0-0-3-3-3-3-6-5-3-------------x/x---|
|-3h5-------------------3h6-------3h6--3h5---------------------6-----------x/x---|
|------0-0-0-0-0-0-0-0-------0-0-------------------------------------------x/x---|
        p.m---------------       p.m---                 p.m----------------------|
verse

|-------------------------------------------------------------------------------------|
|-------------------------------------------------------------------------------------|
|--------------------------------------------------------<1>p0------<1>p0-------------|
|--------------------------------------------------------------<1>p0------<1>p0-------|
|-3h5-------------------3h6-------3h6--3h5--------------------------------------------|
|------0-0-0-0-0-0-0-0-------0-0------------0-0-0-0-0-0-------------------------------|
        p.m---------------      p.m----                p.m----------------------------|

|------------------------------------------------------------------------------|
|------------------------------------------------------------------6-4-3-------|
|------------------------------------------------------------------------5-----|
|--------------------------------------------0-0-3-3-3-3-6-5-3-----------------|
|-3h5-------------------3h6-------3h6--3h5---------------------6---------------|
|------0-0-0-0-0-0-0-0-------0-0-----------------------------------------------|
        p.m---------------       p.m---                 p.m--------------------|

|-------------------------------------------------------------------------------------|
|-------------------------------------------------------------------------------------|
|--------------------------------------------------------<1>p0------<1>p0-------------|
|--------------------------------------------------------------<1>p0------<1>p0-------|
|-3h5-------------------3h6-------3h6--3h5--------------------------------------------|
|------0-0-0-0-0-0-0-0-------0-0------------0-0-0-0-0-0-------------------------------|
        p.m---------------      p.m----                p.m----------------------------|


|-------------------------------------------------------------|
|-------------------------------------------------------------|
|-------------------------------------------------------------|
|-----------------------(5)----(5)--1--------2\4--3--1--------|
|-3h5----------------------(5)-----1--0--1--2\4--3--1---------|
|------0-0-0-0-0-0-0-0------------1--0--1--2\4--3--1----------|
        p.m---------------------------------------------------|

|-------------------------------------------------------------------------------------|
|-------------------------------------------------------------------------------------|
|--------------------------------------------------------<1>p0------<1>p0-------------|
|--------------------------------------------------------------<1>p0------<1>p0-------|
|-3h5-------------------3h6-------3h6--3h5--------------------------------------------|
|------0-0-0-0-0-0-0-0-------0-0------------0-0-0-0-0-0-------------------------------|
        p.m---------------      p.m----                p.m----------------------------|

|------------------------------------------------------------------------------|
|------------------------------------------------------------------6-4-3-------|
|------------------------------------------------------------------------5-----|
|--------------------------------------------0-0-3-3-3-3-6-5-3-----------------|
|-3h5-------------------3h6-------3h6--3h5---------------------6---------------|
|------0-0-0-0-0-0-0-0-------0-0-----------------------------------------------|
        p.m---------------       p.m---                 p.m--------------------|

|-------------------------------------------------------------------------------------|
|-------------------------------------------------------------------------------------|
|--------------------------------------------------------<1>p0------<1>p0-------------|
|--------------------------------------------------------------<1>p0------<1>p0-------|
|-3h5-------------------3h6-------3h6--3h5--------------------------------------------|
|------0-0-0-0-0-0-0-0-------0-0------------0-0-0-0-0-0-------------------------------|
        p.m---------------      p.m----                p.m----------------------------|


|-------------------------------------------------------------|
|-------------------------------------------------------------|
|-------------------------------------------------------------|
|-----------------------(5)----(5)--1--------2\4--3--1--------|
|-3h5----------------------(5)-----1--0--1--2\4--3--1---------|
|------0-0-0-0-0-0-0-0------------1--0--1--2\4--3--1----------|
        p.m---------------------------------------------------|
                                          x3
|------------------------------|
|------------------------------|
|------------------------------|
|----------5-3p2p0-------------|
|-0--2--------------3--2--5----|
|-0--2-2-2----------3--2--5----|

|-------------------------------------------------------------------------------------|
|-------------------------------------------------------------------------------------|
|-------------------------------------------------------------------------------------|
|----------5-3p2p0--6-6-6-6-6-6-6-6---------------------------------------------------|
|-0--2--------------------------------------------------------------------------------|
|-0--2-2-2----------------------------------------------------------------------------|
                            p.m-------------------------------------------------------|
|-------------------------------------------------------------------------------------|
|-------------------------------------------------------------------------------------|
|--------------------------------------------------------<1>p0------<1>p0-------------|
|--------------------------------------------------------------<1>p0------<1>p0-------|
|-3h5-------------------3h6-------3h6--3h5--------------------------------------------|
|------0-0-0-0-0-0-0-0-------0-0------------0-0-0-0-0-0-------------------------------|
        p.m--------------        p.m---                 p.m---------------------------|


|------------------------------------------------------------------------------|
|------------------------------------------------------------------6-4-3-------|
|------------------------------------------------------------------------------|
|--------------------------------------------0-0-3-3-3-3-6-5-3----------3------|
|-3h5-------------------3h6-------3h6--3h5---------------------6--------3------|
|------0-0-0-0-0-0-0-0-------0-0----------------------------------------3------|
        p.m--------------        p.m---                 p.m--------------------|

|----------------------------------------------------------------------|
|----------------------------------------------------------------------|
|-------------------------------------------------8--8-8-8-8-8-8-8-----|
|-----------------------------6-------------------x--x-x-x-x-x-x-x-----|
|-----------------------------6-------------------6--6-6-6-6-6-6-6-----|
|-3-3-3-3-3-3-3-3-3-3-3-3-3-3-6--6-6-6-6-6-6-6-6-----------------------|
p.m--------------------------    p.m-----------------------------------|

Breakdown

|-------------------------------------------------------|
|-------------------------------------------------------|
|-------------------------------------------------------|
|--------------3\6--5--6---------------3\6--5--8-6------|
|-------------------------------------------------------|
|-0-0-0-0-0-0-------------0-0-0-0-0-0-------------------|
p.m----------                    p.m--------------------|

|-------------------------------------------------------|
|-------------------------------------------------------|
|-------------------------------------------------------|
|--------------3\6--5--6---------------3\6--5--3-1------|
|-------------------------------------------------------|
|-0-0-0-0-0-0-------------0-0-0-0-0-0-------------------|
p.m---------                      p.m-------------------|

|-------------------------------------------------------|
|-------------------------------------------------------|
|-------------------------------------------------------|
|--------------3\6--5--6---------------3\6--5--8-6------|
|-------------------------------------------------------|
|-0-0-0-0-0-0-------------0-0-0-0-0-0-------------------|
p.m----------                    p.m--------------------|

|-------------------------------------------------------|
|-------------------------------------------------------|
|-------------------------------------------------------|
|--------------3\6--5--6---------------3\6--5--3-1------|
|-------------------------------------------------------|
|-0-0-0-0-0-0-------------0-0-0-0-0-0-------------------|
p.m----------                   p.m---------------------|

|-------------------------------------------------|
|-------------------------------------------------|
|-------------------------------------------------|
|-------------------------------------------------|
|-------------1--0--1--------------1--0--3-1------|
|-0-0-0-0-0-0-1--0--1--0-0-0-0-0-0-1--0--3-1------|
p.m----------              p.m--------------------|

|-----------------------------------------------|
|-----------------------------------------------|
|-----------------------------------------------|
|-------------------------<3v>--<2v>---<1v>-----|
|--------------1--0--1--------------------------|
|-0-0-0-0-0-0-1--0--1--0------0------0----------|
p.m---------------------------------------------|

|--------------------------------------------------|
|--------------------------------------------------|
|--------------------------------------------------|
|--------------------------------------------------|
|-------------1--0--1--------------1--0--3-1-------|
|-0-0-0-0-0-0-1--0--1--0-0-0-0-0-0-1--0--3-1-------|
p.m----------               p.m--------------------|

|------------------------------------------------/-----|
|-----------------------------------------------/------|
|------------------------<4v>--<3v>--<2v>---/----------|
| -------------------------------------------0-/-------|
|--------------1--0--1----------------------0/---------|
|-0-0-0-0-0-0-1--0--1--0-----0-----0-------------------|
p.m----------------------------------------------------|

1st solo

|-16-16-15-13----16-16-15-13----16-16-15-13----16-16-15-13----16-16-15-13---------|
|--------------15-------------15--------------15-------------15--------------15---|
|---------------------------------------------------------------------------------|
|---------------------------------------------------------------------------------|
|---------------------------------------------------------------------------------|
|---------------------------------------------------------------------------------|


|-16-16-15-13----16-16-15-13----16-16-15-13----20-22-20-17-18-17-15-17-15------|
|--------------15-------------15-------------15--------------------------------|
|------------------------------------------------------------------------------|
|------------------------------------------------------------------------------|
|------------------------------------------------------------------------------|
|------------------------------------------------------------------------------|


|------------------------------------------------------------------------------|
|-18-20-18-17-18-17-15-17-15---------------------------------------------------|
|-----------------------------17-19-17-15-17-15-14-15-14-----------------------|
|----------------------------------------------------------17-19-17-15-17-15---|
|------------------------------------------------------------------------------|
|------------------------------------------------------------------------------|


|-----------------------------------8\13--10\15--------------------------------|
|--------------------10\15--12\17----------------------------------------------|
|-----------<12>vvv/5----------------------------12h13p12p10-12p10-------------|
|-14-15-14-----------------------------------------------------------12h13-----|
|------------------------------------------------------------------------------|
|------------------------------------------------------------------------------|


|---------------------------------------------------------|
|---------------------------------------------------------|
|-12h13p12p10-<12>\5--------------------------------------|
|----------------------(5)----(5)--1--------2\4--3--1-----|
|-------------------------(5)-----1--0--1--2\4--3--1------|
|--------------------------------1--0--1--2\4--3--1-------|


Verse 2

|-------------------------------------------------------------------------------------|
|-------------------------------------------------------------------------------------|
|--------------------------------------------------------<1>p0------<1>p0-------------|
|--------------------------------------------------------------<1>p0------<1>p0-------|
|-3h5-------------------3h6-------3h6--3h5--------------------------------------------|
|------0-0-0-0-0-0-0-0-------0-0------------0-0-0-0-0-0-------------------------------|
        p.m---------------      p.m----                p.m----------------------------|

|------------------------------------------------------------------------------|
|------------------------------------------------------------------6-4-3-------|
|------------------------------------------------------------------------5-----|
|--------------------------------------------0-0-3-3-3-3-6-5-3-----------------|
|-3h5-------------------3h6-------3h6--3h5---------------------6---------------|
|------0-0-0-0-0-0-0-0-------0-0-----------------------------------------------|
        p.m---------------       p.m---                 p.m--------------------|

|-------------------------------------------------------------------------------------|
|-------------------------------------------------------------------------------------|
|--------------------------------------------------------<1>p0------<1>p0-------------|
|--------------------------------------------------------------<1>p0------<1>p0-------|
|-3h5-------------------3h6-------3h6--3h5--------------------------------------------|
|------0-0-0-0-0-0-0-0-------0-0------------0-0-0-0-0-0-------------------------------|
        p.m---------------      p.m----                p.m----------------------------|


|-------------------------------------------------------------|
|-------------------------------------------------------------|
|-------------------------------------------------------------|
|-----------------------(5)----(5)--1--------2\4--3--1--------|
|-3h5----------------------(5)-----1--0--1--2\4--3--1---------|
|------0-0-0-0-0-0-0-0------------1--0--1--2\4--3--1----------|
        p.m---------------------------------------------------|
        p.m...........................
                                               x3
|---------------------------|
|---------------------------|
|---------------------------|
|-------5-3p2p0-------------|
|-0--2-----------3--2--5----|
|-0--2-----------3--2--5----|

|---------------------------------------------|
|---------------------------------------------|
|---------------------------------------------|
|-------5-3p2p0--6-6-6-6-6-6-6-6--------------|
|-0--2----------------------------------------|
|-0--2----------------------------------------|
                            p.m---------------|

|-------------------------------------------------------------------------------------|
|-------------------------------------------------------------------------------------|
|--------------------------------------------------------<1>p0------<1>p0-------------|
|--------------------------------------------------------------<1>p0------<1>p0-------|
|-3h5-------------------3h6-------3h6--3h5--------------------------------------------|
|------0-0-0-0-0-0-0-0-------0-0------------0-0-0-0-0-0-------------------------------|
        p.m--------------        p.m---                  p.m--------------------------|


|------------------------------------------------------------------------------|
|------------------------------------------------------------------6-4-3-------|
|------------------------------------------------------------------------------|
|--------------------------------------------0-0-3-3-3-3-6-5-3----------3------|
|-3h5-------------------3h6-------3h6--3h5---------------------6--------3------|
|------0-0-0-0-0-0-0-0-------0-0----------------------------------------3------|
        p.m--------------       p.m---                 p.m---------------------|

|-----------------------------------------------------------------------|
|-----------------------------------------------------------------------|
|--------------------------------------------------8--8-8-8-8-8-8-8-----|
|------------------------------6-------------------x--x-x-x-x-x-x-x-----|
|------------------------------6-------------------6--6-6-6-6-6-6-6-----|
|-3-3-3-3-3-3-3-3-3-3-3-3-3-3-6--6-6-6-6-6-6-6-6------------------------|
p.m--------------------------   p.m-------------------------------------|

Breakdown 2

|-------------------------------------------------------|
|-------------------------------------------------------|
|-------------------------------------------------------|
|--------------3\6--5--6---------------3\6--5--8-6------|
|-------------------------------------------------------|
|-0-0-0-0-0-0-------------0-0-0-0-0-0-------------------|
p.m----------                  p.m----------------------|

|-------------------------------------------------------|
|-------------------------------------------------------|
|-------------------------------------------------------|
|--------------3\6--5--6---------------3\6--5--3-1------|
|-------------------------------------------------------|
|-0-0-0-0-0-0-------------0-0-0-0-0-0-------------------|
p.m----------                   p.m---------------------|

|-------------------------------------------------------|
|-------------------------------------------------------|
|-------------------------------------------------------|
|--------------3\6--5--6---------------3\6--5--8-6------|
|-------------------------------------------------------|
|-0-0-0-0-0-0-------------0-0-0-0-0-0-------------------|
p.m---------                   p.m----------------------|

|-------------------------------------------------------|
|-------------------------------------------------------|
|-------------------------------------------------------|
|--------------3\6--5--6---------------3\6--5--3-1------|
|-------------------------------------------------------|
|-0-0-0-0-0-0-------------0-0-0-0-0-0-------------------|
p.m---------                    p.m---------------------|

|-------------------------------------------------|
|-------------------------------------------------|
|-------------------------------------------------|
|-------------------------------------------------|
|-------------1--0--1--------------1--0--3-1------|
|-0-0-0-0-0-0-1--0--1--0-0-0-0-0-0-1--0--3-1------|
p.m----------              p.m--------------------|

|-----------------------------------------------|
|-----------------------------------------------|
|-----------------------------------------------|
|-------------------------<3v>--<2v>---<1v>-----|
|--------------1--0--1--------------------------|
|-0-0-0-0-0-0-1--0--1--0------0------0----------|
p.m---------------------------------------------|

|--------------------------------------------------|
|--------------------------------------------------|
|--------------------------------------------------|
|--------------------------------------------------|
|-------------1--0--1--------------1--0--3-1-------|
|-0-0-0-0-0-0-1--0--1--0-0-0-0-0-0-1--0--3-1-------|
p.m----------               p.m--------------------|

|------------------------------------------------/-----|
|-----------------------------------------------/------|
|------------------------<4v>--<3v>--<2v>---/----------|
| -------------------------------------------0-/-------|
|--------------1--0--1----------------------0/---------|
|-0-0-0-0-0-0-1--0--1--0-----0-----0-------------------|
p.m----------------------------------------------------|
p.m----------------------------------------------------|

Pre solo breakdown

|-10vvvvv---|
|-----------|
|--7vvvvv\--|
|--------\--|
|-----------|
|-----------|

                                              x3
|-------------------------|
|-------------------------|
|-------------------------|
|----3-----3--4-----4--5--|
|-------5--------6--------|
|-0-----------------------|


|------------------------|
|------------------------|
|------------------------|
|----3--------2--------1-|
|-------5--4-----4--3----|
|-0----------------------|

                                              x3
|-------------------------|
|-------------------------|
|-------------------------|
|----3-----3--4-----4--5--|
|-------5--------6--------|
|-0-----------------------|


|------------------------|
|------------------------|
|------------------------|
|----3--------2--------1-|
|-------5--4-----4--3----|
|-0----------------------|

                                                          x3
|---------------------------------|
|---------------------------------|
|---------------------------------|
|----------3--------4-----4--5----|
|----------3-----3--4-----4--5----|
|-0--0--0--3--0--3--4--1--4--5----|
p.m-----       p.m          p.m

|------------------------|
|------------------------|
|------------------------|
|----3--------2--------1-|
|-------5--4-----4--3----|
|-0----------------------|

                                                          x3
|---------------------------------|
|---------------------------------|
|---------------------------------|
|----------3--------4-----4--5----|
|----------3-----3--4-----4--5----|
|-0--0--0--3--0--3--4--1--4--5----|
p.m-----       p.m          p.m

|------------------------|
|------------------------|
|------------------------|
|----3--------2--------1-|
|-------5--4-----4--3----|
|-0----------------------|

                                                        x3
|---------------------------------|
|---------------------------------|
|---------------------------------|
|----------3--------4-----4--5----|
|----------3-----3--4-----4--5----|
|-0--0--0--3--0--3--4--1--4--5----|
p.m-----        p.m          p.m

|-------------------------|
|-------------------------|
|----5--------4--------3--|
|-------7--6-----6--5-----|
|-------------------------|
|-0-----------------------|

|------------------------------------------------|
|------------------------------------------------|
|------------------------------------------------|
|-x/x--6-6-6-6--x/x--6-6-6-6--x/x--6-6-6-6--7----|
|-x/x--6-6-6-6--x/x--6-6-6-6--x/x--6-6-6-6--7----|
|-x/x--6-6-6-6--x/x--6-6-6-6--x/x--6-6-6-6--7----|

Second solo

|-----------------------------13tr14--17----17---17---17---17--------12tr13---|
|-10\11--10/8--10-----15tr16------------20----18---17---15---14tr15-----------|
|-------------------6---------------------------------------------------------|
|--7\8----7/5---7-------------------------------------------------------------|
|-------------------4---------------------------------------------------------|
|-----------------------------------------------------------------------------|


|-17---17---17---17----17---20-18-17-18-17----20-18-17-18-17----20-18-17-18-17------|
|---20---18---17----15----------------------20-----------------20-------------------|
|-----------------------------------------------------------------------------------|
|-----------------------------------------------------------------------------------|
|-----------------------------------------------------------------------------------|
|-----------------------------------------------------------------------------------|


|------------------------------------------------------------------------------------|
|-20----------16---16-18-20-13p12-13p12p10-13p12-13p12p10-13p12-13p12p10-13p12-------|
|----15-17-19---19-------------------------------------------------------------------|
|------------------------------------------------------------------------------------|
|------------------------------------------------------------------------------------|
|------------------------------------------------------------------------------------|


|---------------------------------17p15-17p15p12-17p15-17p15p12-17p15-17p15p12-----|
|-13p12p10-13p12-13p12p10-13p12----------------------------------------------------|
|----------------------------------------------------------------------------------|
|----------------------------------------------------------------------------------|
|----------------------------------------------------------------------------------|
|----------------------------------------------------------------------------------|


|-17p15-17p15p12-17p15-17p15p12-17p15-20p19-20p19p17-20p19-20p19p17-20p19--------|
|--------------------------------------------------------------------------------|
|--------------------------------------------------------------------------------|
|--------------------------------------------------------------------------------|
|--------------------------------------------------------------------------------|
|--------------------------------------------------------------------------------|


|-20p19p17-20p19-20p19p17-20p19-20p19p17-20p19-20b22--20--19-------------------|
|-----------------------------------------------------------------20--17--18---|
|------------------------------------------------------------------------------|
|------------------------------------------------------------------------------|
|------------------------------------------------------------------------------|
|------------------------------------------------------------------------------|


|-17-17-17-17-17-17-17-17-17-17-17-17----------------------17----15-17---------------|
|---------------------------------------18----------------18----17-------14--15-14---|
|------------------------------------------19----------19----------------------------|
|---------------------------------------------19-15-19-------------------------------|
|------------------------------------------------------------------------------------|
|------------------------------------------------------------------------------------|


|-17---------------------------------18-18--18-17-18-17-18-18b20--17-----------------|
|----14-15-14-15-17-15-14-15---------------------------------------------------------|
|-----------------------------10\15------------------------------------17-15-14------|
|--------------------------------------------------------------------------------17--|
|------------------------------------------------------------------------------------|
|------------------------------------------------------------------------------------|


|-----------------------------------------------------------------------------------|
|-----------------------------------------------------------------------------------|
|-15-14-------------------------------------14-15-14-12-14-15-14-15-14-12-14-15-----|
|-------17-15-17-15-14----15-14-----------------------------------------------------|
|-----------------------17-------17-15-12v------------------------------------------|
|-----------------------------------------------------------------------------------|


|-----------------------------------------------------------------17-18-17-15-17--|
|--------------17-18-17-15-17-18-17-18-17-15-17-18-17-18-17-15--------------------|
|-14-15-14-12---------------------------------------------------------------------|
|---------------------------------------------------------------------------------|
|---------------------------------------------------------------------------------|
|---------------------------------------------------------------------------------|


|-18-17-18-17-15-17-18-17-18-17-15-20b22--20vv--19--19vv--17-19-20-19-17-----------|
|---------------------------------------------------------------------------20-18--|
|----------------------------------------------------------------------------------|
|----------------------------------------------------------------------------------|
|----------------------------------------------------------------------------------|
|----------------------------------------------------------------------------------|


|---------------------------------------------17-19-20-20b22vvvr20vvvv--19vvv--22----|vvv
|-20-18-17-18-17-20b22vvr20--------17-18-20------------------------------------------|
|-----------------------------17-19--------------------------------------------------|
|------------------------------------------------------------------------------------|
|------------------------------------------------------------------------------------|
|------------------------------------------------------------------------------------|

Post solo breakdown

                                                x3
|------------------------------------------------------------------------------------|
|------------------------------------------------------------------------------------|
|------------------------------------------------------------------------------------|
|-7------10-----8------5------8--5--7--7------10-----8------5------3--5--7-----------|
|-5------8------6------3------6--3--5--5------8------6------3------1--3--5-----------|
|----0-0----0-0----0-0----0-0-------------0-0----0-0----0-0----0-0-------------------|
    p.m--   p.m--   p.m--    p.m--                   p.m---   p.m--    p.m--  p.m----|

|-----------------------------------------------------------------------------------|
|-----------------------------------------------------------------------------------|
|-----------------------------------------------------------------------------------|
|-7------10-----8------5------8--5--7--7------10-----8------5------3\5--------------|
|-5------8------6------3------6--3--5--5------8------6------3------1\3--------------|
|----0-0----0-0----0-0----0-0-------------0-0----0-0----0-0----0-0------------------|
    p.m--   p.m--   p.m---    p.m--                  p.m---   p.m--    p.m--  p.m---|

|--------------------------------------------------------------------------------|
|-----------------6-6--6-6-6-6-6-5-5- 5-5-5-5-5-8-8--8-8-8-8-8-5-5- 5-5-5-5-5----|
|-3-3--3-3-3-3-3-x-x--x-x-x-x-x-x-x--x-x-x-x-x-x-x--x-x-x-x-x-x-x--x-x-x-x-x-----|
|-x-x--x-x-x-x-x-3-3--3-3-3-3-3-2-2--2-2-2-2-2-5-5--5-5-5-5-5-2-2--2-2-2-2-2-----|
|-1-1--1-1-1-1-1-----------------------------------------------------------------|
|--------------------------------------------------------------------------------|


|--------------------------------------------------|
|-5-5--5-5-5-5-5-6-6--6-6-6-6-6-5-5--5-5-5-5-5-----|
|-x-x--x-x-x-x-x-x-x--x-x-x-x-x-x-x---x-x-x-x-x----|
|-2-2--2-2-2-2-2-3-3--3-3-3-3-3-2-2--2-2-2-2-2-----|
|--------------------------------------------------|
|--------------------------------------------------|

guitars go out for vocal and bass solo and then return for verse

Verse 3

                                          x3
|------------------------------|
|------------------------------|
|------------------------------|
|----------5-3p2p0-------------|
|-0--2--------------3--2--5----|
|-0--2-2-2----------3--2--5----|

|--------------------------------------------|
|--------------------------------------------|
|--------------------------------------------|
|----------5-3p2p0--6-6-6-6-6-6-6-6----------|
|-0--2---------------------------------------|
|-0--2-2-2-----------------------------------|
                            p.m--------------|

|-------------------------------------------------------------------------------------|
|-------------------------------------------------------------------------------------|
|--------------------------------------------------------<1>p0------<1>p0-------------|
|--------------------------------------------------------------<1>p0------<1>p0-------|
|-3h5-------------------3h6-------3h6--3h5--------------------------------------------|
|------0-0-0-0-0-0-0-0-------0-0------------0-0-0-0-0-0-------------------------------|
        p.m--------------        p.m---                 p.m---------------------------|


|------------------------------------------------------------------------------|
|------------------------------------------------------------------6-4-3-------|
|------------------------------------------------------------------------------|
|--------------------------------------------0-0-3-3-3-3-6-5-3----------3------|
|-3h5-------------------3h6-------3h6--3h5---------------------6--------3------|
|------0-0-0-0-0-0-0-0-------0-0----------------------------------------3------|
        p.m--------------         p.m---                  p.m------------------|

|-----------------------------------------------------------------------|
|-----------------------------------------------------------------------|
|--------------------------------------------------8--8-8-8-8-8-8-8-----|
|------------------------------6-------------------x--x-x-x-x-x-x-x-----|
|------------------------------6-------------------6--6-6-6-6-6-6-6-----|
|-3-3-3-3-3-3-3-3-3-3-3-3-3-3-6--6-6-6-6-6-6-6-6------------------------|
p.m-------------------------     p.m------------------------------------|

Breakdown

|-------------------------------------------------------|
|-------------------------------------------------------|
|-------------------------------------------------------|
|--------------3\6--5--6---------------3\6--5--8-6------|
|-------------------------------------------------------|
|-0-0-0-0-0-0-------------0-0-0-0-0-0-------------------|
p.m---------                   p.m----------------------|

|-------------------------------------------------------------|
|-------------------------------------------------------------|
|-------------------------------------------------------------|
|--------------3\6--5--6---------------3\6--5--3-1--0---------|
|----------------------------------------------------0--------|
|-0-0-0-0-0-0-------------0-0-0-0-0-0---------------0---------|
p.m---------                   p.m----------------------------|


Outro

|-------------------------------------------------------------------------------|
|------------------------------11vv--10vv--11vv--10vv--11vv--10vv--11vv--14vv---|
|-8vv--7vv--8vv--7vv--8vv--7vv--------------------------------------------------|
|-------------------------------------------------------------------------------|
|-------------------------------------------------------------------------------|
|-------------------------------------------------------------------------------|


                X2
|-----------------------------------------------------------|
|-----------------------------------------------------------|
|-4b6r4-----------------------------------------------------|
|-----------------------------------------------------------|
|--------1-0-1--1-0-4-3--1-0-1--1-0-4-3--1-0-1--1-0-4-3-----|
|--------1-0-1--1-0-4-3--1-0-1--1-0-4-3--1-0-1--1-0-4-3-----|


|---------------------------------------------------------|
|---------------------------------------------------------|
|---------------------------------------------------------|
|-x/x-----------------------------------------------------|
|-x/x--1-0-1--1-0-4-3--1-0-1--1-0-4-3--1-0-1--1-0-4-3-----|
|-x/x--1-0-1--1-0-4-3--1-0-1--1-0-4-3--1-0-1--1-0-4-3-----|


|-----------------------------------------------------------|
|-----------------------------------------------------------|
|-4b6r4-----------------------------------------------------|
|-----------------------------------------------------------|
|--------1-0-1--1-0-4-3--1-0-1--1-0-4-3--1-0-1--1-0-4-3-----|
|--------1-0-1--1-0-4-3--1-0-1--1-0-4-3--1-0-1--1-0-4-3-----|


|-----------------------------------------------------------|
|-----------------------------------------------------------|
|-----------------------------------------------------------|
|-----------------------------------------------------------|
|--------1-0-1--1-0-4-3--1-0-1--1-0-4-3--1-0-1--1-0-4-3-----|
|-4b6r4--1-0-1--1-0-4-3--1-0-1--1-0-4-3--1-0-1--1-0-4-3-----|


|-----------------------------------------------------------|
|-----------------------------------------------------------|
|-4b6r4-----------------------------------------------------|
|-----------------------------------------------------------|
|--------1-0-1--1-0-4-3--1-0-1--1-0-4-3--1-0-1--1-0-4-3-----|
|--------1-0-1--1-0-4-3--1-0-1--1-0-4-3--1-0-1--1-0-4-3-----|


|----------------------------------------------------------|
|----------------------------------------------------------|
|----------------------------------------------------------|
|----------------------------------------------------------|
|-------1-0-1--1-0-4-3--1-0-1--1-0-4-3--1-0-1--1-0-4-3-----|
|-18/5--1-0-1--1-0-4-3--1-0-1--1-0-4-3--1-0-1--1-0-4-3-----|


|-----------------------------------------------------------|
|-----------------------------------------------------------|
|-----------------------------------------------------------|
|-----------------------------------------------------------|
|--------1-0-1--1-0-4-3--1-0-1--1-0-4-3--1-0-1--1-0-4-3-----|
|-4b6r4--1-0-1--1-0-4-3--1-0-1--1-0-4-3--1-0-1--1-0-4-3-----|


|-----------------------------------------------------------|
|-----------------------------------------------------------|
|-----------------------------------------------------------|
|-----------------------------------------------------------|
|--------1-0-1--1-0-4-3--1-0-1--1-0-4-3--1-0-1--1-0-4-3-----|
|-4b6r4--1-0-1--1-0-4-3--1-0-1--1-0-4-3--1-0-1--1-0-4-3-----|


|---------------------------------------------------------|
|---------------------------------------------------------|
|---------------------------------------------------------|
|-x/x-----------------------------------------------------|
|-x/x--1-0-1--1-0-4-3--1-0-1--1-0-4-3--1-0-1--1-0-4-3-----|
|-x/x--1-0-1--1-0-4-3--1-0-1--1-0-4-3--1-0-1--1-0-4-3-----|


|-------------------------------------------------------------|
|-------------------------------------------------------------|
|-------------------------------------------------------------|
|-x-x-x-x-----------------------------------------------------|
|-x-x-x-x--1-0-1--1-0-4-3--1-0-1--1-0-4-3--1-0-1--1-0-4-3-----|
|-x-x-x-x--1-0-1--1-0-4-3--1-0-1--1-0-4-3--1-0-1--1-0-4-3-----|


|---------------------------------------------------------|
|---------------------------------------------------------|
|---------------------------------------------------------|
|-x/x-----------------------------------------------------|
|-x/x--1-0-1--1-0-4-3--1-0-1--1-0-4-3--1-0-1--1-0-4-3-----|
|-x/x--1-0-1--1-0-4-3--1-0-1--1-0-4-3--1-0-1--1-0-4-3-----|


|-------------------------------------------------------------|
|-------------------------------------------------------------|
|-------------------------------------------------------------|
|-x-x-x-x-----------------------------------------------------|
|-x-x-x-x--1-0-1--1-0-4-3--1-0-1--1-0-4-3--1-0-1--1-0-4-3-----|
|-x-x-x-x--1-0-1--1-0-4-3--1-0-1--1-0-4-3--1-0-1--1-0-4-3-----|


that's all. Have fun playing it

tab legend:
h=hammer on
p=pull off
b=bend
r=release
v=vibrato *the more the v's the wider the vibrato
x=muted note
x/x=pick slide
\=slide up
/=slide down
tr=trill
p.m=palm mute
<>=pinch harmonic
()=natural harmonic
\
 \=tremelo bar down
  \

  /
 /= tremelo bar up
/

2. Beautiful Mourning

Gtr I (B Gb B E Ab Db) - 'Untitled'
Gtr II (B Gb B E Ab Db) - 'Untitled'
Gtr III (B Gb B E Ab Db) - 'Untitled'


 Intro
  Q=140
  Gtr I
  W                                 W
|---------------------------------|--------------------------------|
|---------------------------------|--------------------------------|
|---------------------------------|--------------------------------|
|---------------------------------|--------------------------------|
|---------------------------------|--------------------------------|
|---------------------------------|--------------------------------|
|
| Gtr II
| PM----|     PM|     PM----|       PM|     PM----|     PM|
| S S S S S S S S S S S S S S S S   S S S S S S S S S S S S E E
|---------------------------------|--------------------------------|
|---------------------------------|--------------------------------|
|---------------------------------|--------------------------------|
|-0-0-0-0-1p0-0-0-1p0-0-0-0-0-1p0-|-0-0-3p0-0-0-0-0-1p0-0-0-3-1----|
|---------------------------------|--------------------------------|
|---------------------------------|--------------------------------|


  W                                 H               S S S S S S S S
|---------------------------------|-----------------------------------|
|---------------------------------|-----------------------------------|
|---------------------------------|-----------------------------------|
|---------------------------------|-----------------5h6-0-0-5h6-0-0---|
|---------------------------------|-----------------------------------|
|---------------------------------|-----------------------------------|
|
| PM----|     PM|     PM----|       PM|     PM----|
| S S S S S S S S S S S S S S S S   S S S S S S S S S S S S S S S S
|---------------------------------|-----------------------------------|
|---------------------------------|-----------------------------------|
|---------------------------------|-----------------------------------|
|-0-0-0-0-1p0-0-0-1p0-0-0-0-0-1p0-|-0-0-3p0-0-0-0-0-5h6-0-0-5h6-0-0---|
|---------------------------------|-----------------------------------|
|---------------------------------|-----------------------------------|


  Gtrs I, II
  PM----|     PM|     PM----|       PM|     PM----|     PM|
  S S S S S S S S S S S S S S S S   S S S S S S S S S S S S E E
|---------------------------------|--------------------------------|
|---------------------------------|--------------------------------|
|---------------------------------|--------------------------------|
|-0-0-0-0-1p0-0-0-1p0-0-0-0-0-1p0-|-0-0-3p0-0-0-0-0-1p0-0-0-3-1----|
|---------------------------------|--------------------------------|
|---------------------------------|--------------------------------|


  Gtr I
  PM----|     PM|     PM----|       PM|     PM----|
  S S S S S S S S S S S S S S S S   S S S S S S S S    H
|---------------------------------|-----------------------------------------|
|---------------------------------|-----------------------------------------|
|---------------------------------|-----------------------------------------|
|-0-0-0-0-1p0-0-0-1p0-0-0-0-0-1p0-|-0-0-3p0-0-0-0-0-------------------------|
|---------------------------------|-----------------------------------------|
|---------------------------------|-----------------------------------------|
|
| Gtr II
| PM----|     PM|     PM----|       PM|     PM----|
| S S S S S S S S S S S S S S S S   S S S S S S S S S  S  S  S S  S  S  S
|---------------------------------|-----------------------------------------|
|---------------------------------|-----------------------------------------|
|---------------------------------|-----------------------------------------|
|-0-0-0-0-1p0-0-0-1p0-0-0-0-0-1p0-|-0-0-3p0-0-0-0-0-0h10h12h13-0h10h12h13---|
|---------------------------------|-----------------------------------------|
|---------------------------------|-----------------------------------------|


  Gtrs I, II
  S S S S S S S S S S S S S S S S   S S S S S S S S S S S S E E
|---------------------------------|--------------------------------|
|---------------------------------|--------------------------------|
|---------------------------------|--------------------------------|
|---------------------------------|--------------------------------|
|---------------------------------|--------------------------------|
|-0-0-0-0-1p0-0-0-1p0-0-0-0-0-1p0-|-0-0-3p0-0-0-0-0-1p0-0-0-3-1----|


  S S S S S S S S S S S S S S S S   S S S S S S S S S S S S S S S S
|---------------------------------|-----------------------------------|
|---------------------------------|-----------------------------------|
|---------------------------------|-----------------------------------|
|---------------------------------|-----------------------------------|
|---------------------------------|-----------------------------------|
|-0-0-0-0-1p0-0-0-1p0-0-0-0-0-1p0-|-0-0-3p0-0-0-0-0-5h6-0-0-5h6-0-0---|


  S S S S S S S S S S S S S S S S   S S S S S S S S S S S S E E
|---------------------------------|--------------------------------|
|---------------------------------|--------------------------------|
|---------------------------------|--------------------------------|
|---------------------------------|--------------------------------|
|---------------------------------|--------------------------------|
|-0-0-0-0-1p0-0-0-1p0-0-0-0-0-1p0-|-0-0-3p0-0-0-0-0-1p0-0-0-3-1----|


  S S S S S S S S S S S S S S S S   S S E E E E. E. E
|---------------------------------|----------------------|
|---------------------------------|----------------------|
|---------------------------------|-----5-----5----------|
|---------------------------------|-----5-----5----------|
|---------------------------------|-----3-0-0-3--0--0----|
|-0-0-0-0-1p0-0-0-1p0-0-0-0-0-1p0-|-0-0---0-0----0--0----|


 Verse
  Gtr I
  W                   +W
|-------------------|--------------------|
|-------------------|--------------------|
|-------------------|--------------------|
|-0-----------------|-(0)----------------|
|-0-----------------|-(0)----------------|
|-0-----------------|-(0)----------------|
|
| Gtr II
| E E E  E E E E  E    E  E E  E E E E E
|-------------------|--------------------|
|-------------------|--------------------|
|-------------------|--------------------|
|-------/8-------/8-|---------/8---------|
|-0-0-0-/6-0-0-0-/6-|--0--0-0-/6-0-0-0-1-|
|-0-0-0----0-0-0----|--0--0-0----0-0-0-1p|


  +W                    +E  E E E E E E E
|---------------------|-------------------|
|---------------------|-----9-9-8-8-------|
|---------------------|-----x-x-x-x-3-3---|
|-(0)-----------------|-(0)-6-6-5-5-x-x-1-|
|-(0)-----------------|-(0)---------1-1-1-|
|-(0)-----------------|-(0)-------------1-|
|
|  E  E E  E E E E  E    E  E E E E E E E
|---------------------|-------------------|
|---------------------|-----9-9-8-8-------|
|---------------------|-----x-x-x-x-3-3---|
|---------/8-------/8-|-----6-6-5-5-x-x-1-|
|--0--0-0-/6-0-0-0-/6-|--0----------1-1-1-|
|--0--0-0----0-0-0----|--0--------------1-|


    PM------------------------------------
    E E E  H        E   E E E  E H
||--------------------|------------------|
||o-------------------|------------------|
||--------------------|------------------|
||--------------------|------------------|
||o-0-0-0-----------0-|-0-0-0------------|
||--0-0-0-----------0-|-0-0-0------------|
|
|   E E E  E E E E  E   E E E  E E E E E
||--------------------|------------------|
||o-------------------|------------------|
||--------------------|------------------|
||--------/8-------/8-|-------/8---------|
||o-0-0-0-/6-0-0-0-/6-|-0-0-0-/6-0-0-0-1-|
||--0-0-0----0-0-0----|-0-0-0----0-0-0-1p|


 ---------------------|
  E E E  H        E   E E E E E E E E
|-------------------|-------------------||
|-------------------|---9-9-8-8--------o||
|-------------------|---x-x-x-x-3-3-----||
|-------------------|---6-6-5-5-x-x-1---||
|-0-0-0-----------0-|-0---------1-1-1--o||
|-0-0-0-----------0-|-0-------------1---||
|
| E E E  E E E E  E   E E E E E E E E
|-------------------|-------------------||
|-------------------|---9-9-8-8--------o||
|-------------------|---x-x-x-x-3-3-----||
|-------/8-------/8-|---6-6-5-5-x-x-1---||
|-0-0-0-/6-0-0-0-/6-|-0---------1-1-1--o||
|-0-0-0----0-0-0----|-0-------------1---||


  PM---------------------------------------------------------|             ~~~
  E E E  H        E   E E E  E H         E E E  H        E   E  E q   E E  Q
|-------------------|------------------|-------------------|-------------------|
|-------------------|------------------|-------------------|---/4-3--/4-1------|
|-------------------|------------------|-------------------|--------------[3]--|
|-------------------|------------------|-------------------|-------------------|
|-0-0-0-----------0-|-0-0-0------------|-0-0-0-----------0-|-0-----------------|
|-0-0-0-----------0-|-0-0-0------------|-0-0-0-----------0-|-0-----------------|
|
|                                                                          ~~~
| E E E  E E E E  E   E E E  E E E E E   E E E  E E E E  E   E  E q   E E  Q
|-------------------|------------------|-------------------|-------------------|
|-------------------|------------------|-------------------|---/4-3--/4-1------|
|-------------------|------------------|-------------------|--------------[3]--|
|-------/8-------/8-|-------/8---------|-------/8-------/8-|-------------------|
|-0-0-0-/6-0-0-0-/6-|-0-0-0-/6-0-0-0-1-|-0-0-0-/6-0-0-0-/6-|-0-----------------|
|-0-0-0----0-0-0----|-0-0-0----0-0-0-1p|=0-0-0----0-0-0----|-0-----------------|


  Gtrs I, II
  E E E  E E E E  E   E E E  E E E E E   E E E  E E E E  E   E E E E E E E E
|-------------------|------------------|-------------------|-----------------|
|-------------------|------------------|-------------------|---9-9-8-8-------|
|-------------------|------------------|-------------------|---x-x-x-x-3-3---|
|-------/8-------/8-|-------/8---------|-------/8-------/8-|---6-6-5-5-x-x-1-|
|-0-0-0-/6-0-0-0-/6-|-0-0-0-/6-0-0-0-1-|-0-0-0-/6-0-0-0-/6-|-0---------1-1-1-|
|-0-0-0----0-0-0----|-0-0-0----0-0-0-1p|=0-0-0----0-0-0----|-0-------------1-|


                                                                           ~~~
  E E E  E E E E  E   E E E  E E E E E   E E E  E E E E  E   E  E q   E E  Q
|-------------------|------------------|-------------------|-------------------|
|-------------------|------------------|-------------------|-------------------|
|-------------------|------------------|-------------------|--------------[3]--|
|-------/8-------/8-|-------/8---------|-------/8-------/8-|-------------------|
|-0-0-0-/6-0-0-0-/6-|-0-0-0-/6-0-0-0-1-|-0-0-0-/6-0-0-0-/6-|-0-/6-5--/6-3------|
|-0-0-0----0-0-0----|-0-0-0----0-0-0-1p|=0-0-0----0-0-0----|-0-----------------|


 Chorus
  E E E E E E E E   +E  E E E E E +E  E
|-----------------|---------------------|
|-8-8-8-8-8-8-8-8-|-(8)-8-8-8-8---------|
|-----------------|-------------8-(8)-8-|
|-5-5-5-5-5-5-5-4-|-(4)-4-4-4-4---------|
|-----------------|-------------6-(6)-6-|
|-----------------|---------------------|


   E  E  E  E  E  E  E  E    +E   E  E  E  E  E Q
|-------------------------|------------------------|
|-11-11-11-11-11-11-11-11-|-(11)-11-11-11----------|
|-------------------------|------------------------|
|--8--8--8--8--8--8--8--7-|--(7)--7--7--7-10-10----|
|-------------------------|---------------10-10----|
|-------------------------|---------------10-10----|


  E E E E E  E  Q    E E E E  E   E  Q
|------------------|--------------------|
|------------------|--------------------|
|------------------|--------------------|
|-0---------<5>-1--|-0-----------<5>-1--|
|-0-0-0-0-0-----1--|-0-0-0-0-<5>-----1--|
|-0-0-0-0-0-----1--|-0-0-0-0---------1--|


  E E E E E  E  Q    E E E E  E   E  Q
|------------------|--------------------|
|------------------|--------------------|
|------------------|--------------------|
|-0---------<5>-1--|-0-----------<5>-1--|
|-0-0-0-0-0-----1--|-0-0-0-0-<5>-----1--|
|-0-0-0-0-0-----1--|-0-0-0-0---------1--|


  E E E E E E E E   +E  E E E E  E  E  E
|-----------------|----------------------|
|-8-8-8-8-8-8-8-8-|-(8)-8-8-8-8-11-11-11-|
|-----------------|----------------------|
|-5-5-5-5-5-5-5-4-|-(4)-4-4-4-4--8--8--8-|
|-----------------|----------------------|
|-----------------|----------------------|


  E +E  E E E E E E   +E  E E E E E E E
|-------------------|-------------------|
|-------------------|-------------------|
|-8-(8)-8-8-8-8-8-8-|-(8)-8-8-8-8-3-3-3-|
|-------------------|-------------------|
|-6-(6)-6-6-6-6-6-5-|-(5)-5-5-5-5-1-1-1-|
|-------------------|-------------------|


  Gtr I
   E +E  E E E E E E   +E  E E E E E E E   W
|--------------------|-------------------|------------------------------------|
|--------------------|-------------------|------------------------------------|
|-/5-(5)-5-5-5-5-5-5-|-(5)-5-5-5-5-5-5-5-|-7----------------------------------|
|--------------------|-------------------|-7----------------------------------|
|-/3-(3)-3-3-3-3-3-2-|-(2)-2-2-2-2-2-2-2-|-5----------------------------------|
|--------------------|-------------------|------------------------------------|
|
| Gtr II
|  E +E  E E E E E E   +E  E E E E E E E   S S S S S S S S S S S  S S S  S  S
|--------------------|-------------------|------------------------------------|
|--------------------|-------------------|------------------------------------|
|-/5-(5)-5-5-5-5-5-5-|-(5)-5-5-5-5-5-5-5-|------------------------------------|
|--------------------|-------------------|-0-3-5-7-0-5-7-8-0-7-8-10-0-8-10-12-|
|-/3-(3)-3-3-3-3-3-2-|-(2)-2-2-2-2-2-2-2-|------------------------------------|
|--------------------|-------------------|------------------------------------|


  +W
|--------------------------------------------------|
|--------------------------------------------------|
|-(7)----------------------------------------------|
|-(7)----------------------------------------------|
|-(5)----------------------------------------------|
|--------------------------------------------------|
|
|  S   S  S  S S  S  S  S S  S  S  S S  S  S  S
|--------------------------------------------------|
|--------------------------------------------------|
|--------------------------------------------------|
|--0--10-12-13-0-12-13-15-0-13-15-17-0-15-17-18----|
|--------------------------------------------------|
|--------------------------------------------------|


 Verse
 2/4
         PM------------------------------------
  H      E E E  H        E   E E E  E H
|------|-------------------|------------------|
|------|-------------------|------------------|
|------|-------------------|------------------|
|------|-------------------|------------------|
|------|-0-0-0-----------0-|-0-0-0------------|
|------|-0-0-0-----------0-|-0-0-0------------|
|
| h      E E E  E E E E  E   E E E  E E E E E
|------|-------------------|------------------|
|------|-------------------|------------------|
|------|-------------------|------------------|
|------|-------/8-------/8-|-------/8---------|
|------|-0-0-0-/6-0-0-0-/6-|-0-0-0-/6-0-0-0-1-|
|-0----|-0-0-0----0-0-0----|-0-0-0----0-0-0-1p|


 ---------------------|
  E E E  H        E   E E E E E E E E
|-------------------|--------------------|
|-------------------|---9-9-8-8----------|
|-------------------|---x-x-x-x-3-3------|
|-------------------|---6-6-5-5-x-x-1----|
|-0-0-0-----------0-|-0---------1-1-1----|
|-0-0-0-----------0-|-0-------------1----|
|
| E E E  E E E E  E   E E E E E E E E
|-------------------|--------------------|
|-------------------|---9-9-8-8----------|
|-------------------|---x-x-x-x-3-3------|
|-------/8-------/8-|---6-6-5-5-x-x-1----|
|-0-0-0-/6-0-0-0-/6-|-0---------1-1-1----|
|-0-0-0----0-0-0----|-0-------------1----|


  PM---------------------------------------------------------|             ~~~
  E E E  H        E   E E E  E H         E E E  H        E   E  E q   E E  Q
|-------------------|------------------|-------------------|-------------------|
|-------------------|------------------|-------------------|---/4-3--/4-1------|
|-------------------|------------------|-------------------|--------------[3]--|
|-------------------|------------------|-------------------|-------------------|
|-0-0-0-----------0-|-0-0-0------------|-0-0-0-----------0-|-0-----------------|
|-0-0-0-----------0-|-0-0-0------------|-0-0-0-----------0-|-0-----------------|
|
|                                                                          ~~~
| E E E  E E E E  E   E E E  E E E E E   E E E  E E E E  E   E  E q   E E  Q
|-------------------|------------------|-------------------|-------------------|
|-------------------|------------------|-------------------|---/4-3--/4-1------|
|-------------------|------------------|-------------------|--------------[3]--|
|-------/8-------/8-|-------/8---------|-------/8-------/8-|-------------------|
|-0-0-0-/6-0-0-0-/6-|-0-0-0-/6-0-0-0-1-|-0-0-0-/6-0-0-0-/6-|-0-----------------|
|-0-0-0----0-0-0----|-0-0-0----0-0-0-1p|=0-0-0----0-0-0----|-0-----------------|


  Gtrs I, II
  E E E  E E E E  E   E E E  E E E E E   E E E  E E E E  E   E E E E E E E E
|-------------------|------------------|-------------------|-----------------|
|-------------------|------------------|-------------------|---9-9-8-8-------|
|-------------------|------------------|-------------------|---x-x-x-x-3-3---|
|-------/8-------/8-|-------/8---------|-------/8-------/8-|---6-6-5-5-x-x-1-|
|-0-0-0-/6-0-0-0-/6-|-0-0-0-/6-0-0-0-1-|-0-0-0-/6-0-0-0-/6-|-0---------1-1-1-|
|-0-0-0----0-0-0----|-0-0-0----0-0-0-1p|=0-0-0----0-0-0----|-0-------------1-|


                                                                           ~~~
  E E E  E E E E  E   E E E  E E E E E   E E E  E E E E  E   E  E q   E E  Q
|-------------------|------------------|-------------------|-------------------|
|-------------------|------------------|-------------------|-------------------|
|-------------------|------------------|-------------------|--------------[3]--|
|-------/8-------/8-|-------/8---------|-------/8-------/8-|-------------------|
|-0-0-0-/6-0-0-0-/6-|-0-0-0-/6-0-0-0-1-|-0-0-0-/6-0-0-0-/6-|-0-/6-5--/6-3------|
|-0-0-0----0-0-0----|-0-0-0----0-0-0-1p|=0-0-0----0-0-0----|-0-----------------|


 Chorus
  E E E E E E E E   +E  E E E E E +E  E
|-----------------|---------------------|
|-8-8-8-8-8-8-8-8-|-(8)-8-8-8-8---------|
|-----------------|-------------8-(8)-8-|
|-5-5-5-5-5-5-5-4-|-(4)-4-4-4-4---------|
|-----------------|-------------6-(6)-6-|
|-----------------|---------------------|


   E  E  E  E  E  E  E  E    +E   E  E  E  E  E Q
|-------------------------|------------------------|
|-11-11-11-11-11-11-11-11-|-(11)-11-11-11----------|
|-------------------------|------------------------|
|--8--8--8--8--8--8--8--7-|--(7)--7--7--7-10-10----|
|-------------------------|---------------10-10----|
|-------------------------|---------------10-10----|


  E E E E E  E  Q    E E E E  E   E  Q
|------------------|--------------------|
|------------------|--------------------|
|------------------|--------------------|
|-0---------<5>-1--|-0-----------<5>-1--|
|-0-0-0-0-0-----1--|-0-0-0-0-<5>-----1--|
|-0-0-0-0-0-----1--|-0-0-0-0---------1--|


  E E E E E  E  Q    E E E E  E   E  Q
|------------------|--------------------|
|------------------|--------------------|
|------------------|--------------------|
|-0---------<5>-1--|-0-----------<5>-1--|
|-0-0-0-0-0-----1--|-0-0-0-0-<5>-----1--|
|-0-0-0-0-0-----1--|-0-0-0-0---------1--|


  E E E E E E E E   +E  E E E E  E  E  E
|-----------------|----------------------|
|-8-8-8-8-8-8-8-8-|-(8)-8-8-8-8-11-11-11-|
|-----------------|----------------------|
|-5-5-5-5-5-5-5-4-|-(4)-4-4-4-4--8--8--8-|
|-----------------|----------------------|
|-----------------|----------------------|


  E +E  E E E E E E   +E  E E E E E E E
|-------------------|-------------------|
|-------------------|-------------------|
|-8-(8)-8-8-8-8-8-8-|-(8)-8-8-8-8-3-3-3-|
|-------------------|-------------------|
|-6-(6)-6-6-6-6-6-5-|-(5)-5-5-5-5-1-1-1-|
|-------------------|-------------------|


                                          Breakdown
  Gtr I
                                                   ~               ~
   E +E  E E E E E E   +E  E E E E E E E   S S S S Q  Q  S S S S   H    H
|--------------------|-------------------|-----------------------|-----------|
|--------------------|-------------------|-----------------------|-----------|
|-/5-(5)-5-5-5-5-5-5-|-(5)-5-5-5-5-5-5-5-|-----------------------|-----------|
|--------------------|-------------------|-----------------------|-----------|
|-/3-(3)-3-3-3-3-3-2-|-(2)-2-2-2-2-2-2-2-|-5h6p5p3-5-----5h6p5p3-|-5---------|
|--------------------|-------------------|------------0----------|------0----|
|
| Gtr II
|  E +E  E E E E E E   +E  E E E E E E E   W                       H    H
|--------------------|-------------------|-----------------------|-----------|
|--------------------|-------------------|-----------------------|-----------|
|-/5-(5)-5-5-5-5-5-5-|-(5)-5-5-5-5-5-5-5-|-----------------------|-----------|
|--------------------|-------------------|-----------------------|-----------|
|-/3-(3)-3-3-3-3-3-2-|-(2)-2-2-2-2-2-2-2-|-----------------------|-----------|
|--------------------|-------------------|-----------------------|------0----|


  Gtrs I, II
          ~                                      ~               ~
  S S S S Q  Q  S S S S   Q   Q  Q  Q    S S S S Q  Q  S S S S   H    H
|-----------------------|--------------|-----------------------|-----------|
|-----------------------|--------------|-----------------------|-----------|
|-----------------------|--------------|-----------------------|-----------|
|-----------------------|--------------|-----------------------|-----------|
|-5h6p5p3-5-----5h6p5p3-|-5\-----------|-5h6p5p3-5-----5h6p5p3-|-5---------|
|------------0----------|-----1--4--3--|------------0----------|------0----|


          ~              ~
  S S S S H    S S S S   H    H
|----------------------|-----------|
|----------------------|-----------|
|----------------------|-----------|
|----------------------|-----------|
|----------------------|------1----|
|-5-6-5-3-5----5-6-5-3-|-5----1----|


          ~               ~                   ~
  S S S S Q  Q  S S S S   H    H      S S S S Q  Q  S S S S   Q   Q  Q  Q
|-----------------------|-----------|-----------------------|---------------|
|-----------------------|-----------|-----------------------|---------------|
|-----------------------|-----------|-----------------------|---------------|
|-----------------------|-----------|-----------------------|---------------|
|-5h6p5p3-5-----5h6p5p3-|-5---------|-5h6p5p3-5-----5h6p5p3-|-5\------------|
|------------0----------|------0----|------------0----------|-----1--4--3---|


          ~               ~                   ~              ~
  S S S S Q  Q  S S S S   H    H      S S S S H    S S S S   H    H
|-----------------------|-----------|----------------------|-----------|
|-----------------------|-----------|----------------------|-----------|
|-----------------------|-----------|----------------------|-----------|
|-----------------------|-----------|----------------------|-----------|
|-5h6p5p3-5-----5h6p5p3-|-5---------|----------------------|------1----|
|------------0----------|------0----|-5-6-5-3-5----5-6-5-3-|-5----1----|


  Gtr I
   E  E  E  E  E  E  E  E    E  E  E  E  E  E  E  E
|-------------------------|-------------------------|
|-------------------------|-------------------------|
|--8--8--8--8--8--8--8--8-|--8--8--8--8--8--8--8--8-|
|-------------------------|-------------------------|
|--6--6--6--6--6--6--6--6-|--5--5--5--5--6--6--6--6-|
|-------------------------|-------------------------|
|
| Gtr II
|  E  E  E  E  E  E  E  E    E  E  E  E  E  E  E  E
|-------------------------|-------------------------|
|-11-11-11-11-11-11-11-11-|-15-15-16-16-15-15-13-13-|
|-------------------------|-------------------------|
|--8--8--8--8--8--8--8--8-|-12-12-13-13-12-12-10-10-|
|-------------------------|-------------------------|
|-------------------------|-------------------------|


   E  E  E  E  E  E  E  E    E  E  E  E  E  E  E  E
|-------------------------|-------------------------|
|-------------------------|-------------------------|
|-10-10-10-10-10-10-10-10-|-10-10-10-10-10-10-10-10-|
|-------------------------|-------------------------|
|--8--8--8--8--8--8--8--8-|--7--7--7--7--8--8--8--8-|
|-------------------------|-------------------------|
|
|  E  E  E  E  E  E  E  E    E  E  E  E  E  E  E  E
|-------------------------|-------------------------|
|-10-10-10-10-10-10-10-10-|-15-15-16-16-15-15-13-13-|
|-------------------------|-------------------------|
|--7--7--7--7--7--7--7--7-|-12-12-13-13-12-12-10-10-|
|-------------------------|-------------------------|
|-------------------------|-------------------------|


   E  E  E  E  E  E  E  E    E  E  E  E  E  E  E  E
|-------------------------|-------------------------|
|-11-11-11-11-11-11-11-11-|-11-11-11-11-11-11-11-11-|
|-------------------------|-------------------------|
|--8--8--8--8--8--8--8--8-|--7--7--7--7--8--8--8--8-|
|-------------------------|-------------------------|
|-------------------------|-------------------------|
|
|  E  E  E  E  E  E  E  E    E  E  E  E  E  E  E  E
|-------------------------|-------------------------|
|-11-11-11-11-11-11-11-11-|-15-15-16-16-15-15-13-13-|
|-------------------------|-------------------------|
|--8--8--8--8--8--8--8--8-|-12-12-13-13-12-12-10-10-|
|-------------------------|-------------------------|
|-------------------------|-------------------------|


   E  E  E  E  E  E  E  E    E  E  E  E  E  E  E  E
|-------------------------|-------------------------|
|-13-13-13-13-13-13-13-13-|-13-13-13-13-13-13-13-13-|
|-------------------------|-------------------------|
|-10-10-10-10-10-10-10-10-|-10-10-10-10-10-10-10-10-|
|-------------------------|-------------------------|
|-------------------------|-------------------------|
|
|  E  E  E  E  E  E  E  E    E  E  E  E  E  E  E  E
|-------------------------|-------------------------|
|-10-10-10-10-10-10-10-10-|-15-15-16-16-15-15-13-13-|
|-------------------------|-------------------------|
|--7--7--7--7--7--7--7--7-|-12-12-13-13-12-12-10-10-|
|-------------------------|-------------------------|
|-------------------------|-------------------------|


   E  E  E  E  E  E  E  E    E  E  E  E  E  E  E  E
|-------------------------|-------------------------|
|-------------------------|-------------------------|
|--8--8--8--8--8--8--8--8-|--8--8--8--8--8--8--8--8-|
|-------------------------|-------------------------|
|--6--6--6--6--6--6--6--6-|--5--5--5--5--6--6--6--6-|
|-------------------------|-------------------------|
|
|  E  E  E  E  E  E  E  E    E  E  E  E  E  E  E  E
|-------------------------|-------------------------|
|-11-11-11-11-11-11-11-11-|-15-15-16-16-15-15-13-13-|
|-------------------------|-------------------------|
|--8--8--8--8--8--8--8--8-|-12-12-13-13-12-12-10-10-|
|-------------------------|-------------------------|
|-------------------------|-------------------------|


   E  E  E  E  E  E  E  E    E  E  E  E  E  E  E  E
|-------------------------|-------------------------|
|-------------------------|-------------------------|
|--5--5--5--5--5--5--5--5-|--5--5--5--5--5--5--5--5-|
|-------------------------|-------------------------|
|--3--3--3--3--3--3--3--3-|--2--2--2--2--3--3--3--3-|
|-------------------------|-------------------------|
|
|  E  E  E  E  E  E  E  E    E  E  E  E  E  E  E  E
|-------------------------|-------------------------|
|-10-10-10-10-10-10-10-10-|-15-15-16-16-15-15-13-13-|
|-------------------------|-------------------------|
|--7--7--7--7--7--7--7--7-|-12-12-13-13-12-12-10-10-|
|-------------------------|-------------------------|
|-------------------------|-------------------------|


   E  E  E  E  E  E  E  E    E  E  E  E  E  E  E  E
|-------------------------|-------------------------|
|-11-11-11-11-11-11-11-11-|-11-11-11-11-11-11-11-11-|
|-------------------------|-------------------------|
|--8--8--8--8--8--8--8--8-|--7--7--7--7--8--8--8--8-|
|-------------------------|-------------------------|
|-------------------------|-------------------------|
|
|  E  E  E  E  E  E  E  E    E  E  E  E  E  E  E  E
|-------------------------|-------------------------|
|-11-11-11-11-11-11-11-11-|-15-15-16-16-15-15-13-13-|
|-------------------------|-------------------------|
|--8--8--8--8--8--8--8--8-|-12-12-13-13-12-12-10-10-|
|-------------------------|-------------------------|
|-------------------------|-------------------------|


   E  E  E  E  E  E  E  E    E  E  E  E  E  E  E  E
|-------------------------|-------------------------|
|-13-13-13-13-13-13-13-13-|-13-13-13-13-13-13-13-13-|
|-------------------------|-------------------------|
|-10-10-10-10-10-10-10-10-|-10-10-10-10-10-10-10-10-|
|-------------------------|-------------------------|
|-------------------------|-------------------------|
|
|  E  E  E  E  E  E  E  E    E  E  E  E  E  E  E  E
|-------------------------|-------------------------|
|-10-10-10-10-10-10-10-10-|-15-15-16-16-15-15-16-16-|
|-------------------------|-------------------------|
|--7--7--7--7--7--7--7--7-|-12-12-13-13-12-12-13-13-|
|-------------------------|-------------------------|
|-------------------------|-------------------------|


          ~               ~                   ~
  S S S S Q  Q  S S S S   H    H      S S S S Q  Q  S S S S
|-----------------------|-----------|------------------------|
|-----------------------|-----------|------------------------|
|-----------------------|-----------|------------------------|
|-----------------------|-----------|------------------------|
|-5h6p5p3-5-----5h6p5p3-|-5---------|-5h6p5p3-5-----5h6p5p3--|
|------------0----------|------0----|------------0-----------|
|
|                         ~                   ~
| H          Q  S S S S   H    H      S S S S Q  Q  S S S S
|-----------------------|-----------|------------------------|
|-----------------------|-----------|------------------------|
|-----------------------|-----------|------------------------|
|-----------------------|-----------|------------------------|
|---------------5h6p5p3-|-5---------|-5h6p5p3-5-----5h6p5p3--|
|------------0----------|------0----|------------0-----------|


  Gtrs I, II
                         ~               ~
  Q   Q  Q  Q    S S S S Q  Q  S S S S   H    H      q  Q  H
|--------------|-----------------------|-----------|----------|
|--------------|-----------------------|-----------|----------|
|--------------|-----------------------|-----------|----------|
|--------------|-----------------------|-----------|-5--------|
|-5\-----------|-5h6p5p3-5-----5h6p5p3-|-5---------|-5--------|
|-----1--4--3--|------------0----------|------0----|-5--------|


  H    E. E. E   q  Q  H      W
|--------------|------------|-------|
|--------------|------------|-------|
|--------------|------------|-------|
|------5--6--8-|-5----------|-x\----|
|------5--6--8-|-5----------|-x\----|
|------5--6--8-|-5----------|-x\----|


 Guitar Solo
  Gtr I
         PM     PM        PM     PM          PM     PM        PM     PM
   E     S    E S    E  E S    E S    E    E S    E S    E  E S    E S    E
|---------------------------------------|-----------------------------------|
|---------------------------------------|-----------------------------------|
|---------------------------------------|-----------------------------------|
|--6----------5------5--6------5------5-|--6------5------5--6------8------9-|
|--6-----6----5-5----5--6-6----5-5----5-|--6-6----5-5----5--6-6----8-8----9-|
|--6-----6----5-5----5--6-6----5-5----5-|--6-6----5-5----5--6-6----8-8----9-|
|
| Gtr II
|  |---------------------------------3----------------------------------|
|  Q        Q      Q    Q    Q      Q      Q    Q      Q    Q    Q      Q
|---------------------------------------|-18--------------------------------|
|---------------------------------------|-----------------------------------|
|-16b19====16-----16---16---16-----16---|------16-----16---16---16r====16---|
|---------------------------------------|-----------------------------------|
|---------------------------------------|-----------------------------------|
|---------------------------------------|-----------------------------------|


         PM       PM             PM       PM
   E     S  E     S  E     E     S  E     S  E
|-------------------------------------------------|
|-------------------------------------------------|
|-------------------------------------------------|
|--6--------5--------5-----6--------5--------5----|
|--6-----6--5-----5--5-----6-----6--5-----5--5----|
|--6-----6--5-----5--5-----6-----6--5-----5--5----|
|
|  S  S  S  S  S  S  S  S  S  S  S  S  S  S  S  S
|----------14-16-17-16----16-17-16----16-17-16----|
|-14-16-17-------------17----------17----------17-|
|-------------------------------------------------|
|-------------------------------------------------|
|-------------------------------------------------|
|-------------------------------------------------|


          PM       PM         PM  PM
    E     S  E     S  E     E S E S E
|----------------------------------------|
|----------------------------------------|
|----------------------------------------|
|---6--------5--------5-----1---3---4----|
|---6-----6--5-----5--5-----1-1-3-3-4----|
|---6-----6--5-----5--5-----1-1-3-3-4----|
|
|                           ~~
|   S  S  S  S  S  S  S  S  H
|-----16---------------------------------|
|-/19----19-17-19-17-16------------------|
|-----------------------16-18------------|
|----------------------------------------|
|----------------------------------------|
|----------------------------------------|


         PM     PM        PM     PM          PM     PM        PM     PM
   E     S    E S    E  E S    E S    E    E S    E S    E  E S    E S    E
|---------------------------------------|-----------------------------------|
|---------------------------------------|-----------------------------------|
|---------------------------------------|-----------------------------------|
|--6----------5------5--6------5------5-|--6------5------5--6------8------9-|
|--6-----6----5-5----5--6-6----5-5----5-|--6-6----5-5----5--6-6----8-8----9-|
|--6-----6----5-5----5--6-6----5-5----5-|--6-6----5-5----5--6-6----8-8----9-|
|
|  |---------------------------------3----------------------------------|
|  Q        Q      Q    Q    Q      Q      Q    Q      Q    Q    Q      Q
|---------------------------------------|-18--------------------------------|
|---------------------------------------|-----------------------------------|
|-16b19====16-----16---16---16-----16---|------16-----16---16---16r====16---|
|---------------------------------------|-----------------------------------|
|---------------------------------------|-----------------------------------|
|---------------------------------------|-----------------------------------|


      PM    PM      PM  PM
   E  S  E  S  E  E S E S E
|---------------------------|
|---------------------------|
|---------------------------|
|--6-----5-----5--6---5---5-|
|--6--6--5--5--5--6-6-5-5-5-|
|--6--6--5--5--5--6-6-5-5-5-|
|
|  |------3-------|
|  Q  Q  Q  Q  Q  Q
|-21----21----21------------|
|---------------------------|
|----18----18----18---------|
|---------------------------|
|---------------------------|
|---------------------------|


   |------3-------|
   Q  Q  Q  Q  Q  Q
|---------------------------------------------------|
|---------------------------------------------------|
|---------------------------------------------------|
|--1--1--1--4--4--4---------------------------------|
|--1--1--1--4--4--4---------------------------------|
|--1--1--1--4--4--4---------------------------------|
|
|  S  S  S  S  S  S  S  S  S  S  S  S  S  S  S  S
|-21-19-17-19-17----17------------------------------|
|----------------21----21-19-21-19-17-19-17---------|
|-------------------------------------------20-16---|
|---------------------------------------------------|
|---------------------------------------------------|
|---------------------------------------------------|


 Pre-Verse
  Gtr I
   W                                      +W
|--------------------------------------|--------------------------------|
|--------------------------------------|--------------------------------|
|--------------------------------------|--------------------------------|
|--0-----------------------------------|--(0)---------------------------|
|--0-----------------------------------|--(0)---------------------------|
|--0-----------------------------------|--(0)---------------------------|
|
| Gtr II
|  PM--------|     PM|     PM----|         PM-|     PM----|     PM|
|  S     S S S S S S S S S S S S S S S     S  S S S S S S S S S S S E E
|--------------------------------------|--------------------------------|
|--------------------------------------|--------------------------------|
|--------------------------------------|--------------------------------|
|--0-----0-0-0-1p0-0-0-1p0-0-0-0-0-1p0-|---0--0-3p0-0-0-0-0-1p0-0-0-3-1-|
|--------------------------------------|--------------------------------|
|--------------------------------------|--------------------------------|
|
| Gtr III
|  ~~~~~~~~~~~~~~~~~~~~~~~~~~~~~~~~~~~~~~~~~~~~~~~~~~~~~~~~~~~~~~~~~~~~~~
|  W                                      +W
|--------------------------------------|--------------------------------|
|-17b19================================|=(17)---------------------------|
|--------------------------------------|--------------------------------|
|--------------------------------------|--------------------------------|
|--------------------------------------|--------------------------------|
|--------------------------------------|--------------------------------|


   +W                                   +W
|------------------------------------|------------------------------------|
|------------------------------------|------------------------------------|
|------------------------------------|------------------------------------|
|--(0)-------------------------------|--(0)-------------------------------|
|--(0)-------------------------------|--(0)-------------------------------|
|--(0)-------------------------------|--(0)-------------------------------|
|
|   PM-----|     PM|     PM----|         PM-|     PM----|
|   S  S S S S S S S S S S S S S S S     S  S S S S S S S S S S S S S S S
|------------------------------------|------------------------------------|
|------------------------------------|------------------------------------|
|------------------------------------|------------------------------------|
|---0--0-0-0-1p0-0-0-1p0-0-0-0-0-1p0-|---0--0-3p0-0-0-0-0-5h6-0-0-5h6-0-0-|
|------------------------------------|------------------------------------|
|------------------------------------|------------------------------------|
|
|~~~~~~~~~~~~~~~~~~~~~~~~~~~~~~~~~~~~~~~~~~~
|  +W                                   +W
|------------------------------------|------------------------------------|
|-(17)-------------------------------|-(17)-------------------------------|
|------------------------------------|------------------------------------|
|------------------------------------|------------------------------------|
|------------------------------------|------------------------------------|
|------------------------------------|------------------------------------|


    W                                   +W
|------------------------------------|--------------------------------|
|------------------------------------|--------------------------------|
|------------------------------------|--------------------------------|
|---0--------------------------------|--(0)---------------------------|
|---0--------------------------------|--(0)---------------------------|
|---0--------------------------------|--(0)---------------------------|
|
|   PM-----|     PM|     PM----|         PM-|     PM----|     PM|
|   S  S S S S S S S S S S S S S S S     S  S S S S S S S S S S S E E
|------------------------------------|--------------------------------|
|------------------------------------|--------------------------------|
|------------------------------------|--------------------------------|
|---0--0-0-0-1p0-0-0-1p0-0-0-0-0-1p0-|---0--0-3p0-0-0-0-0-1p0-0-0-3-1-|
|------------------------------------|--------------------------------|
|------------------------------------|--------------------------------|
|
|                                        >
|   ~~~~~~~~~~~~~~~~~~~~~~~~~~~~~~~~~~~~~~~~~~~~~~~~~~~~~~~~~~~~~~~~~~~
|  +W                                   +W
|------------------------------------|--------------------------------|
|-(17)-------------------------------|-(17)---------------------------|
|------------------------------------|--------------------------------|
|------------------------------------|--------------------------------|
|------------------------------------|--------------------------------|
|------------------------------------|--------------------------------|


                                                        ~~~
   +W                                   +E   E q   E E  Q
|------------------------------------|-----------------------------|
|------------------------------------|------/4-3--/4-1-------------|
|------------------------------------|-----------------[3]---------|
|--(0)-------------------------------|--(0)------------------------|
|--(0)-------------------------------|--(0)------------------------|
|--(0)-------------------------------|--(0)------------------------|
|
|   PM-----|     PM|     PM----|         PM             ~~~
|   S  S S S S S S S S S S S S S S S     E   E q   E E  Q
|------------------------------------|-----------------------------|
|------------------------------------|------/4-3--/4-1-------------|
|------------------------------------|-----------------[3]---------|
|---0--0-0-0-1p0-0-0-1p0-0-0-0-0-1p0-|---0-------------------------|
|------------------------------------|-----------------------------|
|------------------------------------|-----------------------------|
|
|~~~~~~~~~~~~~~~~~~~~~~~~~~~~~~~~~~~~~~~~~~~
|  +W                                   +H                   H
|------------------------------------|-----------------------------|
|-(17)-------------------------------|-(17)-----------------17r----|
|------------------------------------|-----------------------------|
|------------------------------------|-----------------------------|
|------------------------------------|-----------------------------|
|------------------------------------|-----------------------------|


 Verse
  E E E  E E E E  E   E E E  E E E E E   E E E  E E E E  E   E E E E E E E E
|-------------------|------------------|-------------------|-----------------|
|-------------------|------------------|-------------------|---9-9-8-8-------|
|-------------------|------------------|-------------------|---x-x-x-x-3-3---|
|-------/8-------/8-|-------/8---------|-------/8-------/8-|---6-6-5-5-x-x-1-|
|-0-0-0-/6-0-0-0-/6-|-0-0-0-/6-0-0-0-1-|-0-0-0-/6-0-0-0-/6-|-0---------1-1-1-|
|-0-0-0----0-0-0----|-0-0-0----0-0-0-1p|=0-0-0----0-0-0----|-0-------------1-|
|
| E E E  E E E E  E   E E E  E E E E E   E E E  E E E E  E   E E E E E E E E
|-------------------|------------------|-------------------|-----------------|
|-------------------|------------------|-------------------|---9-9-8-8-------|
|-------------------|------------------|-------------------|---x-x-x-x-3-3---|
|-------/8-------/8-|-------/8---------|-------/8-------/8-|---6-6-5-5-x-x-1-|
|-0-0-0-/6-0-0-0-/6-|-0-0-0-/6-0-0-0-1-|-0-0-0-/6-0-0-0-/6-|-0---------1-1-1-|
|-0-0-0----0-0-0----|-0-0-0----0-0-0-1p|=0-0-0----0-0-0----|-0-------------1-|


                                                                           ~~~
  E E E  E E E E  E   E E E  E E E E E   E E E  E E E E  E   E  E q   E E  Q
|-------------------|------------------|-------------------|-------------------|
|-------------------|------------------|-------------------|-------------------|
|-------------------|------------------|-------------------|--------------[3]--|
|-------/8-------/8-|-------/8---------|-------/8-------/8-|-------------------|
|-0-0-0-/6-0-0-0-/6-|-0-0-0-/6-0-0-0-1-|-0-0-0-/6-0-0-0-/6-|-0-/6-5--/6-3------|
|-0-0-0----0-0-0----|-0-0-0----0-0-0-1p|=0-0-0----0-0-0----|-0-----------------|
|
|                                                                          ~~~
| E E E  E E E E  E   E E E  E E E E E   E E E  E E E E  E   E  E q   E E  Q
|-------------------|------------------|-------------------|-------------------|
|-------------------|------------------|-------------------|-------------------|
|-------------------|------------------|-------------------|--------------[3]--|
|-------/8-------/8-|-------/8---------|-------/8-------/8-|-------------------|
|-0-0-0-/6-0-0-0-/6-|-0-0-0-/6-0-0-0-1-|-0-0-0-/6-0-0-0-/6-|-0-/6-5--/6-3------|
|-0-0-0----0-0-0----|-0-0-0----0-0-0-1p|=0-0-0----0-0-0----|-0-----------------|


 Outro
  E E H.             +W
|------------------|---------------------|
|------------------|---------------------|
|------------------|---------------------|
|-5-5-5------------|-(5)-----------------|
|-5-5-5------------|-(5)-----------------|
|-5-5-5------------|-(5)-----------------|
|
| E E E  E E E E E   +E  E E E E E +E  E
|------------------|---------------------|
|-8-8-8--8-8-8-8-8-|-(8)-8-8-8-8---------|
|------------------|-------------8-(8)-8-|
|-5-5-5--5-5-5-5-4-|-(4)-4-4-4-4---------|
|------------------|-------------6-(6)-6-|
|------------------|---------------------|


   E  E  H.                   +W
|--------------------------|---------------------------|
|--------------------------|---------------------------|
|--------------------------|---------------------------|
|--8--8--8-----------------|--(8)----------------------|
|--8--8--8-----------------|--(8)----------------------|
|--8--8--8-----------------|--(8)----------------------|
|
|  E  E  E   E  E  E  E  E    +E   E  E  E  E  E  E  E
|--------------------------|---------------------------|
|-11-11-11--11-11-11-11-11-|-(11)-11-11-11-11-11-11-11-|
|--------------------------|---------------------------|
|--8--8--8---8--8--8--8--7-|--(7)--7--7--7--8--8--8--8-|
|--------------------------|---------------------------|
|--------------------------|---------------------------|


   E  E  H.              +W                  W          +W
|---------------------|--------------------|----------|--------|
|---------------------|--------------------|----------|--------|
|---------------------|--------------------|----------|--------|
|-10-10-10------------|-(10)---------------|-0--------|-(0)----|
|-10-10-10------------|-(10)---------------|-0--------|-(0)----|
|-10-10-10------------|-(10)---------------|-0--------|-(0)----|
|
|  E  E  E  E E E E E    +E  E E E E E E E   W          +W
|---------------------|--------------------|----------|--------|
|---------------------|--------------------|----------|--------|
|--5--5--5--5-5-5-5-5-|--(5)-5-5-5-5-5-5-5-|-7--------|-(7)----|
|---------------------|--------------------|----------|--------|
|--3--3--3--3-3-3-3-3-|--(3)-3-3-3-3-3-3-3-|-5--------|-(5)----|
|---------------------|--------------------|----------|--------|


  E E H.             +W
|------------------|----------------------|
|------------------|----------------------|
|------------------|----------------------|
|-5-5-5------------|-(5)------------------|
|-5-5-5------------|-(5)------------------|
|-5-5-5------------|-(5)------------------|
|
| E E E  E E E E E   +E  E E E E  E  E  E
|------------------|----------------------|
|-8-8-8--8-8-8-8-8-|-(8)-8-8-8-8-11-11-11-|
|------------------|----------------------|
|-5-5-5--5-5-5-5-4-|-(4)-4-4-4-4--8--8--8-|
|------------------|----------------------|
|------------------|----------------------|


   E E H.               +W
|---------------------|---------------------|
|---------------------|---------------------|
|---------------------|---------------------|
|--8-8-8--------------|-(8)-----------------|
|--6-6-6--------------|-(6)-----------------|
|---------------------|---------------------|
|
|  E E E  E E +E  E E   +E  E E E E E E E
|---------------------|---------------------|
|-11------------------|---------------------|
|----8-8--8-8-(8)-8-8-|-(8)-8-8-8-8-8-8-8---|
|--8------------------|---------------------|
|----6-6--6-6-(6)-6-6-|-(6)-5-5-5-5-6-6-6---|
|---------------------|---------------------|


  E E H.             +W                  W          +W
|------------------|-------------------|----------|--------|
|------------------|-------------------|----------|--------|
|------------------|-------------------|----------|--------|
|-5-5-5------------|-(5)---------------|-0--------|-(0)----|
|-3-3-3------------|-(3)---------------|-0--------|-(0)----|
|------------------|-------------------|-0--------|-(0)----|
|
| E E E  E E E E E   +E  E E E E E E E   W          +W
|------------------|-------------------|----------|--------|
|------------------|-------------------|----------|--------|
|-5-5-5--5-5-5-5-5-|-(5)-5-5-5-5-5-5-5-|-7--------|-(7)----|
|------------------|-------------------|----------|--------|
|-3-3-3--3-3-3-3-3-|-(3)-3-3-3-3-3-3-3-|-5--------|-(5)----|
|------------------|-------------------|----------|--------|


  +W                 +W           +W           +W
|------------------|------------|------------|--------*|
|------------------|------------|------------|--------*|
|------------------|------------|------------|--------*|
|-(0)--------------|-(0)--------|-(0)--------|-(0)----*|
|-(0)--------------|-(0)--------|-(0)--------|-(0)----*|
|-(0)--------------|-(0)--------|-(0)--------|-(0)----*|
|
|  Q.    Q.    Q      W           +W           +W
|------------------|------------|------------|--------*|
|------------------|------------|------------|--------*|
|--7-----5-----8---|--7---------|-(7)--------|-(7)----*|
|------------------|------------|------------|--------*|
|-(5)---(5)---(5)--|-(5)--------|-(5)--------|-(5)----*|
|------------------|------------|------------|--------*|

3. Aesthetics of Hate

legend:
( ): let note ring
^ : string bend
p : pull off
h : hammer on/off
* : artificial harmonic
/ : slide up/down
PM... : palm mute
x : mute string
ox: pick scrape
[]: second guitar (harmony)

Tuned down one and a half step


INTRO (clean)

C#|--------------------------|---------------|
G#|--------------------------|---------------|
E |---------------------3----|---------------|        8 TIMES
B |-------2----3----5--------|--5---3h5p3/2--|
F#|--------------------------|---------------|
C#|---0-(0)------------------|---------------|

Overdrive:

|-------------------------------------------------|
|-------------------------------------------------|
|-------------------------------------------------| (NOTE: THE CLEAN INTRO
|-------------------------8-----------------------|  CAN BE PLAYED THIS WAY
|------7----8------10-----------10-----8h10p8/7---|  BUT IT SOUNDS BETTER
|-0-0----0-----0-------0-----0------0-------------|  THE WAY IT IS ABOVE)
PM..     .     .       .     .      .

|---------------------------||---------------------------|
|---------------------------||---------------------------|
|---------------------------||---------------------------|
|-6-(6)---------------------||---------------------------|
|-6-(6)---------------------||---------------------ox----|
|-4-(4)---------------------||---------------------ox----|

|------------------------------[/13]----/16-----[/14]-|
|-------------/9---[/12]---/15------------------------|
|---/7--[/6]------------------------------------------|
|-----------------------------------------------------|
|-----------------------------------------------------|
|-----------------------------------------------------|


VERSE 1
|-------------------------------------------------|
|-------------------------------------------------|
|-------------------------------------------------|
|-------------------------8-----------------------|  
|------7----8------10-----------10-----8h10p8/7---|  
|-0-0----0-----0-------0-----0------0-------------|  
PM..     .     .       .     .      .

|---------------------------------------------|
|---------------------------------------------|
|---------------------------------------------|
|-----------------------------9----8----------|
|----------------------------------------7----|
|-6--6--7--6--9--6--7--9--6------6----6-------|

|-------------------------------------------------|
|-------------------------------------------------|
|-------------------------------------------------|
|-------------------------8-----------------------|  
|------7----8------10-----------10-----8h10p8/7---|  
|-0-0----0-----0-------0-----0------0-------------|  
PM..     .     .       .     .      .

|---------------------------------------------|
|---------------------------------------------|
|---------------------------------------------|
|-----------------------------6----8----------|
|----------------------------------------7----|
|-3--3--4--3--6--3--4--6--3------3----6-------|

________________________________________________________________
|-------------------------------------------------|             |
|-------------------------------------------------|
|-------------------------------------------------|
|-------------------------8-----------------------|  
|------7----8------10-----------10-----8h10p8/7---|  
|-0-0----0-----0-------0-----0------0-------------|  
PM..     .     .       .     .      .
|------------------------|
|------------------------|
|------------------------|   GUITAR 2
|-2-2--2--2--2--2--2--2--|   <-----
|-2-2--2--2--2--2--2--2--|
|-0-0--0--0--0--0--0--0--|
PM. .  .  .  .  .  .  .   <--HEAVY PALM MUTES
________________________________________________________________|


|---------------------------------------------|
|---------------------------------------------|
|---------------------------------------------|
|-----------------------------9----8----------|
|----------------------------------------7----|
|-6--6--7--6--9--6--7--9--6------6----6-------|

________________________________________________________________
|-------------------------------------------------|             |
|-------------------------------------------------|
|-------------------------------------------------|
|-------------------------8-----------------------|  
|------7----8------10-----------10-----8h10p8/7---|  
|-0-0----0-----0-------0-----0------0-------------|  
PM..     .     .       .     .      .
|------------------------------|
|------------------------------|
|------------------------------|     GUITAR 2
|-2--(2)-----------------------|     <-----
|-2--(2)-----------------ox----|
|-0--(0)-----------------ox----|
________________________________________________________________|

|---------------------------------------------|
|---------------------------------------------|
|---------------------------------------------|
|-----------------------------6----8----------|
|----------------------------------------7----|
|-3--3--4--3--6--3--4--6--3------3----6-------|



|---------------------------------------------|
|-------------------------------8---7---------|
|----------------------------------------7----|
|-5--5--6--5--8--5--6--5--8--5----5---5-------|
|---------------------------------------------|
|---------------------------------------------|


CHORUS

|--------------------------------------|
|--------------------------------------|
|--------------------------------------|    3
|-7---------10--------6-------3--------|  TIMES
|-x---------x---------x-------x--------|
|-5---------8---------4-------1--------|


|---------------------------|
|---------------------------|
|---------------------------|
|-3------3-3---3---2---6----|
|-3------3-3---3---2---6----|
|-1------1-1---1---0---4----|
PM       . . 

|---------------------------------|
|---------------------------------|
|---------------------------------|   4
|---------------------------------|   TIMES
|---------------------------------|
|-0-0-0-0--0--0--[0-0-0-0--0--0]--|


                                                   *
|------------------------------[/13]----/16-----[/14]-|
|-------------/9---[/12]---/15------------------------|
|---/7--[/6]------------------------------------------|
|-----------------------------------------------------|
|-----------------------------------------------------|
|-----------------------------------------------------|


VERSE 2
|-------------------------------------------------|
|-------------------------------------------------|
|-------------------------------------------------|
|-------------------------8-----------------------|  
|------7----8------10-----------10-----8h10p8/7---|  
|-0-0----0-----0-------0-----0------0-------------|  
PM..     .     .       .     .      .

|---------------------------------------------|
|---------------------------------------------|
|---------------------------------------------|
|-----------------------------9----8----------|
|----------------------------------------7----|
|-6--6--7--6--9--6--7--9--6------6----6-------|

|-------------------------------------------------|
|-------------------------------------------------|
|-------------------------------------------------|
|-------------------------8-----------------------|  
|------7----8------10-----------10-----8h10p8/7---|  
|-0-0----0-----0-------0-----0------0-------------|  
PM..     .     .       .     .      .

|---------------------------------------------|
|---------------------------------------------|
|---------------------------------------------|
|-----------------------------6----8----------|
|----------------------------------------7----|
|-3--3--4--3--6--3--4--6--3------3----6-------|

________________________________________________________________
|-------------------------------------------------|             |
|-------------------------------------------------|
|-------------------------------------------------|
|-------------------------8-----------------------|  
|------7----8------10-----------10-----8h10p8/7---|  
|-0-0----0-----0-------0-----0------0-------------|  
PM..     .     .       .     .      .
|------------------------|
|------------------------|
|------------------------|   GUITAR 2
|-2-2--2--2--2--2--2--2--|   <-----
|-2-2--2--2--2--2--2--2--|
|-0-0--0--0--0--0--0--0--|
PM. .  .  .  .  .  .  .   <--HEAVY PALM MUTES
________________________________________________________________|


|---------------------------------------------|
|---------------------------------------------|
|---------------------------------------------|
|-----------------------------9----8----------|
|----------------------------------------7----|
|-6--6--7--6--9--6--7--9--6------6----6-------|

________________________________________________________________
|-------------------------------------------------|             |
|-------------------------------------------------|
|-------------------------------------------------|
|-------------------------8-----------------------|  
|------7----8------10-----------10-----8h10p8/7---|  
|-0-0----0-----0-------0-----0------0-------------|  
PM..     .     .       .     .      .
|------------------------------|
|------------------------------|
|------------------------------|     GUITAR 2
|-2--(2)-----------------------|     <-----
|-2--(2)-----------------ox----|
|-0--(0)-----------------ox----|
________________________________________________________________|

|---------------------------------------------|
|---------------------------------------------|
|---------------------------------------------|
|-----------------------------6----8----------|
|----------------------------------------7----|
|-3--3--4--3--6--3--4--6--3------3----6-------|



|---------------------------------------------|
|-------------------------------8---7---------|
|----------------------------------------7----|
|-5--5--6--5--8--5--6--5--8--5----5---5-------|
|---------------------------------------------|
|---------------------------------------------|


CHORUS

|--------------------------------------|
|--------------------------------------|
|--------------------------------------|    3
|-7---------10--------6-------3--------|  TIMES
|-x---------x---------x-------x--------|
|-5---------8---------4-------1--------|


|---------------------------|
|---------------------------|
|---------------------------|
|-3------3-3---3---2---6----|
|-3------3-3---3---2---6----|
|-1------1-1---1---0---4----|
PM       . . 

|---------------------------------|
|---------------------------------|
|---------------------------------|   16
|---------------------------------|   TIMES
|---------------------------------|
|-0-0-0-0--0--0--[0-0-0-0--0--0]--|


BRIDGE PRT 1

|--------------------------------------|-----------------------------------|
|--------------------------------------|-----------------------------------|
|--------------------------------------|-----------------------------------|
|--------4-2-4---------4-2-4-----------|--------4-2-4---------4-2-4--------|
|-----------------------------0-3-0-3--|----------------------------0-3-0-3|
|-2-3-2---------2-3-2------------------|-2-3-2---------2-3-2---------------|

|--------------------------------------|------------------------------|
|--------------------------------------|------------------------*-----|
|--------------------------------------|------------------------4-----| DO 
|--------4-2-4---------4-2-4-----------|--------4-2-4---2-------------| TWICE
|-----------------------------0-3-0-3--|------------------3--2--------|
|-2-3-2---------2-3-2------------------|-2-3-2------------------------|

BRIDGE PRT 2


|--------------------------|--------------------------|
|----------------------15--|--------18-17-15----------|
|-------16-17-16-14--------|-17-16-----------17-16-14-|
|----14-------------17-----|--------------------------|
|-12-----------------------|--------------------------|
|--------------------------|--------------------------|
PM.  .  .
|--------------------------|--------------------------|
|----------------------15--|--------18-17-15----------|
|-------16-17-16-14--------|-17-16-----------17-16-14-|
|----14-------------17-----|--------------------------|
|-12-----------------------|--------------------------|
|--------------------------|--------------------------|
PM.  .  .

|--------------------------|--------------------------|
|----------------------15--|--------18-17-15----------|
|----17----17-16-14--------|-17-16-----------17-16-14-|
|-------------------17-----|--------------------------|
|--------------------------|--------------------------|
|-13-----------------------|--------------------------|

|--------------------------|--------------------------|
|----------------------15--|--------18-17-15----------|
|----17----17-16-14--------|-17-16-----------17-16-14-|
|-------------------17-----|--------------------------|
|--------------------------|--------------------------|
|-13-----------------------|--------------------------|

|-------------5-6-5-6----------|
|-5-6-5-6-5-6---------6-8-6-8--|
|------------------------------| DO 4 TIMES
|------------------------------|
|------------------------------|
|------------------------------|

REPEAT BRIDGE PRT 2 (sorry i dont know the harmony)

TRADE GUITAR SOLO
GUITAR 1 (ROBB FLYNN) (I DONT KNOW PHIL DEMMELS PART, SORRY)
|----------------------------------------------------|---------------------|
|---------------17-12-17-18-17-15--------------------|---------------------|
|-14-(14)--------------------------17-16-------------|---------------------|
|-----------------------------------------17-15-14---|--15-----14----15--14|
|----------------------------------------------------|---------------------|
|----------------------------------------------------|---------------------|

|-------|-------------------------|--------|--------------------------|
|-------|-------------------------|--------|----------15-18-17-15-----|
|-------|-------------------------|----13--|-14-16-17-------------17--|
|-------|-------12-14-15-14-12----|-14-----|--------------------------|
|----11-|-14-15----------------15-|--------|--------------------------|
|-12----|-------------------------|--------|--------------------------|

|----16-|-16-17-19-20-19-17-16-0--|-19-0-19-0-19-0-20-0-19-20-19-20-0-|
|-17----|-------------------------|-----------------------------------|
|-------|-------------------------|-----------------------------------|
|-------|-------------------------|-----------------------------------|
|-------|-------------------------|-----------------------------------|
|-------|-------------------------|-----------------------------------|

|--^------------------|--^-----------------|-17-15-13-15-13--13-------------|
|-20----19-20-19------|-20----19-20-19-----|---------------17--17-15--------|
|---------------------|--------------------|------------------------13-14-16|
|---------------------|--------------------|--------------------------------|
|---------------------|--------------------|--------------------------------|
|---------------------|--------------------|--------------------------------|

|---------------------------------|
|-18--------17--------18-------17-|
|---------------------------------|
|---------------------------------|
|---------------------------------|
|---------------------------------|

|-------|-------------------------|--------|--------------------------|
|-------|-------------------------|--------|----------15-18-17-15-----|
|-------|-------------------------|----13--|-14-16-17-------------17--|
|-------|-------12-14-15-14-12----|-14-----|--------------------------|
|----11-|-14-15----------------15-|--------|--------------------------|
|-12----|-------------------------|--------|--------------------------|

|----16-|-16-17-19-20-19-17-16-0--|-19-0-19-0-19-0-20-0-19-20-19-20-0-|
|-17----|-------------------------|-----------------------------------|
|-------|-------------------------|-----------------------------------|
|-------|-------------------------|-----------------------------------|
|-------|-------------------------|-----------------------------------|
|-------|-------------------------|-----------------------------------|

END OF SOLO
|---------------------------------------------|
|---------------------------------------------|
|---------------------------------------------|
|-7--------7---------3--------3-------3-------|
|-7--------7---------3--------3-------3-------|
|-5--------5---------1--------1-------1-------|

|-------0-------------------0----------|
|-------0-------------------0----------|
|-------0-------------------0----------|  play 4 times
|-2-----x------3-----2------x----------|
|-2-----x-------------------x----------|
|-0-----0------------------------------|



|--------------------------------------|
|--------------------------------------|
|--------------------------------------|    PLAY 3 TIMES DECREASING
|-7-------10-------6-------3-----------|    NOTE LENGTH EACH BAR
|-x-------x--------x-------x-----------|
|-5-------8--------4-------1-----------|


|--------------------------------------------|
|--------------------------------------------|
|--9-9-9-9-------------8-8-8-8---------------|
|----------12-12-12-12-----------------------|
|------------------------------10-10-10-10---|
|--------------------------------------------|


|-------------------------------------------|
|-------------------------------------------|
|-------------------------------------------|
|-3-------------------3-----3-3--3---2---6--|
|-3-------------------3-----3-3--3---2---6--|
|-1-------------------1-----1-1--1---0---4--|
 I HOPE YOU BURN!            BURN   IN HELL

|------------------------|
|------------------------|
|------------------------|   
|-2-2--2--2--2--2--2--2--|   
|-2-2--2--2--2--2--2--2--|
|-0-0--0--0--0--0--0--0--|
PM. .  .  .  .  .  .  .   <--HEAVY PALM MUTES

|------------------------|
|------------------------|
|------------------------|  
|-9-9--9--9--9--9--9--9--|   
|-7-7--7--7--7--7--7--7--|
|-0-0--0--0--0--0--0--0--|
PM. .  .  .  .  .  .  .   <--HEAVY PALM MUTES


|---------------------------------------------|
|---------------------------------------------|
|---------------------------------------------|
|-----------------------------6----8----------|
|----------------------------------------7----|
|-3--3--4--3--6--3--4--6--3------3----6-------|



|---------------------------------------------|
|-------------------------------8---7---------|
|----------------------------------------7----|
|-5--5--6--5--8--5--6--5--8--5----5---5-------|
|---------------------------------------------|
|---------------------------------------------|


|--------------------------|---------------|
|--------------------------|---------------|
|---------------------3----|---------------| 8 TIMES
|-------2----3----5--------|--5---3h5p3/2--|
|--------------------------|---------------|
|---0-(0)------------------|---------------|
MAY THE HAND OF GOD STRIKE THEM DOWN


|------------------------------------------------|
|------------------------------------------------|
|------------------------------------------------| 
|------2-------3-----5----8-----5-----3-/-5---2--|
|-2-2--2-------3-----5----8-----5-----3-/-5---2--|
|-0-0--0-------1-----3----6-----3-----1-/-3---0--|
PM. .  

|------------------------------------------------|
|----------------------------------------*--*-*--|
|----------------------------------------5--5-5--| 
|------2-------3-----5----8-----5-----3----------|
|-2-2--2-------3-----5----8-----5-----3----------|
|-0-0--0-------1-----3----6-----3-----1----------|
PM. .  

4. Now I Lay Thee Down

legend:
( ): let note ring
^ : string bend
p : pull off
T : tap
h : hammer on/off
* : artificial harmonic
/ : slide up/down
PM... : palm mute
x : mute string
ox: pick scrape
[]: second guitar (harmony)

TUNED DROP B

INTRO                           REPEAT BAR 4 TIMES
C#|-18--|---18------------17-----------15-------------13----12----13------|
G#|-15--|------15-15-15------15-15-15-----15-15-15-------15----15---15----|
E |-----|-----------------------------------------------------------------|
B |-----|-----------------------------------------------------------------|
F#|-----|-----------------------------------------------------------------|
B |-----|-----------------------------------------------------------------|


FILL
|-----------------------|
|-----------------------|
|--5/8--8--8--8--8--8---|
|--x-x--x--x--x--x--x---|
|--3/6--6--6--6--6--6---|
|-----------------------|


MAIN RIFF (play twice then play fill)
|-----------------------------------------|------------------------|
|-----------------------------------------|------------------------|
|-----------------------------------------|--5/8--8--8--8--8--8----| REPEAT 
|-----------------------------------------|--x-x--x--x--x--x--x----|  TWICE
|-----------------------------------------|--3/6--6--6--6--6--6----|
|-8-0--0-0-7-0--0-0-5-0--0-0-3-0-2-0-3-0--|------------------------|


PRE-VERSE
|-----------------------------------------------|
|-----------------------------------------------|
|---8--8--8---8--8--8---8--8--8---5-5-5-5-5-----|
|---8--8--8---8--8--8---8--8--8---5-5-5-5-5-----|
|-0-6--6--6-0-6--6--6-0-6--6--6-0-3-3-3-3-3-----|
|-0---------0---------0---------0---------------|
PM.         .         .         .

VERSE

BOTH GUITARS MUTED IN VERSE
BASS PLAYS MAIN RIFF


PRE-CHORUS
|-----------------------------------------------|
|-----------------------------------------------|
|---8--8--8---8--8--8---8--8--8---5-5-5-5-5-----|
|---8--8--8---8--8--8---8--8--8---5-5-5-5-5-----|
|-0-6--6--6-0-6--6--6-0-6--6--6-0-3-3-3-3-3-----|
|-0---------0---------0---------0---------------|
PM.         .         .         .


CHORUS
|-----------------------------|-----------------------------------------|
|-----------------------------|-----------------------------------------|
|-----------------------------|-----------------------------------------| 
|-8------------8----7---------|-----------------------------------------|  
|-8------------8----7---------|-----------------------------------------|
|-8------------8----7---------|-8-0--0-0-7-0--0-0-5-0--0-0-3-0-2-0-3-0--|
 DREAM         O - VER

PLAY 3 TIMES THEN:
  NOW      I        LAY       THEE         DOWN!
|-----------------------------------------------|
|-----------------------------------------------|
|---8--8--8---8--8--8---8--8--8---5-5-5-5-5-----|
|---8--8--8---8--8--8---8--8--8---5-5-5-5-5-----|
|-0-6--6--6-0-6--6--6-0-6--6--6-0-3-3-3-3-3-----|
|-0---------0---------0---------0---------------|
PM.         .         .         .

MAIN RIFF (play twice then play fill)
|-----------------------------------------|------------------------|
|-----------------------------------------|------------------------|
|-----------------------------------------|--5/8--8--8--8--8--8----| PLAY 
|-----------------------------------------|--x-x--x--x--x--x--x----| ONCE
|-----------------------------------------|--3/6--6--6--6--6--6----|
|-8-0--0-0-7-0--0-0-5-0--0-0-3-0-2-0-3-0--|------------------------|


SECOND VERSE

BOTH GUITARS MUTED IN VERSE
BASS PLAYS MAIN RIFF


PRE-CHORUS
|-----------------------------------------------|
|-----------------------------------------------|
|---8--8--8---8--8--8---8--8--8---5-5-5-5-5-----|
|---8--8--8---8--8--8---8--8--8---5-5-5-5-5-----|
|-0-6--6--6-0-6--6--6-0-6--6--6-0-3-3-3-3-3-----|
|-0---------0---------0---------0---------------|
PM.         .         .         .


SECOND CHORUS
|-----------------------------|-----------------------------------------|
|-----------------------------|-----------------------------------------|
|-----------------------------|-----------------------------------------| 
|-8------------8----7---------|-----------------------------------------|  
|-8------------8----7---------|-----------------------------------------|
|-8------------8----7---------|-8-0--0-0-7-0--0-0-5-0--0-0-3-0-2-0-3-0--|
 DREAM         O - VER

PLAY 3 TIMES THEN:
  NOW      I        LAY       THEE         DOWN!
|-----------------------------------------------|
|-----------------------------------------------|
|---8--8--8---8--8--8---8--8--8---5-5-5-5-5-----|
|---8--8--8---8--8--8---8--8--8---5-5-5-5-5-----|
|-0-6--6--6-0-6--6--6-0-6--6--6-0-3-3-3-3-3-----|
|-0---------0---------0---------0---------------|
PM.         .         .         .


INTERLUDE
   T    T    T     T     T     T     T     T     T     T     T     T
|----------------------------------------------------------------------|
|----------------------------------------------------------------------|
|--7-2--9-2--10-2--12-2--10-2--12-2--14-2--12-2--10-2--12-2--10-2--5-2-|
|----------------------------------------------------------------------|
|----------------------------------------------------------------------|
|----------------------------------------------------------------------|
REPEAT ABOUT 8 TIMES


BRIDGE
|--------------------------------------------------------------------------|
|--------------------------------------------------------------------------|
|--------------8-8-8-8---------------------------------------8-8-8-8-------|
|--------------8-8-8-8---------------3-----------------------8-8-8-8-------|
|-0--7--0---0--6-6-6-6--0--7--0---0----6--5--3--0--7--0---0--6-6-6-6-------|
|-0--7--0---0-----------0--7--0---0-------------0--7--0---0----------------|

|--------------------------------|
|--------------------------------|
|----------------12-12-12--------| PLAY TWICE
|----------------x--x--x---------|
|-0--7--0---0--8-10-10-10--------|
|-0--7--0---0--------------------|


BRDGE PRT 2
|---------------------------|
|---------------------------|
|---------------------------|
|---------------------------|  PLAY 4 TIMES
|---------------------------|
|-3-1-0-3-1-0-4-3-1-4-3-1---|


       PLAY TWICE       3RD TIME PLAY:
|-------------------------|-------------------------------------------------|
|-------------------------|-------------------------------------------------|
|-------------------------|-------------22-20-19-22-20-19-23-22-20-22-20-19-|
|-4-3-1-3-1-0-3-1-0-3-1-0-|-4-3-1-3-1-0-------------------------------------|
|-------------------------|-------------------------------------------------|
|-------------------------|-------------------------------------------------|


BRIDGE PRT 3
(not sure but something like:)
|------------------|
|------------------|
|------------------|   REPEAT AROUND 7 OR 8 TIMES
|-5--5-5-5---5-----|
|-5--5-5-5---5-----|
|-5--5-5-5---5-----|
PM.  . . .         HEAVY PALM MUTES


PRE SOLO BREAK
|---18------------17-----------15-------------13----12----13------|
|------15-15-15------15-15-15-----15-15-15-------15----15---15----|
|-----------------------------------------------------------------| PLAY 4 
|-----------------------------------------------------------------| TIMES
|-----------------------------------------------------------------|
|-----------------------------------------------------------------|

4a. Now I Lay Thee Down Solo

Tuning = Drop B

h   - hammer-on
p   - pull-off
b   - bend
tremolo  - tremolo picking
~   - vibrato
/   - slide
PH  - artificial harmonic


I admit I got help tabbing this solo from my guitar teacher and hes a great guitarist so 
is very accurate and it sound right when I play it.

e[--------------------]-------------------]-------------------]
B[--------------------]-------------------]-------------------]
G[-14p10----14p10-----]-14p10----14p10----]-15p10----14p10----]
D[-------12-------12--]-------12-------12-]-------12-------12-]
A[--------------------]-------------------]-------------------]
E[--------------------]-------------------]-------------------]

e[-------------------]--------------]--------------------------]
B[-13p10----13p10----]--13b~~~~-----]-10h13p10----10h13p10-----]
G[-------10-------10-]--------------]----------12-----------12-]
D[-------------------]--------------]--------------------------]
A[-------------------]--------------]--------------------------]
E[-------------------]--------------]--------------------------]

e[-----------------------------------]-------------------]-------------------|
B[-10b-------------------------------]-------------------]-------------------|
G[-10b--12p10----10p0----------------]-14p10----14p10----]-14p10----14p10----|
D[------------12------12p0-10p0------]-------12-------12-]-------12------12--|
A[-----------------------------10PH~-]-------------------]-------------------|
E[-----------------------------------]-------------------]-------------------|

e[-------------------]-------------------]------15tremolo---------------]
B[-------------------]-13p10----13p10----]------------------------------]
G[-15p10----14p10----]-------10-------10-]------------------------------]
D[-------12-------12-]-------------------]------------------------------]
A[-------------------]-------------------]------------------------------]
E[-------------------]-------------------]------------------------------]

e[--13tremolo----12tremolo----13tremolo-]--15tremolo--13tremolo--12tremolo-]
B[--------------------------------------]----------------------------------]
G[--------------------------------------]----------------------------------]
D[--------------------------------------]----------------------------------]
A[--------------------------------------]----------------------------------]
E[--------------------------------------]----------------------------------]

e[-------------------]-------------------]--------------------]
B[-------------------]-------------------]--------------------]
G[-14p10----14p10----]-14p10----14p10----]-15p10----13p10-----]
D[-------12-------12-]-------12-------12-]-------12-------10--]
A[-------------------]-------------------]--------------------]
E[-------------------]-------------------]--------------------]

e[-------------------]----------------]------------------]
B[-13p10----13p10----]----------------]------------------]
G[-------10-------10-]-9h10p9h10p9----]-9h10p9h10/12/10--]
D[-------------------]-------------12-]------------------]
A[-------------------]----------------]------------------]
E[-------------------]----------------]------------------]

e[----------------]------------------]--------------------]
B[----------------]-10---------------]--------------------]
G[-9h10p9h10p9----]----12p10p9-------]--14p10----14p10----]
D[-------------12-]------------12p10-]--------12-------12-]
A[----------------]------------------]--------------------]
E[----------------]------------------]--------------------]

e[-------------------]--------------------]-----------------]
B[-------------------]--------------------]-----------------]
G[-14p10----14p10----]-15p10----14p10-----]-12p9----12p9----]
D[-------12-------12-]-------12-------12--]------10------10-]
A[-------------------]--------------------]-----------------]
E[-------------------]--------------------]-----------------]

e[----------------]----------------]---11-----]--11-----]---11-----]
B[----------------]----------------]---14b~~--]--14b~~--]---14b~~--]
G[--10p7---10p7---]--10p7---10p7---]----------]---------]----------]
D[-------8------8-]-------8------8-]----------]---------]----------]
A[----------------]----------------]----------]---------]----------]
E[----------------]----------------]----------]---------]----------]

e[---13-----]---15-----]---15-----]---18-----]
B[---16b~~--]---18b~~--]---18b~~--]---21b~~--]
G[----------]----------]----------]----------]
D[----------]----------]----------]----------]
A[----------]----------]----------]----------]
E[----------]----------]----------]----------]

5. Slanderous

Gtr I (B F# B E G# C#) - 'Untitled'
Gtr II (B F# B E G# C#) - 'Untitled'
Gtr III (B Gb B E Ab Db) - 'Untitled'
Gtr IV (B Gb B E Ab Db) - 'Untitled'

 Intro
  Q=160
 4/4
  Gtr I
|---------|-------------------------|-----------------------------|
|---------|-------------------------|-----------------------------|
|---------|-8-7-5-7-5---5-----------|-10-8-7-8-7----7-------------|
|---------|-----------8---8-7-5-----|------------10---10-8-7------|
|---------|---------------------8-6-|------------------------10-8-|
|---------|-------------------------|-----------------------------|
|
| Gtr II
|---------|-------------------------|-----------------------------|
|---------|-------------------------|-----------------------------|
|---------|-8-7-5-7-5---5-----------|-10-8-7-8-7----7-------------|
|---------|-----------8---8-7-5-----|------------10---10-8-7------|
|---------|---------------------8-6-|------------------------10-8-|
|---------|-------------------------|-----------------------------|


|-----------------------|-----------------------|-----------------------|
|-----------------------|-----------------------|-----------------------|
|-----------------5-7-8-|-----------------5-7-8-|-----------------5-7-5-|
|-----------5-7-8-------|-----------5-7-8-------|-----------5-7-8-------|
|-----5-6-8-------------|-----5-6-8-------------|-----5-6-8-------------|
|-0-0-------------------|-0-0-------------------|-0-0-------------------|
|
|-----------------------|-----------------------|-----------------------|
|-----------------------|-----------------------|-----------------------|
|-----------------------|-----------------------|-----------------------|
|-----------------------|-----------------------|-----------------------|
|-----------------------|-----------------------|-----------------------|
|-0-0-------------------|-0-0-------------------|-0-0-------------------|


|-------------------------|-----------------------|------------------------|
|-------------------------|-----------------------|------------------------|
|-8-7-5-7-5---5-----------|-----------------5-7-8-|-----------------5-7-8--|
|-----------8---8-7-5-----|-----------5-7-8-------|-----------5-7-8--------|
|---------------------8-6-|-----5-6-8-------------|-----5-6-8--------------|
|-------------------------|-0-0-------------------|-0-0--------------------|
|
|-------------------------|-----------------------|------------------------|
|-------------------------|-----------------------|------------------------|
|-8-7-5-7-5---5-----------|-----------------------|------------------------|
|-----------8---8-7-5-----|-----------------------|------------------------|
|---------------------8-6-|-----------------------|------------------------|
|-------------------------|-0-0-------------------|-0-0--------------------|


                                       ~~~
|-----------------------|--------------------------------|
|-----------------------|--------------------------------|
|-----------------5-7-5-|-8-7-5-7-5---[7]-------(7)------|
|-----------5-7-8-------|-----------8--------------------|
|-----5-6-8-------------|--------------------------------|
|-0-0-------------------|--------------------------------|
|
|-----------------------|--------------------------------|
|-----------------------|--------------------------------|
|-----------------------|-8-7-5-7-5----5-----------------|
|-----------------------|-----------8-----8-7-5----------|
|-----------------------|------------------------8--6----|
|-0-0-------------------|--------------------------------|


|-----------------------|-----------------------|-----------------------|
|-----------------------|-----------------------|-----------------------|
|-----------------5-7-8-|-----------------5-7-8-|-----------------5-7-5-|
|-----------5-7-8-------|-----------5-7-8-------|-----------5-7-8-------|
|-----5-6-8-------------|-----5-6-8-------------|-----5-6-8-------------|
|-0-0-------------------|-0-0-------------------|-0-0-------------------|
|
|-----------------------|-----------------------|-----------------------|
|-----------------------|-----------------------|-----------------------|
|-----------------5-7-8-|-----------------5-7-8-|-----------------5-7-5-|
|-----------5-7-8-------|-----------5-7-8-------|-----------5-7-8-------|
|-----5-6-8-------------|-----5-6-8-------------|-----5-6-8-------------|
|-0-0-------------------|-0-0-------------------|-0-0-------------------|


|-------------------------|-----------------------|------------------------|
|-------------------------|-----------------------|------------------------|
|-8-7-5-7-5---5-----------|-----------------5-7-8-|-----------------5-7-8--|
|-----------8---8-7-5-----|-----------5-7-8-------|-----------5-7-8--------|
|---------------------8-6-|-----5-6-8-------------|-----5-6-8--------------|
|-------------------------|-0-0-------------------|-0-0--------------------|
|
|-------------------------|-----------------------|------------------------|
|-------------------------|-----------------------|------------------------|
|-8-7-5-7-5---5-----------|-----------------5-7-8-|-----------------5-7-8--|
|-----------8---8-7-5-----|-----------5-7-8-------|-----------5-7-8--------|
|---------------------8-6-|-----5-6-8-------------|-----5-6-8--------------|
|-------------------------|-0-0-------------------|-0-0--------------------|


|-----------------------|---------------------------------|
|-----------------------|---------------------------------|
|-----------------5-7-5-|--8--7-5--7-5----5---------------|
|-----------5-7-8-------|---------------8----8--7-5-------|
|-----5-6-8-------------|----------------------------8--6-|
|-0-0-------------------|---------------------------------|
|
|-----------------------|---------------------------------|
|-----------------------|---------------------------------|
|-----------------5-7-5-|-12-10-8-10-8----8---------------|
|-----------5-7-8-------|--------------12---12-10-8-------|
|-----5-6-8-------------|---------------------------12-10-|
|-0-0-------------------|---------------------------------|


|-------------------------------------|
|-------------------------------------|
|-10--8--7--8--7-----7----------------|
|----------------10----10--8--7-------|
|-------------------------------10--8-|
|-------------------------------------|
|
|-------------------------------------|
|-------------------------------------|
|-14-12-10-12-10----10----------------|
|----------------13----13-12-10-------|
|-------------------------------13-12-|
|-------------------------------------|


|--------------------------------|
|--------------------------------|
|--------------------------------|
|-0-0-13-0-13-0-15-0-16-15-13----|
|--------------------------------|
|--------------------------------|
|
|--------------------------------|
|--------------------------------|
|--------------------------------|
|-0------------------------------|
|-0------------------------------|
|-0------------------------------|


   Verse
||------------------------|-----------------------|------------------------|
||o-----------------------|-----------------------|------------------------|
||------------------------|-----------------------|------------------------|
||------------------------|-----------------------|------------------------|
||o-----------------------|-----------------------|------------------------|
||--0-0-1-0-1-0-3-0-4-3-1-|-0-0-1-0-1-0-3-0-4-3-1-|-0-0-1-0-1-0-3-0-4-3-1--|
|
||------------------------|-----------------------|------------------------|
||o-----------------------|-----------------------|------------------------|
||------------------------|-----------------------|------------------------|
||------------------------|-----------------------|------------------------|
||o-----------------------|-----------------------|------------------------|
||--0-0-1-0-1-0-3-0-4-3-1-|-0-0-1-0-1-0-3-0-4-3-1-|-0-0-1-0-1-0-3-0-4-3-1--|


|-----------------------|-----------------------|
|-----------------------|-----------------------|
|-------3-3-3-3-3-3-2-2-|-----------------------|
|-------x-x-x-x-x-x-x-x-|-----------------------|
|-------1-1-1-1-1-1-0-0-|-----------------------|
|-0-0-0-----------------|-0-0-1-0-1-0-3-0-4-3-1-|
|
|-----------------------|-----------------------|
|-----------------------|-----------------------|
|-------3-3-3-3-3-3-2-2-|-----------------------|
|-------x-x-x-x-x-x-x-x-|-----------------------|
|-------1-1-1-1-1-1-0-0-|-----------------------|
|-0-0-0-----------------|-0-0-1-0-1-0-3-0-4-3-1-|


|-----------------------|-----------------------|
|-----------------------|-----------------------|
|-----------------------|-----------------------|
|-----------------------|-----------------------|
|-----------------------|-----------------------|
|-0-0-1-0-1-0-3-0-4-3-1-|-0-0-1-0-1-0-3-0-4-3-1-|
|
|-----------------------|-----------------------|
|-----------------------|-----------------------|
|-----------------------|-----------------------|
|-----------------------|-----------------------|
|-----------------------|-----------------------|
|-0-0-1-0-1-0-3-0-4-3-1-|-0-0-1-0-1-0-3-0-4-3-1-|


|------------------------||----------------------|
|-----------------------o||----------------------|
|-------3-3-3-3-3-3-5-5--||----------------------|
|-------x-x-x-x-x-x-x-x--||----------------------|
|-------1-1-1-1-1-1-3-3-o||------6-6-6-6-6-6-5-3-|
|-0-0-0------------------||-0-0------------------|
|
|------------------------||----------------------|
|-----------------------o||----------------------|
|-------3-3-3-3-3-3-5-5--||----------------------|
|-------x-x-x-x-x-x-x-x--||----------------------|
|-------1-1-1-1-1-1-3-3-o||------6-6-6-6-6-6-5-3-|
|-0-0-0------------------||-0-0------------------|


|----------------------|----------------------|----------------------|
|----------------------|----------------------|----------------------|
|----------------------|----------------------|----------------------|
|----------------------|------5-5-5-5-5-5-----|------8-8-8-8-8-8-7-5-|
|------8-8-8-8-8-8-6-5-|------------------8-6-|----------------------|
|-0-0------------------|-0-0------------------|-0-0------------------|
|
|----------------------|----------------------|----------------------|
|----------------------|----------------------|----------------------|
|----------------------|----------------------|----------------------|
|----------------------|------5-5-5-5-5-5-----|------8-8-8-8-8-8-7-5-|
|------8-8-8-8-8-8-6-5-|------------------8-6-|----------------------|
|-0-0------------------|-0-0------------------|-0-0------------------|


|----------------------|----------------------------|
|----------------------|----------------------------|
|----------------------|----------------------------|
|------5-5-5-5-5-5-----|-------7--7--7--7--7--7-5---|
|------------------8-6-|--------------------------8-|
|-0-0------------------|-0-0------------------------|
|
|----------------------|----------------------------|
|----------------------|----------------------------|
|------8-8-8-8-8-8-7-5-|------10-10-10-10-10-10-8-7-|
|----------------------|----------------------------|
|----------------------|----------------------------|
|-0-0------------------|-0-0------------------------|


|-----------------------------|------------------------------|
|-----------------------------|------------------------------|
|-----------------------------|-------8--8--8--8--8--8--8--8-|
|-------8--8--8--8--8--8--7-5-|------------------------------|
|-----------------------------|------------------------------|
|-0-0-------------------------|-0-0--------------------------|
|
|-----------------------------|------------------------------|
|-----------------------------|------------------------------|
|------12-12-12-12-12-12-10-8-|------15-14-15-14-15-14-15-14-|
|-----------------------------|------------------------------|
|-----------------------------|------------------------------|
|-0-0-------------------------|-0-0--------------------------|


 Chorus
  Gtrs I, II
|-----------|------------------|-----------|-------------|
|-----------|------------------|-----------|-------------|
|-----------|------------------|-----------|-------------|
|-0----7----|-3----3-1-0-------|-0----7----|-1-----------|
|-0----7----|-3----------3-1-0-|-0----7----|-1-1-1-1-1-1-|
|-0----7----|-3----------------|-0----7----|-1-1-1-1-1-1-|


|-----------|------------------|-----------|-------------|
|-----------|------------------|-----------|-------------|
|-----------|------------------|-----------|-------------|
|-0----7----|-3----7-5-3-------|-0----7----|-1-----------|
|-0----7----|-3----------6-5-3-|-0----7----|-1-1-1-1-1-1-|
|-0----7----|-3----------------|-0----7----|-1-1-1-1-1-1-|


  Gtr I
|--------------------------------|
|--------------------------------|
|--------------------------------|
|-0-0-13-0-13-0-15-0-16-15-13----|
|--------------------------------|
|--------------------------------|
|
| Gtr II
|--------------------------------|
|--------------------------------|
|--------------------------------|
|-0------------------------------|
|-0------------------------------|
|-0------------------------------|


   Verse
||------------------------|-----------------------|------------------------|
||o-----------------------|-----------------------|------------------------|
||------------------------|-----------------------|------------------------|
||------------------------|-----------------------|------------------------|
||o-----------------------|-----------------------|------------------------|
||--0-0-1-0-1-0-3-0-4-3-1-|-0-0-1-0-1-0-3-0-4-3-1-|-0-0-1-0-1-0-3-0-4-3-1--|
|
||------------------------|-----------------------|------------------------|
||o-----------------------|-----------------------|------------------------|
||------------------------|-----------------------|------------------------|
||------------------------|-----------------------|------------------------|
||o-----------------------|-----------------------|------------------------|
||--0-0-1-0-1-0-3-0-4-3-1-|-0-0-1-0-1-0-3-0-4-3-1-|-0-0-1-0-1-0-3-0-4-3-1--|


|-----------------------|-----------------------|
|-----------------------|-----------------------|
|-------3-3-3-3-3-3-2-2-|-----------------------|
|-------x-x-x-x-x-x-x-x-|-----------------------|
|-------1-1-1-1-1-1-0-0-|-----------------------|
|-0-0-0-----------------|-0-0-1-0-1-0-3-0-4-3-1-|
|
|-----------------------|-----------------------|
|-----------------------|-----------------------|
|-------3-3-3-3-3-3-2-2-|-----------------------|
|-------x-x-x-x-x-x-x-x-|-----------------------|
|-------1-1-1-1-1-1-0-0-|-----------------------|
|-0-0-0-----------------|-0-0-1-0-1-0-3-0-4-3-1-|


|-----------------------|-----------------------|
|-----------------------|-----------------------|
|-----------------------|-----------------------|
|-----------------------|-----------------------|
|-----------------------|-----------------------|
|-0-0-1-0-1-0-3-0-4-3-1-|-0-0-1-0-1-0-3-0-4-3-1-|
|
|-----------------------|-----------------------|
|-----------------------|-----------------------|
|-----------------------|-----------------------|
|-----------------------|-----------------------|
|-----------------------|-----------------------|
|-0-0-1-0-1-0-3-0-4-3-1-|-0-0-1-0-1-0-3-0-4-3-1-|


|------------------------||----------------------|
|-----------------------o||----------------------|
|-------3-3-3-3-3-3-5-5--||----------------------|
|-------x-x-x-x-x-x-x-x--||----------------------|
|-------1-1-1-1-1-1-3-3-o||------6-6-6-6-6-6-5-3-|
|-0-0-0------------------||-0-0------------------|
|
|------------------------||----------------------|
|-----------------------o||----------------------|
|-------3-3-3-3-3-3-5-5--||----------------------|
|-------x-x-x-x-x-x-x-x--||----------------------|
|-------1-1-1-1-1-1-3-3-o||------6-6-6-6-6-6-5-3-|
|-0-0-0------------------||-0-0------------------|


|----------------------|----------------------|----------------------|
|----------------------|----------------------|----------------------|
|----------------------|----------------------|----------------------|
|----------------------|------5-5-5-5-5-5-----|------8-8-8-8-8-8-7-5-|
|------8-8-8-8-8-8-6-5-|------------------8-6-|----------------------|
|-0-0------------------|-0-0------------------|-0-0------------------|
|
|----------------------|----------------------|----------------------|
|----------------------|----------------------|----------------------|
|----------------------|----------------------|----------------------|
|----------------------|------5-5-5-5-5-5-----|------8-8-8-8-8-8-7-5-|
|------8-8-8-8-8-8-6-5-|------------------8-6-|----------------------|
|-0-0------------------|-0-0------------------|-0-0------------------|


|----------------------|----------------------------|
|----------------------|----------------------------|
|----------------------|----------------------------|
|------5-5-5-5-5-5-----|-------7--7--7--7--7--7-5---|
|------------------8-6-|--------------------------8-|
|-0-0------------------|-0-0------------------------|
|
|----------------------|----------------------------|
|----------------------|----------------------------|
|------8-8-8-8-8-8-7-5-|------10-10-10-10-10-10-8-7-|
|----------------------|----------------------------|
|----------------------|----------------------------|
|-0-0------------------|-0-0------------------------|


|-----------------------------|------------------------------|
|-----------------------------|------------------------------|
|-----------------------------|-------8--8--8--8--8--8--8--8-|
|-------8--8--8--8--8--8--7-5-|------------------------------|
|-----------------------------|------------------------------|
|-0-0-------------------------|-0-0--------------------------|
|
|-----------------------------|------------------------------|
|-----------------------------|------------------------------|
|------12-12-12-12-12-12-10-8-|------15-14-15-14-15-14-15-14-|
|-----------------------------|------------------------------|
|-----------------------------|------------------------------|
|-0-0-------------------------|-0-0--------------------------|


 Chorus
|-----------|------------------|-----------|-------------|
|-----------|------------------|-----------|-------------|
|-----------|------------------|-----------|-------------|
|-0----7----|-3----3-1-0-------|-0----7----|-1-----------|
|-0----7----|-3----------3-1-0-|-0----7----|-1-1-1-1-1-1-|
|-0----7----|-3----------------|-0----7----|-1-1-1-1-1-1-|
|
|-----------|------------------|-----------|-------------|
|-----------|------------------|-----------|-------------|
|-----------|------------------|-----------|-------------|
|-0----7----|-3----3-1-0-------|-0----7----|-1-----------|
|-0----7----|-3----------3-1-0-|-0----7----|-1-1-1-1-1-1-|
|-0----7----|-3----------------|-0----7----|-1-1-1-1-1-1-|


|-----------|------------------|-----------|-------------|
|-----------|------------------|-----------|-------------|
|-----------|------------------|-----------|-------------|
|-0----7----|-3----7-5-3-------|-0----7----|-1-----------|
|-0----7----|-3----------6-5-3-|-0----7----|-1-1-1-1-1-1-|
|-0----7----|-3----------------|-0----7----|-1-1-1-1-1-1-|
|
|-----------|------------------|-----------|-------------|
|-----------|------------------|-----------|-------------|
|-----------|------------------|-----------|-------------|
|-0----7----|-3----7-5-3-------|-0----7----|-1-----------|
|-0----7----|-3----------6-5-3-|-0----7----|-1-1-1-1-1-1-|
|-0----7----|-3----------------|-0----7----|-1-1-1-1-1-1-|


 Breakdown
|-------------|---------------|---------------|---------------|----------------|
|-------------|---------------|---------------|---------------|----------------|
|-------------|---------------|---------------|---------------|----------------|
|-8-8-8-8-8-8-|---------------|---------------|---------------|----------------|
|-6-6-6-6-6-6-|---------------|---------------|---------------|----------------|
|-------------|---------------|---------------|---------------|----------------|
|
|                 PM--------------------------------------|
|-------------|---------------|---------------|---------------|----------------|
|-------------|---------------|---------------|---------------|----------------|
|-------------|---------------|---------------|---------------|----------------|
|-8-8-8-8-8-8-|-0-------------|---------------|---------------|----------------|
|-6-6-6-6-6-6-|-0-0-0-0-0-0---|-0-0-0-0-0-0---|-0-0-0-0-0-0---|-5S6-5S6-5S6----|
|-------------|-0-0-0-0-0-0---|-0-0-0-0-0-0---|-0-0-0-0-0-0---|----------------|


    PM------|      PM----------|    PM----|
|-------------|--------------|--------------|-------------------|
|-------------|-10-----------|---10---------|-------------------|
|-------------|-13-----------|---13---------|-------------------|
|-0-----------|--------------|--------------|-------------------|
|-0-0-0-0-0-0-|----0-0-0-0-0-|-0----0-0-0-0-|-5-/6-5-/6-5-/6----|
|-0-0-0-0-0-0-|----0-0-0-0-0-|-0----0-0-0-0-|-------------------|
|
|   PM------|      PM----------|    PM----|
|-------------|--------------|--------------|-------------------|
|-------------|-10-----------|---10---------|-------------------|
|-------------|-13-----------|---13---------|-------------------|
|-0-----------|--------------|--------------|-------------------|
|-0-0-0-0-0-0-|----0-0-0-0-0-|-0----0-0-0-0-|-5-/6-5-/6-5-/6----|
|-0-0-0-0-0-0-|----0-0-0-0-0-|-0----0-0-0-0-|-------------------|


    PM------|      PM----------|    PM----|
|-------------|--------------|----8---------|----------------|
|-------------|-10-----------|---10---------|----------------|
|-------------|-13-----------|---13---------|----------------|
|-0-----------|--------------|--------------|----------------|
|-0-0-0-0-0-0-|----0-0-0-0-0-|-0----0-0-0-0-|-5S6-5S6-5S6----|
|-0-0-0-0-0-0-|----0-0-0-0-0-|-0----0-0-0-0-|----------------|
|
|   PM------|      PM----------|    PM----|
|-------------|--------------|--------------|----------------|
|-------------|-10-----------|---10---------|----------------|
|-------------|-13-----------|---13---------|----------------|
|-0-----------|--------------|--------------|----------------|
|-0-0-0-0-0-0-|----0-0-0-0-0-|-0----0-0-0-0-|-5S6-5S6-5S6----|
|-0-0-0-0-0-0-|----0-0-0-0-0-|-0----0-0-0-0-|----------------|


    PM------|      PM-------------
|-------------|------------------|
|-------------|--5---------------|
|-------------|--4---------------|
|-2-----------|--2---------------|
|-2-2-2-2-2-2-|--2-2--2--2--2--2-|
|-2-2-2-2-2-2-|--2-2--2--2--2--2-|
|
|-------------|------------------|
|-------------|------------------|
|-------------|------------------|
|-------------|------------------|
|---------0-0-|-/2---(2)---(2)---|
|-2-2-2-5-----|------------------|


 -|     PM----|
|---------------|--------------------------------|
|-----5---------|--------------------------------|
|-----4---------|--------------------------------|
|-----2---------|-2S===3---2S====3---2S====3-----|
|--2--2-2-2-2-2-|--------------------------------|
|--2--2-2-2-2-2-|--------------------------------|
|
|---------------|--------------------------------|
|---------------|--------------------------------|
|-----------2-0-|-2b3r(2)-(2)b3r(2)-(2)b3r(2)----|
|-----2-2-5-----|--------------------------------|
|-(2)-----------|--------------------------------|
|---------------|--------------------------------|


    PM------|      PM-------------
|-------------|------------------|
|-------------|--7---------------|
|-------------|--6---------------|
|-4-----------|--4---------------|
|-4-4-4-4-4-4-|--4-4--4--4--4--4-|
|-4-4-4-4-4-4-|--4-4--4--4--4--4-|
|
|-------------|------------------|
|-------------|------------------|
|-------------|------------------|
|-------------|------------------|
|---------2-2-|-/4---(4)---(4)---|
|-4-4-4-7-----|------------------|


 -|     PM----|
|---------------|--------------------------------|
|-----7---------|--------------------------------|
|-----6---------|--------------------------------|
|-----4---------|-4S===5---4S====5---4S====5-----|
|--4--4-4-4-4-4-|--------------------------------|
|--4--4-4-4-4-4-|--------------------------------|
|
|---------------|--------------------------------|
|---------------|--------------------------------|
|-----------4-2-|-4b5r(4)-(4)b5r(4)-(4)b5r(4)----|
|-----4-4-7-----|--------------------------------|
|-(4)-----------|--------------------------------|
|---------------|--------------------------------|


|----------------|
|-7S8-7S8-7S8----|
|----------------|
|----------------|
|----------------|
|----------------|
|
|----------------|
|-7S8-7S8-7S8----|
|----------------|
|----------------|
|----------------|
|----------------|


 Pre-Guitar Solo
  Q=160
 4/4
  Gtr I
|----------|------------|------------|---------|
|----------|------------|------------|---------|
|----------|------------|------------|---------|
|-9--------|-(9)--------|-(9)--------|-(9)-----|
|-9--------|-(9)--------|-(9)--------|-(9)-----|
|-9--------|-(9)--------|-(9)--------|-(9)-----|
|
|----------|------------|------------|---------|
|----------|------------|------------|---------|
|----------|------------|------------|---------|
|-9--------|-(9)--------|--x\--------|-(x)\----|
|-9--------|-(9)--------|--x\--------|-(x)\----|
|-9--------|-(9)--------|--x\--------|-(x)\----|


 Guitar Solo
|--------------------------|------------------------------------------|
|--------------------------|------------------------------------------|
|--------------------------|----------------9b11r=7--9b11-------------|
|-7S9-9-9-9-9-12-9-9-9-9-9-|-11-9-9-12-9-9----------------------------|
|--------------------------|------------------------------------------|
|--------------------------|------------------------------------------|
|
|--------------------------|------------------------------------------|
|--------------------------|------------------------------------------|
|--------------------------|------------------------------------------|
|--------------------------|------------------------------------------|
|-9-9-9-9-9-9--9-9-9-9-9-9-|--9-9-9--9-9-9-10----10-10----12-12-12----|
|-9-9-9-9-9-9--9-9-9-9-9-9-|--9-9-9--9-9-9-10----10-10----12-12-12----|


|-------------------------------------|
|-10S12-12-12-12-12-15-12-12-12-12-15-|
|-------------------------------------|
|-------------------------------------|
|-------------------------------------|
|-------------------------------------|
|
|-------------------------------------|
|-------------------------------------|
|-------------------------------------|
|-------------------------------------|
|--9--9--9--9--9--9--9--9--9--9--9--9-|
|--9--9--9--9--9--9--9--9--9--9--9--9-|


|------------------------------------------|
|-17b19r15h17-15-14-15-14----14------------|
|-------------------------16-----14--16----|
|------------------------------------------|
|------------------------------------------|
|------------------------------------------|
|
|------------------------------------------|
|------------------------------------------|
|------------------------------------------|
|------------------------------------------|
|-12----14----15----14----15----(15)-------|
|-12----14----15----14----15----(15)-------|


|---------17---------17---------17---------17-|
|-17b19------17b19------17b19------17b19------|
|---------------------------------------------|
|---------------------------------------------|
|---------------------------------------------|
|---------------------------------------------|
|
|---------------------------------------------|
|---------------------------------------------|
|---------------------------------------------|
|---------------------------------------------|
|--9----9--9--9----9--9--9----9--9--9----9--9-|
|--9----9--9--9----9--9--9----9--9--9----9--9-|


|---------17---------17----------17----------17--|
|-17b19------17b19------17b19-------17b19--------|
|------------------------------------------------|
|------------------------------------------------|
|------------------------------------------------|
|------------------------------------------------|
|
|------------------------------------------------|
|------------------------------------------------|
|------------------------------------------------|
|------------------------------------------------|
|--9----9--9--9----9--9-10----10-10-12----12-12--|
|--9----9--9--9----9--9-10----10-10-12----12-12--|


|-14-15-14----14----------------14-15-17-|
|----------17----17-15-14-15-17----------|
|----------------------------------------|
|----------------------------------------|
|----------------------------------------|
|----------------------------------------|
|
|----------------------------------------|
|----------------------------------------|
|----------------------------------------|
|----------------------------------------|
|--9-----9--9--9--9--9--9--9--9--9--9--9-|
|--9-----9--9--9--9--9--9--9--9--9--9--9-|


                                 ~~~~~
|-21-22-21-19-21-19-17-------22---------------|
|----------------------22b24----22b24---------|
|---------------------------------------------|
|---------------------------------------------|
|---------------------------------------------|
|---------------------------------------------|
|
|---------------------------------------------|
|---------------------------------------------|
|---------------------------------------------|
|---------------------------------------------|
|-12-------14----15----14----15-------(15)----|
|-12-------14----15----14----15-------(15)----|


   PM--------------------------------------------------------------|
|---------------------------------|-------------------------------------|
|---------------------------------|-------------------------------------|
|---------------------------------|-------------------------------------|
|---------------------------------|-------------------------------------|
|--4----4-4-4--4----4-4-4-4-4-4-4-|--4----4---4--4--4-4--5-5-5-7-7-7----|
|--4----4-4-4--4----4-4-4-4-4-4-4-|--4----4---4--4--4-4--5-5-5-7-7-7----|
|
|              ~~~~~                                     ~~
|-19b21-------19b21---------------|-19b21r==(19)---18---19--------------|
|---------------------------------|-------------------------------------|
|---------------------------------|-------------------------------------|
|---------------------------------|-------------------------------------|
|---------------------------------|-------------------------------------|
|---------------------------------|-------------------------------------|


   PM------------------------------------|
|-------------------------------------------|
|-------------------------------------------|
|-------------------------------------------|
|-------------------------------------------|
|--4-----4--4--4--4--4--4-----4--4--4--4--4-|
|--4-----4--4--4--4--4--4-----4--4--4--4--4-|
|
|-18-19-18-15-18-14-15-14-15-14-12-14----12-|
|-------------------------------------15----|
|-------------------------------------------|
|-------------------------------------------|
|-------------------------------------------|
|-------------------------------------------|


|--------------------------------------|
|--------------------------------------|
|--------------------------------------|
|--------------------------------------|
|--7--------9----10-----9--10-(10)\----|
|--7--------9----10-----9--10-(10)\----|
|
|--------------------------------------|
|-14-15-14-12-14-----------------------|
|----------------14-16-15\-------------|
|--------------------------------------|
|--------------------------------------|
|--------------------------------------|


   PM----------------------------------------------------
|-------------------------------------------------------|
|-------------------------------------------------------|
|-------------------------------------------------------|
|-------------------------------------------------------|
|--4-----4--4-----4--4-----4--4-----4--4-----4--4-----4-|
|--4-----4--4-----4--4-----4--4-----4--4-----4--4-----4-|
|
|-------------------------------------------------------|
|-------------------------------------------------------|
|-------------------------------------------------------|
|----------------------------14-16-17-14-16-17-14-16-17-|
|-13-14-16-13-14-16-13-14-16----------------------------|
|-------------------------------------------------------|


 ----------------------------------------------------|
|----------------------------------------------------------|
|----------------------------------------------------------|
|----------------------------------------------------------|
|----------------------------------------------------------|
|--4-----4--4-----4--4-----4--5-----5--5-----7--7-----7----|
|--4-----4--4-----4--4-----4--5-----5--5-----7--7-----7----|
|
|----------------------------------------------------------|
|----------------------------14-15-17-14-15-17-14-15-17----|
|-15-16-18-15-16-18-15-16-18-------------------------------|
|----------------------------------------------------------|
|----------------------------------------------------------|
|----------------------------------------------------------|


   PM--------------------------|
|---------------------------------|---------------------------------|
|---------------------------------|---------------------------------|
|---------------------------------|---------------------------------|
|---------------------------------|---------------------------------|
|--4-4--4--4-4--4--4-4--4--4-4--4-|--7-9----10----9----10-(10)\-----|
|--4-4--4--4-4--4--4-4--4--4-4--4-|--7-9----10----9----10-(10)\-----|
|
|  TP   TP TP   TP TP   TP TP   TP   TP   TP    TP   TP     ~~~~~~
|-18------18------18------18------|-21---------21----------22b24----|
|------19------19------19------19-|------23---------23--------------|
|---------------------------------|---------------------------------|
|---------------------------------|---------------------------------|
|---------------------------------|---------------------------------|
|---------------------------------|---------------------------------|


|-------------------------------------|-------------------------------------|
|-------------------------------------|-------------------------------------|
|-16-14-13----13-14-16-14-13----13-14-|-17-16-14----14-16-17-16-14----14-16-|
|----------14----------------14-------|----------15----------------15-------|
|-------------------------------------|-------------------------------------|
|-------------------------------------|-------------------------------------|
|
|  PM--------------------------------------------------------------------|
|-------------------------------------|-------------------------------------|
|-------------------------------------|-------------------------------------|
|-------------------------------------|-------------------------------------|
|-------------------------------------|-------------------------------------|
|--5--5--5--5--5--5--5--5--5--5--5--5-|--7--7--7--7--7--7--7--7--7--7--7--7-|
|--5--5--5--5--5--5--5--5--5--5--5--5-|--7--7--7--7--7--7--7--7--7--7--7--7-|


|-------------------------------------|----------------------------------------|
|-------------------------------------|----------------------------------------|
|-19-17-16----16-17-19-17-16----16-17-|-21-19-17----17-19-21-19-17----17-19----|
|----------17----------------17-------|----------17----------------17----------|
|-------------------------------------|----------------------------------------|
|-------------------------------------|----------------------------------------|
|
|  PM--------------------------------------------------------------------|
|-------------------------------------|----------------------------------------|
|-------------------------------------|----------------------------------------|
|-------------------------------------|----------------------------------------|
|-------------------------------------|----------------------------------------|
|--9--9--9--9--9--9--9--9--9--9--9--9-|-10-10-10-10-10-10-10-10-10-10-10-10----|
|--9--9--9--9--9--9--9--9--9--9--9--9-|-10-10-10-10-10-10-10-10-10-10-10-10----|


                                                 /         |
   ~~~~~~~~~~~~~~~~~~~~~~~~~~~~~~~~~~~
|--------------|--------------|--------------|-----------------|
|--------------|--------------|--------------|-----------------|
|-22b24--------|-22b24--------|-24b27--------|-[24]------(24)--|
|--------------|--------------|--------------|-----------------|
|--------------|--------------|--------------|-----------------|
|--------------|--------------|--------------|-----------------|
|
|--------------|--------------|--------------|-----------------|
|--------------|--------------|--------------|-----------------|
|--------------|--------------|--------------|-----------------|
|-13-----------|-13-----------|-13-----------|--13-------------|
|-13-----------|-13-----------|-13-----------|--13-------------|
|-13-----------|-13-----------|-13-----------|--13-------------|


 Intro Riff
|-----------------------|-----------------------|-----------------------|
|-----------------------|-----------------------|-----------------------|
|-----------------5-7-8-|-----------------5-7-8-|-----------------5-7-5-|
|-----------5-7-8-------|-----------5-7-8-------|-----------5-7-8-------|
|-----5-6-8-------------|-----5-6-8-------------|-----5-6-8-------------|
|-0-0-------------------|-0-0-------------------|-0-0-------------------|
|
|-----------------------|-----------------------|-----------------------|
|-----------------------|-----------------------|-----------------------|
|-----------------------|-----------------------|-----------------------|
|-----------------------|-----------------------|-----------------------|
|-----------------------|-----------------------|-----------------------|
|-0-0-------------------|-0-0-------------------|-0-0-------------------|


|-------------------------|-----------------------|------------------------|
|-------------------------|-----------------------|------------------------|
|-8-7-5-7-5---5-----------|-----------------5-7-8-|-----------------5-7-8--|
|-----------8---8-7-5-----|-----------5-7-8-------|-----------5-7-8--------|
|---------------------8-6-|-----5-6-8-------------|-----5-6-8--------------|
|-------------------------|-0-0-------------------|-0-0--------------------|
|
|-------------------------|-----------------------|------------------------|
|-------------------------|-----------------------|------------------------|
|-8-7-5-7-5---5-----------|-----------------------|------------------------|
|-----------8---8-7-5-----|-----------------------|------------------------|
|---------------------8-6-|-----------------------|------------------------|
|-------------------------|-0-0-------------------|-0-0--------------------|


|-----------------------|---------------------------------|
|-----------------------|---------------------------------|
|-----------------5-7-5-|--8--7-5--7-5----5---------------|
|-----------5-7-8-------|---------------8----8--7-5-------|
|-----5-6-8-------------|----------------------------8--6-|
|-0-0-------------------|---------------------------------|
|
|-----------------------|---------------------------------|
|-----------------------|---------------------------------|
|-----------------------|-12-10-8-10-8----8---------------|
|-----------------------|--------------12---12-10-8-------|
|-----------------------|---------------------------12-10-|
|-0-0-------------------|---------------------------------|


|-------------------------------------|
|-------------------------------------|
|-10--8--7--8--7-----7----------------|
|----------------10----10--8--7-------|
|-------------------------------10--8-|
|-------------------------------------|
|
|-------------------------------------|
|-------------------------------------|
|-14-12-10-12-10----10----------------|
|----------------13----13-12-10-------|
|-------------------------------13-12-|
|-------------------------------------|


|--------------------------------|
|--------------------------------|
|--------------------------------|
|-0-0-13-0-13-0-15-0-16-15-13----|
|--------------------------------|
|--------------------------------|
|
|--------------------------------|
|--------------------------------|
|--------------------------------|
|--------------------------------|
|--------------------------------|
|-0------------------------------|


   Verse
    Gtrs I, II
||------------------------|-----------------------|----------------------|
||o-----------------------|-----------------------|----------------------|
||------------------------|-----------------------|----------------------|
||------------------------|-----------------------|----------------------|
||o-----------------------|-----------------------|----------------------|
||--0-0-1-0-1-0-3-0-4-3-1-|-0-0-1-0-1-0-3-0-4-3-1-|-0-0-1-0-1-0-3-0-4-3-1|


|-----------------------|-----------------------|
|-----------------------|-----------------------|
|-------3-3-3-3-3-3-2-2-|-----------------------|
|-------x-x-x-x-x-x-x-x-|-----------------------|
|-------1-1-1-1-1-1-0-0-|-----------------------|
|-0-0-0-----------------|-0-0-1-0-1-0-3-0-4-3-1-|


|-----------------------|-----------------------|
|-----------------------|-----------------------|
|-----------------------|-----------------------|
|-----------------------|-----------------------|
|-----------------------|-----------------------|
|-0-0-1-0-1-0-3-0-4-3-1-|-0-0-1-0-1-0-3-0-4-3-1-|


  Gtr I
|------------------------||----------------------|
|-----------------------o||----------------------|
|-------3-3-3-3-3-3-5-5--||----------------------|
|-------x-x-x-x-x-x-x-x--||----------------------|
|-------1-1-1-1-1-1-3-3-o||------6-6-6-6-6-6-5-3-|
|-0-0-0------------------||-0-0------------------|
|
| Gtr II
|------------------------||----------------------|
|-----------------------o||----------------------|
|-------3-3-3-3-3-3-5-5--||----------------------|
|-------x-x-x-x-x-x-x-x--||----------------------|
|-------1-1-1-1-1-1-3-3-o||------6-6-6-6-6-6-5-3-|
|-0-0-0------------------||-0-0------------------|


|----------------------|----------------------|----------------------|
|----------------------|----------------------|----------------------|
|----------------------|----------------------|----------------------|
|----------------------|------5-5-5-5-5-5-----|------8-8-8-8-8-8-7-5-|
|------8-8-8-8-8-8-6-5-|------------------8-6-|----------------------|
|-0-0------------------|-0-0------------------|-0-0------------------|
|
|----------------------|----------------------|----------------------|
|----------------------|----------------------|----------------------|
|----------------------|----------------------|----------------------|
|----------------------|------5-5-5-5-5-5-----|------8-8-8-8-8-8-7-5-|
|------8-8-8-8-8-8-6-5-|------------------8-6-|----------------------|
|-0-0------------------|-0-0------------------|-0-0------------------|


|----------------------|----------------------------|
|----------------------|----------------------------|
|----------------------|----------------------------|
|------5-5-5-5-5-5-----|-------7--7--7--7--7--7-5---|
|------------------8-6-|--------------------------8-|
|-0-0------------------|-0-0------------------------|
|
|----------------------|----------------------------|
|----------------------|----------------------------|
|------8-8-8-8-8-8-7-5-|------10-10-10-10-10-10-8-7-|
|----------------------|----------------------------|
|----------------------|----------------------------|
|-0-0------------------|-0-0------------------------|


|-----------------------------|------------------------------|
|-----------------------------|------------------------------|
|-----------------------------|-------8--8--8--8--8--8--8--8-|
|-------8--8--8--8--8--8--7-5-|------------------------------|
|-----------------------------|------------------------------|
|-0-0-------------------------|-0-0--------------------------|
|
|-----------------------------|------------------------------|
|-----------------------------|------------------------------|
|------12-12-12-12-12-12-10-8-|------15-14-15-14-15-14-15-14-|
|-----------------------------|------------------------------|
|-----------------------------|------------------------------|
|-0-0-------------------------|-0-0--------------------------|


 Out-Chorus
  Gtr III
|-------------|-------------|-------------|-------------|
|-------------|-------------|-------------|-------------|
|----7-----7--|----7-----7--|----7-----7--|----7-----7--|
|-------------|-------------|-------------|-------------|
|-5-----8-----|-5-----8-----|-5-----8-----|-6-----6-----|
|-------------|-------------|-------------|-------------|
|
| Gtr IV
|-------------|-------------|-------------|-------------|
|-------------|-------------|-------------|-------------|
|-------------|-------------|-------------|-------------|
|-------------|-------------|-------------|-------------|
|-------------|-------------|-------------|-------------|
|-------------|-------------|-------------|-------------|


|---------------|--------------|---------------|-------|
|---------------|--------------|---------------|-------|
|-----7------7--|-----7-----7--|-----7------7--|-------|
|---------------|--------------|---------------|-------|
|--5------8-----|--5-----8-----|--5------8-----|--6----|
|---------------|--------------|---------------|-------|
|
|-10------------|--------------|-10------------|-------|
|--------13-----|--------------|--------13-----|-------|
|---------------|-14-----------|---------------|-13----|
|---------------|--------------|---------------|-------|
|---------------|--------------|---------------|-------|
|---------------|--------------|---------------|-------|


  Gtr I
|-----------|------------------|-----------|-------------|
|-----------|------------------|-----------|-------------|
|-----------|------------------|-----------|-------------|
|-0----7----|-3----3-1-0-------|-0----7----|-1-----------|
|-0----7----|-3----------3-1-0-|-0----7----|-1-1-1-1-1-1-|
|-0----7----|-3----------------|-0----7----|-1-1-1-1-1-1-|
|
| Gtr II
|-----------|------------------|-----------|-------------|
|-----------|------------------|-----------|-------------|
|-----------|------------------|-----------|-------------|
|-0----7----|-3----3-1-0-------|-0----7----|-1-----------|
|-0----7----|-3----------3-1-0-|-0----7----|-1-1-1-1-1-1-|
|-0----7----|-3----------------|-0----7----|-1-1-1-1-1-1-|


                                                    ~~~
|-----------|------------------|-----------|-----------------|
|-----------|------------------|-----------|-----------------|
|-----------|------------------|-----------|-------[3]-------|
|-0----7----|-3----7-5-3-------|-0----7----|-1---------------|
|-0----7----|-3----------6-5-3-|-0----7----|-1-1-1-----------|
|-0----7----|-3----------------|-0----7----|-1-1-1-----------|
|
|-----------|------------------|-----------|-----------------|
|-----------|------------------|-----------|-----------------|
|-----------|------------------|-----------|-----------------|
|-0----7----|-3----3-1-0-------|-0----7----|-1---------------|
|-0----7----|-3----------3-1-0-|-0----7----|-1-1-1--1--1-1---|
|-0----7----|-3----------------|-0----7----|-1-1-1--1--1-1---|


|-----------|------------------|-----------|-------------|
|-----------|------------------|-----------|-------------|
|-----------|------------------|-----------|-------------|
|-0----3----|-1----3-1-0-------|-0----3----|-1-----------|
|-0----3----|-1----------3-1-0-|-0----3----|-1-1-1-1-1-1-|
|-0----3----|-1----------------|-0----3----|-1-1-1-1-1-1-|
|
|-----------|------------------|-----------|-------------|
|-----------|------------------|-----------|-------------|
|-----------|------------------|-----------|-------------|
|-0----3----|-1----3-1-0-------|-0----3----|-1-----8-8-8-|
|-0----3----|-1----------3-1-0-|-0----3----|-1-1-1-6-6-6-|
|-0----3----|-1----------------|-0----3----|-1-1-1-------|


|-----------|------------------|-----------|-------------|
|-----------|------------------|-----------|-------------|
|-----------|------------------|-----------|-------------|
|-0----7----|-3----3-1-0-------|-0----7----|-1-----------|
|-0----7----|-3----------3-1-0-|-0----7----|-1-1-1-1-1-1-|
|-0----7----|-3----------------|-0----7----|-1-1-1-1-1-1-|
|
|-----------|------------------|-----------|-------------|
|-----------|------------------|-----------|-------------|
|-----------|------------------|-----------|-------------|
|-0----7----|-3----3-1-0-------|-0----7----|-1-----------|
|-0----7----|-3----------3-1-0-|-0----7----|-1-1-1-1-1-1-|
|-0----7----|-3----------------|-0----7----|-1-1-1-1-1-1-|


|---------------------|
|---------------------|
|-8--8--8--8--8--8----|
|-8--8--8--8--8--8----|
|-6--6--6--6--6--6----|
|---------------------|


 Outro
  Gtr I
|-----------------------|-----------------------|---------------|
|-----------------------|-----------------------|---------------|
|-----------------5-7-8-|-----------------5-7-8-|---------------|
|-----------5-7-8-------|-----------5-7-8-------|---------------|
|-----5-6-8-------------|-----5-6-8-------------|---------------|
|-0-0-------------------|-0-0-------------------|-0-0----0-0----|
|
| Gtr II
|-----------------------|-----------------------|---------------|
|-----------------------|-----------------------|---------------|
|-----------------------|-----------------------|---------------|
|-----------------------|-----------------------|---------------|
|-----------------------|-----------------------|---------------|
|-0-0-------------------|-0-0-------------------|-0-0----0-0----|


|--------------*|
|--------------*|
|--------------*|
|--------------*|
|--------------*|
|-(0)----------*|
|
|--------------*|
|--------------*|
|--------------*|
|--------------*|
|--------------*|
|-(0)----------*|


Tablature Legend
----------------
 h   - hammer-on
 p   - pull-off
 b   - bend
 pb  - pre-bend
 r   - bend release (if no number after the r, then release immediately)
 /\  - slide into or out of (from/to "nowhere")
 s   - legato slide
 S   - shift slide
  - natural harmonic
[n]  - artificial harmonic
n(n) - tapped harmonic
 ~   - vibrato
 tr  - trill
 T   - tap
 TP  - trem. picking
 PM  - palm muting
\n/  - tremolo bar dip; n = amount to dip
 \n  - tremolo bar down
 n/  - tremolo bar up
/n\  - tremolo bar inverted dip
 =   - hold bend; also acts as connecting device for hammers/pulls
 <>  - volume swell (louder/softer)
 x   - on rhythm slash represents muted slash
 o   - on rhythm slash represents single note slash

Misc Legend
-----------
 |  - bar
||  - double bar
||o - repeat start
o|| - repeat end
*|  - double bar (ending)
 :  - bar (freetime)
 $  - Segno
 &  - Coda
Tempo markers -  = BPM(8/16=s8/s16), where s8 = swing 8ths, s16 = swing 16ths



6. Halo

Intro

Gtr 1 (Clean)
|--10--------|
|--12--------|
|--12--------|  (repeats this for entire intro)
|--14--------|
|------------|
|------------|

Gtr 2 (Clean)   (Bass is playing under this)
|--12--------|
|--12--------|
|--12--------|
|--14--------|
|------------|
|------------|

Gtr 2 Riff
|------------|--------------|--------------|---8-7--------|
|---6-5------|---6-8--------|---8-10-------|--------------|
|-7----------|-7------------|--7-----------|--7-----------|
|------------|--------------|--------------|--------------| (x3)
|------------|--------------|--------------|--------------|
|------------|--------------|--------------|--------------|

Gtr 1 (Distortion!! woo!)
|----7b------|
|------------|
|------------|
|------------|
|------------|
|------------|

Gtr 2 (distortion ftw)
|----13b-----|
|------------|
|------------|
|------------|
|------------|
|------------|

Main Riff
|--------------------|--------------------|
|--------------------|--------------------|
|--(5)---------------|--------------------| (x3)
|--------------------|--------------------|
|------2-2h3-2h3-0h2-|-0h2-2h3-3-2-2------|
|------2-2h3-2h3-0h2-|-0h2-2h3-3-2-2------|

|--------------------|--------------------|
|--------------------|--------------------|
|--(5)---------------|-3-2---2-3---3-5----|
|--------------------|-3-2---2-3---3-5----| (repeat this section again)
|------2-2h3-2h3-0h2-|-1-0-x-0-1-x-1-3----|
|------2-2h3-2h3-0h2-|-----x-----x--------|


Verse
|--------------------|-------------------------|
|--------------------|-------------------------|
|--------------------|-------------------------|
|-2------------------|-------------------------|
|-2------------------|-1-1-1-1-1-1-1-1-1-1-1-1-|
|-2------------------|-1-1-1-1-1-1-1-1-1-1-1-1-|
                 P.M.  . . . . . . . . . . . .
This is a call to arms...

|--------------------|--------------------|
|--------------------|--------------------|
|--(5)---------------|--------------------|
|--------------------|--------------------|
|------2-2h3-2h3-0h2-|-0h2-2h3-3-2-2------|
|------2-2h3-2h3-0h2-|-0h2-2h3-3-2-2------|

|--------------------|--------------------|
|--------------------|--------------------|
|--(5)---------------|--------------------|
|--------------------|--------------------|
|------2-2h3-2h3-0h2-|-0h2-2h3-3-2-0-3----|
|------2-2h3-2h3-0h2-|-0h2-2h3-3-2-0-3----|

|--------------------|-------------------------|
|--------------------|-------------------------|
|--------------------|-------------------------|
|-1------------------|-------------------------|
|-1------------------|-3-3-3-3-3-3-3-3-3-3-3-3-|
|-1------------------|-3-3-3-3-3-3-3-3-3-3-3-3-|
                 P.M.  . . . . . . . . . . . .
This is our time to fight...

|--------------------|--------------------|
|--------------------|--------------------|
|--(5)---------------|--------------------|
|--------------------|--------------------|
|------2-2h3-2h3-0h2-|-0h2-2h3-3-2-2------|
|------2-2h3-2h3-0h2-|-0h2-2h3-3-2-2------|

|--------------------|--------------------|
|--------------------|--------------------|
|--(5)---------------|--------------------|
|--------------------|--------------------|
|------2-2h3-2h3-0h2-|-0h2-2h3-3-2-0-3----|
|------2-2h3-2h3-0h2-|-0h2-2h3-3-2-0-3----|

Pre-Chorus
|-------------------------|-------------------------|
|-10-10-10-10-10-10-10-10-|-10-10-10-10-10-10-10-10-|
|--x--x--x--x--x--x--x--x-|--x--x--x--x--x--x--x--x-|
|--7--7--7--7--7--7--7--7-|--7--7--7--7--7--7--7--7-|
|-------------------------|-------------------------|
|-------------------------|-------------------------|

|-------------------------|------------------|
|-12-12-12-12-12-12-12-12-|-12-12-12-12------|
|--x--x--x--x--x--x--x--x-|--x--x--x--x------|
|--9--9--9--9--9--9--9--9-|--9--9--9--9-0----|
|-------------------------|-------------0----|
|-------------------------|-------------0----|

Chorus

Gtr 1
|-----15-14-------------15-|-14----------15-14-------|
|--12-------12-15-17-12----|----12-15-17-------15-17-|
|--------------------------|-------------------------|
|--------------------------|-------------------------|
|--------------------------|-------------------------|
|--------------------------|-------------------------|

Gtr 2
|--------------------|--------------------|
|--0-8-7-0-----0-8-7-|-0-----8-7----------|
|----------7-9-------|---7-9----7-9-------|
|--------------------|--------------------|
|--------------------|--------------------|
|--------------------|--------------------|

Gtr 1
|----15-14-------------15-|-14----------15-14--------|
|-13-------13-15-17-13----|----13-15-17-------15-17--|
|-------------------------|--------------------------|
|-------------------------|--------------------------|
|-------------------------|--------------------------|
|-------------------------|--------------------------|

Gtr 2
|--------------------|--------------------|
|---8-7--------8-7---|-----8-7------------|
|-5----5-7-9-5-----5-|-7-9----7-9---------|
|--------------------|--------------------|
|--------------------|--------------------|
|--------------------|--------------------|

Gtr 1
|----15-14-------------15-|-14----------15-14-------|
|-------------15-17-------|-------15-17-------15----|
|-14-------14-------14----|----14-------------------|
|-------------------------|-------------------------|
|-------------------------|-------------------------|
|-------------------------|-------------------------|

Gtr 2
|--------------------|--------------------|
|---8-7--------8-7---|-----8-7------------|
|--------7-9---------|-7-9----7-9---------|
|-7----7-----7-----7-|--------------------|
|--------------------|--------------------|
|--------------------|--------------------|

Gtr 1
|-19br----17br-------|---15br---14br------|
|-------0------------|--0------0----------|
|--------------------|--------------------|
|--------------------|--------------------|
|--------------------|--------------------|
|--------------------|--------------------|

Gtr 2
|--------------------|--------------------|
|-12br-0-10br-0------|-8br-0-7br----------|
|--------------------|--------------------|
|--------------------|--------------------| (Repeat!)
|--------------------|--------------------|
|--------------------|--------------------|

Second time through the chorus, 2nd guitar plays this

|--------------------|--------------------------|
|-0-12-10-0-------0--|-12-10-0-------12-10------|
|-----------11-12----|---------11-12------11-12-|
|--------------------|--------------------------|
|--------------------|--------------------------|
|--------------------|--------------------------|

|-------------------------|-------------------------|
|----12-10-------------12-|-10----------12-10-------|
|-------------11-12-------|-------11-12-------11-12-|
|-10-------10-------10----|----10-------------------|
|-------------------------|-------------------------|
|-------------------------|-------------------------|

|---7-5---------7-5--|-------7-5----------|
|---------7-8--------|---7-8-----7-8------|
|--------------------|--------------------|
|-7-----7-----7------|-7------------------|
|--------------------|--------------------|
|--------------------|--------------------|

|--------------------|--------------------|
|-15br-0-13br-0------|-12br-0-10br--------|
|--------------------|--------------------|
|--------------------|--------------------|
|--------------------|--------------------|
|--------------------|--------------------|

Back to Main Riff, Verse. This time the Pre-Chorus goes

|-------------------------|-------------------------|
|-10-10-10-10-10-10-10-10-|-10-10-10-10-10-10-10-10-|
|--x--x--x--x--x--x--x--x-|--x--x--x--x--x--x--x--x-|
|--7--7--7--7--7--7--7--7-|--7--7--7--7--7--7--7--7-|
|-------------------------|-------------------------|
|-------------------------|-------------------------|

|-------------------------|-------------------------|
|-12-12-12-12-12-12-12-12-|-12-12-12-12-12-12-12-12-|
|--x--x--x--x--x--x--x--x-|--x--x--x--x--x--x--x--x-|
|--9--9--9--9--9--9--9--9-|--9--9--9--9--9--9--9--9-|
|-------------------------|-------------------------|
|-------------------------|-------------------------|

Gtr 1
|-------------------------|------------------|
|-16-16-16-16-16-16-16-16-|-16-16-16-16------|
|--x--x--x--x--x--x--x--x-|--x--x--x--x------|
|-13-13-13-13-13-13-13-13-|-13-13-13-13-0----|
|-------------------------|-------------0----|
|-------------------------|-------------0----|

Gtr 3
|-------------------------|------------------|
|-12-12-12-12-12-12-12-12-|-12-12-12-12------|
|--x--x--x--x--x--x--x--x-|--x--x--x--x------|
|--9--9--9--9--9--9--9--9-|--9--9--9--9-0----|
|-------------------------|-------------0----|
|-------------------------|-------------0----|

Chorus.


Quieter Interlude

Gtr 1
|------------(9)\\---|--------------------|
|-9b----9b-----------|--------------------|
|--------------------|--------------------|
|--------------------|--------------------|
|--------------------|--------------------|
|--------------------|--------------------|

Gtr 2
|-(12)---------------|-(12)---------------|
|-(12)---------------|-(12)---------------|
|-(12)---------------|-(12)---------------|
|--------------------|--------------------|
|--------------------|--------------------|
|--------------------|--------------------|

Gtr 1 (Gently, in the background)
|--------------------|--------------------|
|--------------------|--------------------|
|--------------------|--------------------|
|-5-2-2h3-2h3-0h2----|-0h2-2h3-3-2-2------|
|--------------------|--------------------|
|--------------------|--------------------|

Gtr 2
|------------|--------------|--------------|---8-7--------|
|---6-5------|---6-8--------|----8-10------|--------------|
|-7----------|-7------------|--7-----------|--7-----------|
|------------|--------------|--------------|--------------| (x2)
|------------|--------------|--------------|--------------|
|------------|--------------|--------------|--------------|

Gtr 1 & 2
|--------------------|--------------------|     |--------|
|--------------------|--5br--br--br-------|     |--------|
|--------------------|--------------------|(x4) |--------|
|--------------------|--------------------|     |--------|
|---2-2-2-2-2-2-2-2--|--------------------|     |--------|
|---2-2-2-2-2-2-2-2--|--------------------|     |-1/15\1-|
P.M . . . . . . . .

|----------------------------------|-----------------------------|
|----------------------------------|-----------------------------|
|----------------------------------|-----------------7/9-7/9-----|
|----------------------------------|-----------------------------|
|----------------------------------|-----------------5/7-5/7-----|
|--2-2-2-2-3-3-3-3-5-5-5-5-5-5-2-2-|-2-2-3-3-3-3-3-3-------------|
   . . . . . . . . . . . . . . . .   . . . . . . . .

|--------------------|--------------------|
|--------------------|--5br--br--br-------|
|--------------------|--------------------|(x4)
|--------------------|--------------------|
|---2-2-2-2-2-2-2-2--|--------------------|
|---2-2-2-2-2-2-2-2--|--------------------|

Pre-solo riff
Gtrs 1 & 2
|-----------------------------|
|-----------------------------|
|----------------5/7-5/7------| (x3)
|-0-1------0-1-0--------------|
|-0-1------0-1-0-3/5-3/5------|
|-0-1-1/3--0-1-0--------------|

Gtr 1
|------------------------------|
|------------------------------|
|--------------------<4>b-<4>b-|
|-0-1------0-1-0---------------|
|-0-1------0-1-0-0-0-----------|
|-0-1-1/3--0-1-0-0-0-----------|
                 . .
Gtr 2
|--/--------------------------|
|--/--------------------------|
|--/--------------------------|
|--/--------------------------|
|--/--------------------------|
|--/--------------------------|

|-----------------------------|
|-----------------------------|
|----------------5/7-5/7------| (x3)
|-0-1------0-1-0--------------|
|-0-1------0-1-0-3/5-3/5------|
|-0-1-1/3--0-1-0--------------|

THE SOLO!!! Alright guys, I'm going to have to solo up to right before both guitars come
then I'll show the rhythm behind the solo, then move on to the harmonized part.

|-------------------------------------------------|
|-------------------------------------------------|
|-------------------------14-------14-15----14-15-|
|-15----14-15-17-14-15-17----15-17-------17-------|
|----17-------------------------------------------|
|-------------------------------------------------|

|-------------------------------------13-------13---|
|-------------15-------15-17-13-15-17----15-17------|
|-17-14-15-17----15-17------------------------------|
|---------------------------------------------------|
|---------------------------------------------------|
|---------------------------------------------------|

|-14b(17)----14b--14b--14b--14b---17tp20------------|
|---------------------------------------------------|
|---------------------------------------------------|
|---------------------------------------------------|
|---------------------------------------------------|
|---------------------------------------------------|

|-22--20-18----20-18-------18----------------18-20--|
|-----------22-------22-20----22-20-18-20-22--------|
|---------------------------------------------------|
|---------------------------------------------------|
|---------------------------------------------------|
|---------------------------------------------------|

|-15--------------------|----------------------------|
|-----------------------|----------------------------|
|----12-0-10-12-0-13-12-|-0--12S13-12-0--12-13-12-10-|
|-----------------------|----------------------------|
|-----------------------|----------------------------|
|-----------------------|----------------------------|

|-------------------------|-------------------15b17---------(15)r---|
|-------------------------|-----------------------------------------|
|-------------------12----|-14-12-14-15-14-15-----------------------|
|-------14-12-15-14----15-|-----------------------------------------|
|-12-15-------------------|-----------------------------------------|
|-------------------------|-----------------------------------------|

|-16p13----16p13----16p13-16p13----16p13----16p13-|
|-------15-------15-------------15-------15-------|
|-------------------------------------------------|
|-------------------------------------------------| (x2)
|-------------------------------------------------|
|-------------------------------------------------|

|-16--13----12-13--12-----|-------12--13-16-------|
|----------------------15-|-15--------------------|
|-------------------------|-----------------------|
|-------------------------|-----------------------|
|-------------------------|-----------------------|
|-------------------------|-----------------------|

|-18--17------------------|-------------------------------------|
|---------18--------------|-------------------------------------|
|------------15--14-------|-------------------------------14-15-|
|--------------------15---|-------------------------14-15-------|
|-------------------------|-13--12------------12-13-------------|
|-------------------------|---------15--14-15-------------------|

|-----------------------------|----------------------------|
|-----------------------------|----------------------------|
|-----------------------------|-12-------------------------|
|-----14--14br-12--14---------|-----15----14-15-----14--12-|
|-12--------------------------|----------------------------|
|-----------------------------|----------------------------|

Alright, now this is the rhythm going on behind the solo, you'll have to listen to the 
to get the timing, sorry.


|----------------------------------------|
|----------------------------------------|
|----------------------5/7-5/7-----------|
|-0--3--6-----0--3--0--------------------| (x2)
|-0--3--6-----0--3--0--3/5-3/5-----------|
|-0--3--6-----0--3--0--------------------|


|--------------------|--------------------|
|--------------------|--------------------|
|--------------------|--------------------|
|-5------------------|--------------------|
|-5------------------|--8--7--------------|
|-5------------------|--------10----------|

|--------------------|--------------------|
|--------------------|--------------------|
|--------------------|--------------------| (Repeat this entire thing again)
|-7------------------|--------------------|
|-7------------------|-7---5--8---7-------|
|-7------------------|--------------------|

Bridge to harmonized solo

|-12-0-10-0-8-0-7-0-10-0-8-0-7-0-5-0--|
|-------------------------------------|
|-------------------------------------|
|-------------------------------------|
|-------------------------------------|
|-------------------------------------|

Harmonized Part

Gtr 1
|----------------|------5------5-|----5-7----5-7-|--5-7-8-7br--5----------|
|--5-7-8--5--7-8-|-7-8----7-8----|-8------8------|------------------------|
|----------------|---------------|---------------|------------------------|
|----------------|---------------|---------------|------------------------|
|----------------|---------------|---------------|------------------------|
|----------------|---------------|---------------|------------------------|

Gtr 2
|----------------|---------------|---------------|-----------------------|
|----------------|---------------|---------------|-----------------------|
|----------------|---------------|------7------7-|----7-9-7br------------|
|-----7-9----7-9-|-7-9-10-7-9-10-|-9-10---9-10---|-10-------------10-----|
|--10-----10-----|---------------|---------------|-----------------------|
|----------------|---------------|---------------|-----------------------|

Repeat that again.

Gtr 1
|-7-5-3-5-7-5-3-5-7-5-3-5-7-5-3-5-|--8-7-5-7--8-7-5-7--8-7-5-7--8-7-5-7---|
|---------------------------------|---------------------------------------|
|---------------------------------|---------------------------------------|
|---------------------------------|---------------------------------------|
|---------------------------------|---------------------------------------|
|---------------------------------|---------------------------------------|

Gtr 2
|---------------------------------|---------------------------------------|
|-8-7-5-7-8-7-5-7-8-7-5-7-8-7-5-7-|-10-8-7-8-10-8-7-8-10-8-7-8-10-8-7-8---|
|---------------------------------|---------------------------------------|
|---------------------------------|---------------------------------------|
|---------------------------------|---------------------------------------|
|---------------------------------|---------------------------------------|

Gtr 1
|-10--8-7--8-10--8-7--8-10--8-7--8-10--8-7--8-|
|---------------------------------------------|
|---------------------------------------------|
|---------------------------------------------|
|---------------------------------------------|
|---------------------------------------------|

Gtr 2
|---------------------------------------------|
|-12-10-8-10-12-10-8-10-12-10-8-10-12-10-8-10-|
|---------------------------------------------|
|---------------------------------------------|
|---------------------------------------------|
|---------------------------------------------|

Gtr 1
|-12-10--8-10-12-10--8-10-12-10--8-10-12-10--8-10---|
|---------------------------------------------------|
|---------------------------------------------------|
|---------------------------------------------------|
|---------------------------------------------------|
|---------------------------------------------------|

Gtr 2
|---------------------------------------------------|
|-13-12-10-12-13-12-10-12-13-12-10-12-13-12-10-12---|
|---------------------------------------------------|
|---------------------------------------------------|
|---------------------------------------------------|
|---------------------------------------------------|

Gtr 1
|-15-14-12-14-15-14-15-14-12-14-15-14-15-14-12-|
|----------------------------------------------|
|----------------------------------------------|
|----------------------------------------------|
|----------------------------------------------|
|----------------------------------------------|

Gtr 2
|----------------------------------------------|
|-17-15-12-15-17-15-17-15-12-15-17-15-17-15-12-|
|----------------------------------------------|
|----------------------------------------------|
|----------------------------------------------|
|----------------------------------------------|

Gtr 1
|-17-15-14-15-17-15-17-15-14-15-17-15-17-15-14----|
|-------------------------------------------------|
|-------------------------------------------------|
|-------------------------------------------------|
|-------------------------------------------------|
|-------------------------------------------------|

Gtr 2
|-------------------------------------------------|
|-19-17-15-17-19-17-19-17-15-17-19-17-19-17-15----|
|-------------------------------------------------|
|-------------------------------------------------|
|-------------------------------------------------|
|-------------------------------------------------|

Gtr 1
|-19-17-15-17-19-17-19-17-15-17-19-17-19-17-15----|
|-------------------------------------------------|
|-------------------------------------------------|
|-------------------------------------------------|
|-------------------------------------------------|
|-------------------------------------------------|

Gtr 2
|-15-14-12-14-15-14-15-14-12-14-15-14-15-14-12----|
|-------------------------------------------------|
|-------------------------------------------------|
|-------------------------------------------------|
|-------------------------------------------------|
|-------------------------------------------------|

Gtr 1
|-20-19-17-19-20-19-20-19-17-19-20-19-20-19-17-|
|----------------------------------------------|
|----------------------------------------------|
|----------------------------------------------|
|----------------------------------------------|
|----------------------------------------------|

Gtr 2
|-17-15-14-15-17-15-17-15-14-15-17-15-17-15-14-|
|----------------------------------------------|
|----------------------------------------------|
|----------------------------------------------|
|----------------------------------------------|
|----------------------------------------------|

Gtr 1
|-22-20-19-20-22-20-19-20-22-20-19-20-22-20-19-20-------|
|-------------------------------------------------------|
|----------------------------------------------------|\-|
|-------------------------------------------------------| \
|-------------------------------------------------------|  \
|-------------------------------------------------------|   \
                                                          \
                                                           x4
Gtr 2                                                      /
|-19-17-15-17-19-17-15-17-19-17-15-17-19-17-15-17------|   -- /
|------------------------------------------------------|  --- /
|------------------------------------------------------| ---- /
|------------------------------------------------------|----- /
|------------------------------------------------------------ /
|------------------------------------------------------------ /


Gtr 1
|-22-20-19-20-22-20----------------------------17-|-17b-vb---------------|
|-------------------------------------17-19-20----|----------------------|
|----------------------------16-17-19-------------|----------------------|
|-------------------16-17-19----------------------|----------------------|
|-------------------------------------------------|----------------------|
|-------------------------------------------------|----------------------|

Gtr 2
|-------------------------------------------------|-19-17-15-17-19-17-----17-19-20-22-|-22b--vb--|
|----------------------------17-19-20-------------|--------------------------------------------|
|-------------------16-17-19----------------------|--------------------------------------------|
|-------------------------------------------------|--------------------------------------------|
|-------------------------------------------------|--------------------------------------------|
|-------------------------------------------------|--------------------------------------------|

Gtr 1
|---------------------------------|-------------------|
|-20-19--17-----------------------|-------------------|
|-----------19--17----------------|-17----------------|
|---------------------------19----|-------------------|
|---------------------------------|-------------------|
|---------------------------------|-------------------|

Gtr 2
|-22vb-------------------19-20-19-|-20b-vb------------|
|---------------------------------|-------------------|
|---------------------------------|-------------------|
|---------------------------------|-------------------|
|---------------------------------|-------------------|
|---------------------------------|-------------------|

Gtr 1
|---------------------------------------------------|----------|
|---------------------------------------------------|----------|
|-(17)----------------------------------------------|----------|
|---------------------------------------------------|-17b------|
|---------------------------------------------------|----------|
|---------------------------------------------------|----------|

Gtr 2
|--19--20-19-17-19-17-------------------------------|-----------|
|---------------------20-19-17-19-17----------------|-20v-vb----|
|------------------------------------19-17-16-------|-----------|
|---------------------------------------------19-17-|-----------|
|---------------------------------------------------|-----------|
|---------------------------------------------------|-----------|

Gtr 1
|---------------------------------|
|---------------------17--19---20-|
|------------16h17h19-------------|
|--16h17h19-----------------------|
|---------------------------------|
|---------------------------------|

Gtr 2
|---------------------------------|
|-(20)----------------------------|
|---------------------------------|
|---------------------------------|
|---------------------------------|
|---------------------------------|

Gtr 1
|-------------------------------------|--------------------------------|
|-19h20p19-17h19p17-15h17p15-13h15p13-|-12h13p12-10h12p10-8h10p8-7h8p7-|
|-------------------------------------|--------------------------------|
|-------------------------------------|--------------------------------|
|-------------------------------------|--------------------------------|
|-------------------------------------|--------------------------------|

Gtr 2
|-17h19p17-15h17p15-14h15p14-12h14p12-|-10h12p10--8h10p=8-7h=8p7-5h7p5-|
|-------------------------------------|--------------------------------|
|-------------------------------------|--------------------------------|
|-------------------------------------|--------------------------------|
|-------------------------------------|--------------------------------|
|-------------------------------------|--------------------------------|


WOW. If you still have your fingers, repeat the Chorus riff. Then...

Breakdown

Gtr 2 (Breakdown)
|---------------------|
|---------------------|
|-5----4----2----4----|
|-5----4----2----4----| (x3)
|-3----2----0----2----|
|---------------------|
And I won't pray for you...

|---------------------|
|---------------------|
|-5----2----4---------|
|-5----2----4---------| gently strum, a little harder, little harder...
|-3----0----2---------|
|---------------------|

.....

HALOOOOOOOOO

Gtr 1
|---------------|---------------|-------------------------------------|
|---------------|---------------|-------------------------------------|
|---------------|---------------|-------------------------------------|
|--2--5---4-----|--0------5--4--|--------5-----4----------------------|
|------------2--|-----7---------|--3-----------------3----------------|
|---------------|---------------|-------------------------------------|

Gtr 2
|---------------|---------------|-------------------------------------|
|---------------|---------------|-------------------------------------|
|--9-----12-----|-11-----14-----|-12-12-12-12-12-12-12-12-12-12-12-12-|
|--x------x-----|--x------x-----|--x--x--x--x--x--x--x--x--x--x--x--x-|
|--7-----10-----|--9-----12-----|-10-10-10-10-10-10-10-10-10-10-10-10-|
|---------------|---------------|-------------------------------------|

Gtr 1
|-------------------------------------|
|-------------------------------------|
|-------------------------------------|
|--------------5-----4----------------|
|--5-----7----------------------------|
|-------------------------------------|

Gtr 2
|-------------------------------------|
|-------------------------------------|
|-12-12-12-12-12-12-12-12-12-12-12-12-|
|--x--x--x--x--x--x--x--x--x--x--x--x-|
|-10-10-10-10-10-10-10-10-10-10-10-10-|
|-------------------------------------|

Gtr 1
|--------------|---------------|-------------------------------------|
|--------------|---------------|-------------------------------------|
|--------------|---------------|-------------------------------------|
|----5---4-----|---------5--4--|--------5-----4----------------------|
|-0---------0--|--5--7---------|--2-----------------2----------------|
|--------------|---------------|-------------------------------------|

Gtr 2
|--------------|---------------|-------------------------------------|
|--------------|---------------|-------------------------------------|
|-9-----12-----|-11-----14-----|-11-11-11-11-11-11-11-11-11-11-11-11-|
|-x------x-----|--x------x-----|--x--x--x--x--x--x--x--x--x--x--x--x-|
|-7-----10-----|--9-----12-----|--9--9--9--9--9--9--9--9--9--9--9--9-|
|--------------|---------------|-------------------------------------|

Gtr 1
|---------------------------------------|
|---------------------------------------|
|--4-----2h4p2--------------------------|
|-----------------5---4-----------------|
|---------------------------------------|
|---------------------------------------|

Gtr 2
|---------------------------------------|
|---------------------------------------|
|-11-11-11-11-11-11--11-11-11-11-11-11--|
|--x--x--x--x--x--x---x--x--x--x--x--x--|
|--9--9--9--9--9--9---9--9--9--9--9--9--|
|---------------------------------------|

Gt 1
|-------------|-------------|-------------|-------------|
|-------------|-------------|-------------|-------------|
|-------------|-------------|-------------|-------------|
|----5--4-----|-------5--4--|----5--4-----|-------5--4--|
|-7--------2--|-5--7--------|-3--------3--|-5--7--------|
|-------------|-------------|-------------|-------------|

Gt 2
|-------------|-------------|-------------|-------------|
|-------------|-------------|-------------|-------------|
|----4--2-----|-------4--2--|----4--2-----|-------4--2--|
|-2-----------|-4--5--------|-------------|-4--5--------|
|----------2--|-------------|-3--------3--|-------------|
|-------------|-------------|-------------|-------------|

Gt 1
|-------------|-------------|-------------|-----------------|
|-------------|-------------|-------------|-----------------|
|-------------|-------------|-------------|-4--2h4p2--------|
|----5--4-----|-------5--4--|----5--4-----|----------5--4---|
|-0--------0--|-5--7--------|-2--------2--|-----------------|
|-------------|-------------|-------------|-----------------|

Gtr 2
|-------------|-------------|-------------|-----------------|
|-------------|-------------|-------------|-----------------|
|----4--2-----|-------4--2--|----4--2-----|-7--5h7p5-4------|
|-------------|-4--5--------|-------------|-------------7---|
|-0--------0--|-------------|-2--------2--|-----------------|
|-------------|-------------|-------------|-----------------|

Gtr 1
|-----------------|-----------------|-----------------|-----------------|
|-----------------|-----------------|-----------------|-----------------|
|-----------------|-----------------|-----------------|-----------------|
|------5---4------|----------5---4--|------5---4------|----------5---4--|
|--7-----------2--|--5---7----------|--3-----------3--|--5---7----------|
|-----------------|-----------------|-----------------|-----------------|

Gtr 2
|-----------------|-----------------|-----------------|-----------------|
|-----------------|-----------------|-----------------|-----------------|
|-----12--11------|---------12--11--|-----12--11------|---------12--11--|
|-14--------------|-12--14----------|-10----------10--|-12--14----------|
|-------------14--|-----------------|-----------------|-----------------|
|-----------------|-----------------|-----------------|-----------------|

Gtr 1
|-----------------|-----------------|-----------------|-----------------------|
|-----------------|-----------------|-----------------|-----------------------|
|-----------------|-----------------|-----------------|--4---2h=4p=2----------|
|------5---4------|----------5---4--|------5---4------|---------------5---4---|
|--0-----------0--|--5---7----------|--2-----------2--|-----------------------|
|-----------------|-----------------|-----------------|-----------------------|

Gtr 2
|-----------------|-----------------|-----------------|-----------------------|
|-----------------|-----------------|-----------------|-12--10h12p10----------|
|-----12--11------|---------12--11--|-----12--11------|--------------12--11---|
|-----------------|-12--14----------|-----------------|-----------------------|
|-12----------12--|-----------------|-14----------14--|-----------------------|
|-----------------|-----------------|-----------------|-----------------------|

Chorus Riff

Then...

Gtr 1
|---------------|------------------|
|-10b-----------|------------------|
|---------------|------------------|
|---------------|------------------|
|---------------|------------------|
|---------------|------------------|

"The words will never hold us down...."

Gtr 2
|-12b-----------|------------------|
|---------------|------------------|
|---------------|------------------|
|---------------|------------------|
|---------------|------------------|
|---------------|------------------|

"You're gone!"


Main Riff, add some pinch harmonics in there. End with:

|-------------------------*|
|-------------------------*|
|-------------------------*|
|-----------------2-------*|
|-2-2-2-2-2-2-2-2-2-------*|
|-2-2-2-2-2-2-2-2-2-------*|
  . . . . . . . .


7. Wolves

Gtr I (C# F# B E G# C#) - 'Untitled'
Gtr II (C# F# B E G# C#) - 'Untitled'

 Intro
  Q=155
 4/4
  Gtrs I, II
         PM                           PM                         PM
|--------------|----------|-----------------|----------|-----------------|
|--------------|----------|-----------------|----------|-----------------|
|--------------|----------|-----------------|----------|-----------------|
|--------------|-5--------|-(5)-------------|-5--------|-8---------------|
|------6---4-3-|-5--------|-(5)-----6---4-3-|-5--------|-8-----6---4-3---|
|----3---3-----|-3--------|-(3)---3---3-----|-3--------|-6---3---3-------|


                       PM
|----------|-----------------|----------|----------|----------|
|----------|-----------------|----------|----------|----------|
|----------|-----------------|----------|----------|----------|
|-5--------|-(5)-------------|-5--------|-8--------|-4--------|
|-5--------|-(5)-----6---4-3-|-5--------|-8--------|-4--------|
|-3--------|-(3)---3---3-----|-3--------|-6--------|-2--------|


 Main Riff
                                                                PM--------|
|-----------------|-----------------|-----------------|---------------------|
|-----------------|-----------------|-----------------|---------------------|
|-----------------|-----------------|-----------------|-3-----3-------------|
|-5---------6---5-|-----------------|-5---------6---5-|---3-----------------|
|-----------------|---------6---4-3-|-----------------|---------6-6-6-6-6-6-|
|---0-1-2-3---3---|-3-0-1-2---3-----|---0-1-2-3---3---|-----6---4-4-4-4-4-4-|


                                                                PM--------|
|-----------------|-----------------|-----------------|---------------------|
|-----------------|-----------------|-----------------|---------------------|
|-----------------|-----------------|-----------------|---------------------|
|-5---------6---5-|-----------------|-5---------6---5-|---------------------|
|-----------------|---------6---4-3-|-----------------|---------6-6-6-6-6-6-|
|---0-1-2-3---3---|-3-0-1-2---3-----|---0-1-2-3---3---|-3-0-1-2-4-4-4-4-4-4-|


  Gtr I
|------------------|---------------------|-----------------------------------------|
|------------------|---------------------|-----------------------------------------|
|------------------|---------------------|-----------------------------------------|
|--5---------6---5-|---------------------|-5-------------------------6-------5-----|
|------------------|------------6----4-3-|-----------------------------------------|
|----0-1-2-3---3---|---3--0-1-2---3------|-------0-----1-2-----3-------3-----------|
|
| Gtr II
|  /                                 |
|------------------|---------------------|-----------------------------------------|
|-12---------------|-(12)-----------12---|-----------------------------------------|
|------------------|---------------------|-5b6==(5)r-3---5b6==(5)r-3---5b6==(5)r-3-|
|------------------|---------------------|-------------5-------------5-------------|
|------------------|---------------------|-----------------------------------------|
|------------------|---------------------|-----------------------------------------|


                      PM---------------|
|-------------------------------------------|
|-------------------------------------------|
|-3---------------3-------------------------|
|---3---------------------------------------|
|---------------------6----6-6---6---6-6----|
|---------6-----------4----4-4---4---4-4----|
|
|-----------------------/8-----8---8--------|
|-------------------------------------------|
|---5b6==(5)r-3-----5-----------------------|
|-5-------------5---------------------------|
|-------------------------------------------|
|-------------------------------------------|


|-------------------------------------------------|-------------------------------------------------|
|-------------------------------------------------|-------------------------------------------------|
|-------------------------------------------------|-------------------------------------------------|
|--5-----------------------------6-----------5----|-------------------------------------------------|
|-------------------------------------------------|--------------------------6-----------4-----3----|
|--------0-----1-----2-----3-----------3----------|--3-----0-----1-----2-----------3----------------|
|
|-16-15-13-15-16-15-13-15-18-15-13-15-20-15-13-15-|-16-15-13-15-16-15-13-15-18-15-13-15-20-15-13-15-|
|-------------------------------------------------|-------------------------------------------------|
|-------------------------------------------------|-------------------------------------------------|
|-------------------------------------------------|-------------------------------------------------|
|-------------------------------------------------|-------------------------------------------------|
|-------------------------------------------------|-------------------------------------------------|


                                                                 PM-------------|
|-------------------------------------------------|----------------------------------|
|-------------------------------------------------|----------------------------------|
|-------------------------------------------------|----------------------------------|
|--5-----------------------------6-----------5----|----------------------------------|
|-------------------------------------------------|--------------6--6--6--6--6--6----|
|--------0-----1-----2-----3-----------3----------|--3--0--1--2--4--4--4--4--4--4----|
|
|-22-15-13-15-13-15-22-15-13-15-13-15-22-15-13-15-|-13-15-22-15-13-15-13-15-15\------|
|-------------------------------------------------|----------------------------------|
|-------------------------------------------------|----------------------------------|
|-------------------------------------------------|----------------------------------|
|-------------------------------------------------|----------------------------------|
|-------------------------------------------------|----------------------------------|


 Pre-Verse
  PM-------------------------------------------------
|-------------------------|-------------------------|
|-------------------------|-------------------------|
|-------------------------|-------------------------|
|-------------------------|-------------------------|
|-4-4-4-4-4-4-4-4-4-4-4-4-|-4-4-4-4-4-4-4-4-4-4-4-4-|
|-2-2-2-2-2-2-2-2-2-2-2-2-|-2-2-2-2-2-2-2-2-2-2-2-2-|
|
|-------------------------|-------------------------|
|-------------------------|-------------------------|
|-------------------------|-------------------------|
|-------------------------|-------------------------|
|-4-----------4-----------|---------4---4-----------|
|-2-----------2-----------|---------2---2-----------|


 -------------------------------------------------|
|-------------------------|----------------------------|
|-------------------------|----------------------------|
|-------------------------|----------------------------|
|-------------------------|----------------------------|
|-4-4-4-4-4-4-4-4-4-4-4-4-|-4-4-4-4-4-4-4-4-4-4-4-4----|
|-2-2-2-2-2-2-2-2-2-2-2-2-|-2-2-2-2-2-2-2-2-2-2-2-2----|
|
|-------------------------|----------------------------|
|-------------------------|----------------------------|
|-------------------------|----------------------------|
|-------------------------|----------------------------|
|-4-----------4-----------|----------------------------|
|-2-----------2-----------|----------------------------|


   Verse
    Gtrs I, II
                            PM----------|
||------------------|---------------------|
||o-----------------|---------------------|
||------------------|---------------------|
||------------------|---------------------|
||o-5---3-6-5---8-7-|-5-7-2---2-2-2-2-2-2-|
||--3-0-1-4-3-0-6-5-|-3-5-0-0-0-0-0-0-0-0-|


                          PM----------|
                                          4x
|-----------------|-----------------------||
|-----------------|----------------------o||
|-----------------|-----------------------||
|-----------------|-----------------------||
|-5---3-6-5---8-7-|-5-7-3---4-4-4-5-5-5--o||
|-3-0-1-4-3-0-6-5-|-3-5-1-1-2-2-2-3-3-3---||


                                                                   ~~~
||------------------|-----------------|-----------------|----------------||
||o-----------------|-----------------|-----------------|---------------o||
||------------------|-----------------|-----------------|----------------||
||--4---------------|-----------------|-4---------------|---------[5]----||
||o-4-4-4-4-4-5---4-|---3-2-0-2-0-----|-4-4-4-4-4-5---4-|---3-2-0-------o||
||--2-2-2-2-2-2-2-2-|-2-----------2-0-|-2-2-2-2-2-2-2-2-|-2--------------||


    Gtr I
    PM----|     PM----|     PM|        PM----|      PM-----|      PM|
||----------------------------------|---------------------------------------||
||o---------------------------------|--------------------------------------o||
||----------3-----------3-------3---|-----------3------------3--------3-----||
||--3-3-3-3-3---3-3-3-3-3---3-3-3---|--3-3-3-3--3---3-3--3-3-3----3-3-3-----||
||o-1-1-1-1-1---1-1-1-1-1---1-1-1---|--1-1-1-1--1---1-1--1-1-1----1-1-1----o||
||----------------------------------|---------------------------------------||
|
|   Gtr II
|   T       T       T       T          T        T        T        T
||----------------------------------|---------------------------------------||
||o---------------------------------|--------------------------------------o||
||--9p7p3h7-9p7p3h7-9p7p3h7-9p7p3h7-|-10p7p3h7-10p7p3h7-10p7p3h7-10p7p3h7---||
||----------------------------------|---------------------------------------||
||o---------------------------------|--------------------------------------o||
||----------------------------------|---------------------------------------||


     PM-----|        PM------|        PM|
||----------------------------------------------|
||o---------------------------------------------|
||--------------3---------------3----------3----|
||---3--3-3--3--3----3--3--3--3-3-----3--3-3----|
||o--1--1-1--1--1----1--1--1--1-1-----1--1-1----|
||----------------------------------------------|
|
|    T          T          T          T
||--12p10p6h10-12p10p6h10-12p10p6h10-12p10p6h10-|
||o---------------------------------------------|
||----------------------------------------------|
||----------------------------------------------|
||o---------------------------------------------|
||----------------------------------------------|


   PM-----|        PM------|        PM|
|-----------------------------------------------||
|----------------------------------------------o||
|-------------3---------------3----------3------||
|--3--3-3--3--3----3--3--3--3-3-----3--3-3------||
|--1--1-1--1--1----1--1--1--1-1-----1--1-1-----o||
|-----------------------------------------------||
|
|  T          T          T          T
|-13p10p6h10-13p10p6h10-13p10p6h10-13p10p6h10---||
|----------------------------------------------o||
|-----------------------------------------------||
|-----------------------------------------------||
|----------------------------------------------o||
|-----------------------------------------------||


    T       T       T       T         T       T       T       T
||----------------------------------|-----------------------------------||
||o-8p6p2h6-8p6p2h6-8p6p2h6-8p6p2h6-|-9p6p2h6-9p6p2h6-9p6p2h6-9p6p2h6--o||
||----------------------------------|-----------------------------------||
||----------------------------------|-----------------------------------||
||o---------------------------------|----------------------------------o||
||----------------------------------|-----------------------------------||
|
|   T       T       T       T         T       T       T       T
||----------------------------------|-----------------------------------||
||o-8p6p2h6-8p6p2h6-8p6p2h6-8p6p2h6-|-9p6p2h6-9p6p2h6-9p6p2h6-9p6p2h6--o||
||----------------------------------|-----------------------------------||
||----------------------------------|-----------------------------------||
||o---------------------------------|----------------------------------o||
||----------------------------------|-----------------------------------||


   T          T          T          T
|---------------------------------------------|
|--8p=6p2h=6--8p=6p2h=6--8p=6p2h=6--8p=6p2h=6-|
|---------------------------------------------|
|---------------------------------------------|
|---------------------------------------------|
|---------------------------------------------|
|
|  T          T          T          T
|-15p13p9h13-15p13p9h13-15p13p9h13-15p13p9h13-|
|---------------------------------------------|
|---------------------------------------------|
|---------------------------------------------|
|---------------------------------------------|
|---------------------------------------------|


   T          T          T          T
|-----------------------------------------------|
|--9p=6p2h=6--9p=6p2h=6--9p=6p2h=6--9p=6p2h=6---|
|-----------------------------------------------|
|-----------------------------------------------|
|-----------------------------------------------|
|-----------------------------------------------|
|
|  T          T          T          T
|-16p13p9h13-16p13p9h13-16p13p9h13-16p13p9h13---|
|-----------------------------------------------|
|-----------------------------------------------|
|-----------------------------------------------|
|-----------------------------------------------|
|-----------------------------------------------|


   T          T          T          T
|---------------------------------------------|-------|
|--8p=6p2h=6--9p=6p2h=6--8p=6p2h=6--9p=6p2h=6-|-------|
|---------------------------------------------|-------|
|---------------------------------------------|-x\----|
|---------------------------------------------|-x\----|
|---------------------------------------------|-x\----|
|
|  T          T          T          T
|-15p13p9h13-16p13p9h13-15p13p9h13-16p13p9h13-|-------|
|---------------------------------------------|-------|
|---------------------------------------------|-------|
|---------------------------------------------|-x\----|
|---------------------------------------------|-x\----|
|---------------------------------------------|-x\----|


 Chorus
  Gtrs I, II
                                                                PM--------|
|-----------------|-----------------|-----------------|---------------------|
|-----------------|-----------------|-----------------|---------------------|
|-----------------|-----------------|-----------------|-3-----3-------------|
|-5---------6---5-|-----------------|-5---------6---5-|---3-----------------|
|-----------------|---------6---4-3-|-----------------|---------6-6-6-6-6-6-|
|---0-1-2-3---3---|-3-0-1-2---3-----|---0-1-2-3---3---|-----6---4-4-4-4-4-4-|


                                                                PM--------|
|-----------------|-----------------|-----------------|---------------------|
|-----------------|-----------------|-----------------|---------------------|
|-----------------|-----------------|-----------------|---------------------|
|-5---------6---5-|-----------------|-5---------6---5-|---------------------|
|-----------------|---------6---4-3-|-----------------|---------6-6-6-6-6-6-|
|---0-1-2-3---3---|-3-0-1-2---3-----|---0-1-2-3---3---|-3-0-1-2-4-4-4-4-4-4-|


 Interlude
  Gtr I
                     PM                              PM
|--------------|----------------|--------------|----------------|
|--------------|----------------|--------------|----------------|
|--------------|----------------|--------------|----------------|
|--------------|----------2--4--|-/5--4-----2--|-(2)-2-4--5--7--|
|----------/3--|-(3)-3-5--------|--------5-----|----------------|
|-0---0-3------|----------------|--------------|----------------|
|
| Gtr II
|                    PM                              PM
|--------------|----------------|--------------|----------------|
|--------------|----------------|--------------|----------------|
|--------------|-------------2--|-/4--2--------|----------4--7--|
|--------------|-------4--5-----|--------4--5--|-(5)-5-7--------|
|----------/3--|-(3)-3----------|--------------|----------------|
|-0---0-3------|----------------|--------------|----------------|


                     PM                                      PM
|--------------|----------------|-/12--(12)-10-------|---------------------|
|--------------|----------------|----------------12--|-(12)-12-/13--10\----|
|-/4-----------|-------------7--|--------------------|---------------------|
|-----7--4--5--|-(5)-5-7--9-----|--------------------|---------------------|
|--------------|----------------|--------------------|---------------------|
|--------------|----------------|--------------------|---------------------|
|
|                    PM
|--------------|-------------7--|-/15-------14-------|---------------------|
|-/8--7--------|-------7--8-----|----------------15--|-(15)-15-/17--13\----|
|--------7--9--|-(9)-9----------|--------------------|---------------------|
|--------------|----------------|--------------------|---------------------|
|--------------|----------------|--------------------|---------------------|
|--------------|----------------|--------------------|---------------------|


                     PM                              PM
|--------------|----------------|--------------|----------------|
|--------------|----------------|-/3-----------|-------------7--|
|--------------|-------2--4--5--|-----5--2--4--|-(4)-4-5--7-----|
|--------------|----------------|--------------|----------------|
|----------/3--|-(3)-3----------|--------------|----------------|
|-0---0-3------|----------------|--------------|----------------|
|
|                    PM                              PM
|--------------|----------------|--------------|----------------|
|--------------|----------------|--------------|----------------|
|--------------|-------------2--|-/4--2--------|----------4--7--|
|--------------|-------4--5-----|--------4--5--|-(5)-5-7--------|
|----------/3--|-(3)-3----------|--------------|----------------|
|-0---0-3------|----------------|--------------|----------------|


                     PM
|-/7--5--------|---------------10--|-/19---17-------|---------------------|
|--------7--8--|-(8)-8-10--12------|------------19--|-(19)-19-/20--17\----|
|--------------|-------------------|----------------|---------------------|
|--------------|-------------------|----------------|---------------------|
|--------------|-------------------|----------------|---------------------|
|--------------|-------------------|----------------|---------------------|
|
|                    PM
|--------------|----------------7--|-/15---14-------|---------------------|
|-/8--7--------|--------7---8------|------------15--|-(15)-15-/17--13\----|
|--------7--9--|-(9)-9-------------|----------------|---------------------|
|--------------|-------------------|----------------|---------------------|
|--------------|-------------------|----------------|---------------------|
|--------------|-------------------|----------------|---------------------|


|--------------------|-----------------------|
|--------------------|-----------------------|
|--------------------|-----------------------|
|---4----------------|--(4)------------------|
|---4----------------|--(4)------------------|
|---2----------------|--(2)------------------|
|
|--------------------|-----------------------|
|--------------------|-----------------------|
|-/11---11-11-11-11--|-(11)-11-11-11-11--11--|
|--/x----x--x--x--x--|--(x)--x--x--x--x---x--|
|--/9----9--9--9--9--|--(9)--9--9--9--9---9--|
|--------------------|-----------------------|


|---------------------|-----------------------|
|---------------------|-----------------------|
|---------------------|-----------------------|
|--(4)----------------|--(4)------------------|
|--(4)----------------|--(4)------------------|
|--(2)----------------|--(2)------------------|
|
|---------------------|-----------------------|
|---------------------|-----------------------|
|-/12----12-12-12-10--|-(10)-10-10-10-10--10--|
|--/x-----x--x--x--x--|--(x)--x--x--x--x---x--|
|-/10----10-10-10--8--|--(8)--8--8--8--8---8--|
|---------------------|-----------------------|


|--------------------|-----------------------|
|--------------------|-----------------------|
|--------------------|-----------------------|
|---4----------------|--(4)------------------|
|---4----------------|--(4)------------------|
|---2----------------|--(2)------------------|
|
|--------------------|-----------------------|
|--------------------|-----------------------|
|-/11---11-11-11-11--|-(11)-11-11-11-11--11--|
|--/x----x--x--x--x--|--(x)--x--x--x--x---x--|
|--/9----9--9--9--9--|--(9)--9--9--9--9---9--|
|--------------------|-----------------------|


|---------------------|----------------x-x----x-|
|---------------------|----------------x-x----x-|
|---------------------|----------------x-x----x-|
|--(4)----------------|--(4)-----------x-x----x-|
|--(4)----------------|--(4)-----------x-x----x-|
|--(2)----------------|--(2)-----------x-x----x-|
|
|---------------------|-------------------------|
|---------------------|-------------------------|
|-/12----12-12-12-10--|-(10)-10-10-10-10---10---|
|--/x-----x--x--x--x--|--(x)--x--x--x--x----x---|
|-/10----10-10-10--8--|--(8)--8--8--8--8----8---|
|---------------------|-------------------------|


|--------------------|-----------------------|
|--------------------|-----------------------|
|--------------------|-----------------------|
|--/4----4--x--x--4--|--(4)--4--x--x--4---4--|
|--/4----4--x--x--4--|--(4)--4--x--x--4---4--|
|--/2----2--x--x--2--|--(2)--2--x--x--2---2--|
|
|--------------------|-----------------------|
|--------------------|-----------------------|
|-/11---11-11-11-11--|-(11)-11-11-11-11--11--|
|--/x----x--x--x--x--|--(x)--x--x--x--x---x--|
|--/9----9--9--9--9--|--(9)--9--9--9--9---9--|
|--------------------|-----------------------|


|--------------------|-------------------------|
|--------------------|-------------------------|
|--------------------|-------------------------|
|--/5----5--x--x--3--|--(3)--3--x--x--3---3----|
|--/5----5--x--x--3--|--(3)--3--x--x--3---3----|
|--/3----3--x--x--1--|--(1)--1--x--x--1---1----|
|
|--------------------|-------------------------|
|--------------------|-------------------------|
|-/12---12-12-12-10--|-(10)-10-10-10-10--10----|
|--/x----x--x--x--x--|--(x)--x--x--x--x---x----|
|-/10---10-10-10--8--|--(8)--8--8--8--8---8----|
|--------------------|-------------------------|


|--------------------|-----------------------|
|--------------------|-----------------------|
|--------------------|-----------------------|
|--/4----4--x--x--4--|--(4)--4--x--x--4---4--|
|--/4----4--x--x--4--|--(4)--4--x--x--4---4--|
|--/2----2--x--x--2--|--(2)--2--x--x--2---2--|
|
|--------------------|-----------------------|
|--------------------|-----------------------|
|-/11---11-11-11-11--|-(11)-11-11-11-11--11--|
|--/x----x--x--x--x--|--(x)--x--x--x--x---x--|
|--/9----9--9--9--9--|--(9)--9--9--9--9---9--|
|--------------------|-----------------------|


                             PM------------|
|--------------------|--------------------------|
|--------------------|--------------------------|
|--------------------|--------------------------|
|--/5----5--x--x--3--|--(3)--3--3--3--3--3--3---|
|--/5----5--x--x--3--|--(3)--3--3--3--3--3--3---|
|--/3----3--x--x--1--|--(1)--1--1--1--1--1--1-2-|
|
|--------------------|--------------------------|
|--------------------|--------------------------|
|-/12---12-12-12-10--|-(10)-10-10-10-10-10-10---|
|--/x----x--x--x--x--|--(x)--x--x--x--x--x--x---|
|-/10---10-10-10--8--|--(8)--8--8--8--8--8--8---|
|--------------------|------------------------2-|


   Breakdown
    Q=160
||--------------------|-------------------|
||o-------------------|-------------------|
||------------2-------|-----------2-4-5---|
||------5-4-5---5-2---|-----5-4-5---------|
||o-------------------|-------------------|
||--(2)-------------2-|-(2)-------------2-|
|
||--------------------|-------------------|
||o-------------------|-------------------|
||------------2-------|-----------2-4-5---|
||------5-4-5---5-2---|-----5-4-5---------|
||o-------------------|-------------------|
||--(2)-------------2-|-(2)-------------2-|


|-------------------|------------------||
|-------------------|-----------------o||
|-----------2-------|------------------||
|-----5-4-5---5-2-5-|-(5)-2--8--7------||
|-----------------5-|-(5)-2--8--7-----o||
|-(2)-------------3-|-(3)-0--6--5--2---||
|
|-------------------|------------------||
|-------------------|-----------------o||
|-----------2-------|------------------||
|-----5-4-5---5-2-5-|-(5)-2--8--7------||
|-----------------5-|-(5)-2--8--7-----o||
|-(2)-------------3-|-(3)-0--6--5--2---||


||--------------------|-------------------|
||o-------------------|-------------------|
||------------2-------|-----------2-4-5---|
||------5-4-5---5-2---|-----5-4-5---------|
||o-------------------|-------------------|
||--(2)-------------2-|-(2)-------------2-|
|
||--------------------|-------------2-3---|
||o-----3-2-3-5-3-0---|-----3-2-3-5-------|
||--------------------|-------------------|
||--------------------|-------------------|
||o-------------------|-------------------|
||--(2)-------------2-|-(2)-------------2-|


|-------------------|------------------||
|-------------------|-----------------o||
|-----------2-------|------------------||
|-----5-4-5---5-2-5-|-(5)-2--8--7------||
|-----------------5-|-(5)-2--8--7-----o||
|-(2)-------------3-|-(3)-0--6--5--2---||
|
|-------------------|------------------||
|-----3-2-3-5-3-0---|-----------------o||
|-------------------|------------------||
|-----------------5-|-(5)-2--8--7------||
|-----------------5-|-(5)-2--8--7-----o||
|-(2)-------------3-|-(3)-0--6--5--2---||


|------------|-----|
|------------|-----|
|------------|-----|
|------------|-----|
|------------|-----|
|-(2)--------|-----|
|
|------------|-----|
|------------|-----|
|------------|-----|
|------------|-----|
|------------|-----|
|-(2)--------|-----|


  Gtrs I, II
  PM------|          PM--------------|          PM----------|
|------------------|--------------------------|-------------------------|
|------------------|--------------------------|-------------------------|
|-----------12\9\8-|-------------------12\9\8-|---------------12\9\8----|
|------------x-x-x-|--------------------x-x-x-|----------------x-x-x----|
|-----------10\7\6-|-------------------10\7\6-|---------------10\7\6----|
|-0-0-0-0-0--------|-0-0-0-0-0-0-0-0-0--------|-0-0-0-0-0-0-0-----------|


    PM             ~~~~~~~~~PM----|
||--------------------|--------------------|
||o-------------------|--------------------|
||--------------------|-------------12\9\8-|
||----7p5-8-----------|--------------x-x-x-|
||o-------------------|-------------10\7\6-|
||--0-------0-5-3-[6]-|-(6)-0-0-0-0--------|


  PM--------------|          PM----------|
                                                     3x
|--------------------------|-------------------------||
|--------------------------|------------------------o||
|-------------------12\9\8-|---------------12\9\8----||
|--------------------x-x-x-|----------------x-x-x----||
|-------------------10\7\6-|---------------10\7\6---o||
|-0-0-0-0-0-0-0-0-0--------|-0-0-0-0-0-0-0-----------||


    PM             ~~~~~~~~~  PM--------------------------------|
||--------------------|----------------|-------------|-------------||
||o-------------------|----------------|-------------|------------o||
||--------------------|----------------|-------------|-------------||
||----7p5-8-----------|----------------|-------------|-------------||
||o-------------------|-------2--2--2--|-2--2--2--2--|-2--2--2--2-o||
||--0-------0-5-3-[6]-|-(6)-0-0--0--0--|-0--0--0--0--|-0--0--0--0--||


  PM
|-----------------||--------------------|
|-----------------||o-------------------|
|-----------------||------------2-------|
|---7p5-8---------||------5-4-5---5-2---|
|-----------------||o-------------------|
|-0-------0-5-3-2-||--(2)-------------2-|


|-------------------|-------------------|-----------------||
|-------------------|-------------------|----------------o||
|-----------2-4-5---|-----------2-------|-----------------||
|-----5-4-5---------|-----5-4-5---5-2-5-|-(5)-2--8--7-----||
|-------------------|-----------------5-|-(5)-2--8--7----o||
|-(2)-------------2-|-(2)-------------3-|-(3)-0--6--5--2--||


    Gtr I
||--------------------|-------------------|
||o-------------------|-------------------|
||------------2-------|-----------2-4-5---|
||------5-4-5---5-2---|-----5-4-5---------|
||o-------------------|-------------------|
||--(2)-------------2-|-(2)-------------2-|
|
|   Gtr II
||--------------------|-------------2-3---|
||o-----3-2-3-5-3-0---|-----3-2-3-5-------|
||--------------------|-------------------|
||--------------------|-------------------|
||o-------------------|-------------------|
||--(2)-------------2-|-(2)-------------2-|


|-------------------|------------------||
|-------------------|-----------------o||
|-----------2-------|------------------||
|-----5-4-5---5-2-5-|-(5)-2--8--7------||
|-----------------5-|-(5)-2--8--7-----o||
|-(2)-------------3-|-(3)-0--6--5--2---||
|
|-------------------|------------------||
|-----3-2-3-5-3-0---|-----------------o||
|-------------------|------------------||
|-----------------5-|-(5)-2--8--7------||
|-----------------5-|-(5)-2--8--7-----o||
|-(2)-------------3-|-(3)-0--6--5--2---||


 Breakdown 2
  Gtrs I, II
|----------|------------|------------|--------|
|----------|------------|------------|--------|
|-8--------|-(8)--------|-(8)--------|-(8)----|
|-8--------|-(8)--------|-(8)--------|-(8)----|
|-6--------|-(6)--------|-(6)--------|-(6)----|
|-6--------|-(6)--------|-(6)--------|-(6)----|


  Gtr I
|---------------------------------|-----------------------------------|
|---------------------------------|-----------------------------------|
|---------------------------------|-----------------------------------|
|---------------------------------|-----------------------------------|
|---------------------------------|-----------------------------------|
|-3h5-5-5-5-5-5-5-6p5-5-5-5-5-5-5-|--8p=5-5-5-5-5-5-5-6p5-5-5-5-5-5-5-|
|
| Gtr II
|---------------------------------|-----------------------------------|
|---------------------------------|-----------------------------------|
|-8-------------------------------|-(8)-------------------------------|
|-8-------------------------------|-(8)-------------------------------|
|-6-------------------------------|-(6)-------------------------------|
|-6-------------------------------|-(6)-------------------------------|


|-----------------------------------|---------------------------|
|-----------------------------------|---------------------------|
|-----------------------------------|-------------------5-7-8---|
|-----------------------------------|-------------------5-7-8---|
|--6p=5-----------------------------|-------------------3-5-6---|
|-------5-5-5-5-5-5-6p5-5-5-5-5-5-5-|--8p=5-5-5-5-5-5-5-------3-|
|
|-----------------------------------|---------------------------|
|-----------------------------------|---------------------------|
|-(8)-------------------------------|-(8)-----------------------|
|-(8)-------------------------------|-(8)-----------------------|
|-(6)-------------------------------|-(6)-----------------------|
|-(6)-------------------------------|-(6)-----------------------|


|---------------------------------|-----------------------------------|
|---------------------------------|-----------------------------------|
|---------------------------------|-----------------------------------|
|---------------------------------|-----------------------------------|
|---------------------------------|-----------------------------------|
|-3h5-5-5-5-5-5-5-6p5-5-5-5-5-5-5-|-8p5-5-5-5-5-5-5-6p5-5-5-5-5-5-5---|
|
|---------------------------------|-----------------------------------|
|---------------------------------|-----------------------------------|
|---------------------------------|-----------------------------------|
|-7-------------------------------|-----------------------------------|
|-7-------------------------------|-----------------------------------|
|-5-------------------------------|-----------------------------------|


|---------------------------------|----------------------------|
|---------------------------------|----------------------------|
|---------------------------------|-----------------5-7-8------|
|---------------------------------|-----------------5-7-8------|
|-6p5-----------------------------|-----------------3-5-6------|
|-----5-5-5-5-5-5-6p5-5-5-5-5-5-5-|-8p5-5-5-5-5-5-5-------3----|
|
|---------------------------------|----------------------------|
|---------------------------------|----------------------------|
|---------------------------------|-----------------5-7-8------|
|---------------------------------|-----------------5-7-8------|
|---------------------------------|-----------------3-5-6------|
|---------------------------------|-----------------------3----|


||----------------------------------|----------------------------------|
||o---------------------------------|----------------------------------|
||----------------------------------|----------------------------------|
||----------------------------------|----------------------------------|
||o---------------------------------|----------------------------------|
||--3h5-5-5-5-5-5-5-6p5-5-5-5-5-5-5-|-8p5-5-5-5-5-5-5-6p5-5-5-5-5-5-5--|
|
||----------------------------------|----------------------------------|
||o---------------------------------|----------------------------------|
||----------------------------------|----------------------------------|
||----------------------------------|----------------------------------|
||o---------------------------------|----------------------------------|
||--3h5-5-5-5-5-5-5-6p5-5-5-5-5-5-5-|-8p5-5-5-5-5-5-5-6p5-5-5-5-5-5-5--|


|---------------------------------|--------------------------||
|---------------------------------|-------------------------o||
|---------------------------------|-----------------5-7-8----||
|---------------------------------|-----------------5-7-8----||
|-6p5-----------------------------|-----------------3-5-6---o||
|-----5-5-5-5-5-5-6p5-5-5-5-5-5-5-|-8p5-5-5-5-5-5-5-------3--||
|
|---------------------------------|--------------------------||
|---------------------------------|-------------------------o||
|---------------------------------|-----------------5-7-8----||
|---------------------------------|-----------------5-7-8----||
|-6p5-----------------------------|-----------------3-5-6---o||
|-----5-5-5-5-5-5-6p5-5-5-5-5-5-5-|-8p5-5-5-5-5-5-5-------3--||


|---------------------------------|-----------------------------------|
|---------------------------------|-----------------------------------|
|---------------------------------|-----------------------------------|
|---------------------------------|-----------------------------------|
|---------------------------------|-----------------------------------|
|-3h5-5-5-5-5-5-5-6p5-5-5-5-5-5-5-|-8p5-5-5-5-5-5-5-6p5-5-5-5-5-5-5---|
|
|---------------------------------|-----------------------------------|
|---------------------------------|-----------------------------------|
|---------------------------------|-----------------------------------|
|---------------------------------|-----------------------------------|
|---------------------------------|-----------------------------------|
|-3h5-5-5-5-5-5-5-6p5-5-5-5-5-5-5-|-8p5-5-5-5-5-5-5-6p5-5-5-5-5-5-5---|


|---------------------------------|---------------|
|---------------------------------|---------------|
|---------------------------------|-8--5--6--3----|
|---------------------------------|-8--5--6--3----|
|-6p5-----------------------------|-6--3--4--1----|
|-----5-5-5-5-5-5-6p5-5-5-5-5-5-5-|---------------|
|
|---------------------------------|---------------|
|---------------------------------|---------------|
|---------------------------------|-8--5--6--3----|
|---------------------------------|-8--5--6--3----|
|-6p5-----------------------------|-6--3--4--1----|
|-----5-5-5-5-5-5-6p5-5-5-5-5-5-5-|---------------|


|---------------------------------|-----------------------------------|
|---------------------------------|-----------------------------------|
|---------------------------------|-----------------------------------|
|---------------------------------|-----------------------------------|
|---------------------------------|-----------------------------------|
|-3h5-5-5-5-5-5-5-6p5-5-5-5-5-5-5-|-8p5-5-5-5-5-5-5-6p5-5-5-5-5-5-5---|
|
|---------------------------------|-----------------------------------|
|---------------------------------|-----------------------------------|
|---------------------------------|-----------------------------------|
|---------------------------------|-----------------------------------|
|---------------------------------|-----------------------------------|
|-3h5-5-5-5-5-5-5-6p5-5-5-5-5-5-5-|-8p5-5-5-5-5-5-5-6p5-5-5-5-5-5-5---|


|---------------------------------|------------------|
|---------------------------------|------------------|
|---------------------------------|------------------|
|---------------------------------|-2----------------|
|-6p5-----------------------------|-2----------------|
|-----5-5-5-5-5-5-6p5-5-5-5-5-5-5-|-0----------------|
|
|---------------------------------|------------------|
|---------------------------------|------------------|
|---------------------------------|------5---5---5---|
|---------------------------------|-2--2---2---2---3-|
|-6p5-----------------------------|-2----------------|
|-----5-5-5-5-5-5-6p5-5-5-5-5-5-5-|-0----------------|


  PM-------------------------------------------------
|-------------------------|-------------------------|
|-------------------------|-------------------------|
|-------------------------|-------------------------|
|-------------------------|-------------------------|
|-2-2-2-2-2-2-2-2-2-2-2-2-|-2-2-2-2-2-2-2-2-2-2-2-2-|
|-0-0-0-0-0-0-0-0-0-0-0-0-|-0-0-0-0-0-0-0-0-0-0-0-0-|
|
| PM-------------------------------------------------
|-------------------------|-------------------------|
|-------------------------|-------------------------|
|-------------------------|-------------------------|
|-------------------------|-------------------------|
|-2-2-2-2-2-2-2-2-2-2-2-2-|-2-2-2-2-2-2-2-2-2-2-2-2-|
|-0-0-0-0-0-0-0-0-0-0-0-0-|-0-0-0-0-0-0-0-0-0-0-0-0-|


 ---------------------------|
|-------------------------|-----------------|
|-------------------------|-----------------|
|-------------------------|-----5---5---5---|
|-------------------------|---2---2---2---3-|
|-2-2-2-2-2-2-2-2-2-2-2-2-|-2---------------|
|-0-0-0-0-0-0-0-0-0-0-0-0-|-0---------------|
|
|---------------------------|
|-------------------------|-----------------|
|-------------------------|-----------------|
|-------------------------|-----5---5---5---|
|-------------------------|---2---2---2---3-|
|-2-2-2-2-2-2-2-2-2-2-2-2-|-2---------------|
|-0-0-0-0-0-0-0-0-0-0-0-0-|-0---------------|


  PM-------------------------------------------------
|-------------------------|-------------------------|
|-------------------------|-------------------------|
|-------------------------|-------------------------|
|-------------------------|-------------------------|
|-2-2-2-2-2-2-2-2-2-2-2-2-|-2-2-2-2-2-2-2-2-2-2-2-2-|
|-0-0-0-0-0-0-0-0-0-0-0-0-|-0-0-0-0-0-0-0-0-0-0-0-0-|
|
| PM-------------------------------------------------
|-------------------------|-------------------------|
|-------------------------|-------------------------|
|-------------------------|-------------------------|
|-------------------------|-------------------------|
|-2-2-2-2-2-2-2-2-2-2-2-2-|-2-2-2-2-2-2-2-2-2-2-2-2-|
|-0-0-0-0-0-0-0-0-0-0-0-0-|-0-0-0-0-0-0-0-0-0-0-0-0-|


                            /1_________|
 -----------------------|
|-------------------------|---------------------|
|-------------------------|---------------------|
|-------------------------|-4---------(4)-------|
|-------------------------|---------------------|
|-2-2-2-2-2-2-2-2-2-2-2-2-|---------------------|
|-0-0-0-0-0-0-0-0-0-0-0-0-|---------------------|
|
|---------------------------|
|-------------------------|---------------------|
|-------------------------|---------------------|
|-------------------------|-------5----5----5---|
|-------------------------|-----2---2-----2---3-|
|-2-2-2-2-2-2-2-2-2-2-2-2-|-2-------------------|
|-0-0-0-0-0-0-0-0-0-0-0-0-|-0-------------------|


  PM-------------------------------------------------
|-------------------------|-------------------------|
|-------------------------|-------------------------|
|-------------------------|-------------------------|
|-------------------------|-------------------------|
|-2-2-2-2-2-2-2-2-2-2-2-2-|-2-2-2-2-2-2-2-2-2-2-2-2-|
|-0-0-0-0-0-0-0-0-0-0-0-0-|-0-0-0-0-0-0-0-0-0-0-0-0-|
|
| PM-------------------------------------------------
|-------------------------|-------------------------|
|-------------------------|-------------------------|
|-------------------------|-------------------------|
|-------------------------|-------------------------|
|-2-2-2-2-2-2-2-2-2-2-2-2-|-2-2-2-2-2-2-2-2-2-2-2-2-|
|-0-0-0-0-0-0-0-0-0-0-0-0-|-0-0-0-0-0-0-0-0-0-0-0-0-|


 ---------------------------|
|-------------------------|-----------------|
|-------------------------|-----------------|
|-------------------------|-----5---5---5---|
|-------------------------|---2---2---2---3-|
|-2-2-2-2-2-2-2-2-2-2-2-2-|-2---------------|
|-0-0-0-0-0-0-0-0-0-0-0-0-|-0---------------|
|
|---------------------------|
|-------------------------|-----------------|
|-------------------------|-----------------|
|-------------------------|-----5---5---5---|
|-------------------------|---2---2---2---3-|
|-2-2-2-2-2-2-2-2-2-2-2-2-|-2---------------|
|-0-0-0-0-0-0-0-0-0-0-0-0-|-0---------------|


  PM-------------------------------------------------
|-------------------------|-------------------------|
|-------------------------|-------------------------|
|-------------------------|-------------------------|
|-------------------------|-------------------------|
|-2-2-2-2-2-2-2-2-2-2-2-2-|-2-2-2-2-2-2-2-2-2-2-2-2-|
|-0-0-0-0-0-0-0-0-0-0-0-0-|-0-0-0-0-0-0-0-0-0-0-0-0-|
|
| PM-------------------------------------------------
|-------------------------|-------------------------|
|-------------------------|-------------------------|
|-------------------------|-------------------------|
|-------------------------|-------------------------|
|-2-2-2-2-2-2-2-2-2-2-2-2-|-2-2-2-2-2-2-2-2-2-2-2-2-|
|-0-0-0-0-0-0-0-0-0-0-0-0-|-0-0-0-0-0-0-0-0-0-0-0-0-|


 -----------------------|
|-------------------------|-------|
|-------------------------|-------|
|-------------------------|-------|
|-------------------------|-x\----|
|-2-2-2-2-2-2-2-2-2-2-2-2-|-x\----|
|-0-0-0-0-0-0-0-0-0-0-0-0-|-x\----|
|
|-----------------------|
|-------------------------|-------|
|-------------------------|-------|
|-------------------------|-------|
|-------------------------|-x\----|
|-2-2-2-2-2-2-2-2-2-2-2-2-|-x\----|
|-0-0-0-0-0-0-0-0-0-0-0-0-|-x\----|


 Guitar Solo
|-13b15======13-------13-----13-----13r======13-----|
|---------------------------------------------------|
|---------------------------------------------------|
|---------------------------------------------------|
|---------------------------------------------------|
|---------------------------------------------------|
|
|---------------------------------------------------|
|---------------------------------------------------|
|---------------------------------------------------|
|---------------------------------------------------|
|---------------------------------------------------|
|--0h====2-2----2-2-2----2-2--3p2-2----2-2-2----2-2-|


|13b16======13-------13-----13-----13r======13-----|-19-15-19-15-19-15----15-19-15-19-15-19-15----15|
|--------------------------------------------------|-------------------17----------------------17---|
|--------------------------------------------------|------------------------------------------------|
|--------------------------------------------------|------------------------------------------------|
|--------------------------------------------------|------------------------------------------------|
|--------------------------------------------------|------------------------------------------------|
|
|---------------------------------------------------|-----------------------------------------------|
|--------------------------------------------------|------------------------------------------------|
|--------------------------------------------------|------------------------------------------------|
|--------------------------------------------------|------------------------------------------------|
|--------------------------------------------------|--3p=2------------------------------------------|
|-5-----2-2----2-2-2----2-2--3p2-2----2-2-2----2-2-|--------2--2--2--2--2--2--3p=2--2--2--2--2--2--2|


                                       ~~~~~~~~~~~~~~~~~~~~~~~~~~~~~~~~~~
|-----------------------------------|------------------/7---------------|
|-18-17-18-17-15-17-15-13-15\-------|-----------------------------------|
|-----------------------------------|-/4--------------------------------|
|-----------------------------------|-----------------------------------|
|-----------------------------------|-----------------------------------|
|-----------------------------------|-----------------------------------|
|
|-----------------------------------|-----------------------------------|
|-----------------------------------|-----------------------------------|
|-----------------------------------|-----------------------------------|
|-----------------------------------|-----------------------------------|
|--------------------------0--2-3---|-----------------------------------|
|--5p=2--2--2--2--2--2--2---------0-|--0h2-2-2-2-2-2-2--3p2-2-2-2-2-2-2-|


 ~~~~~~~~~~~~~~~~~~~~~~~
|------------------/11----------------|
|-------------------------------------|
|-/8----------------------------------|
|-------------------------------------|
|-------------------------------------|
|-------------------------------------|
|
|-------------------------------------|
|-------------------------------------|
|-------------------------------------|
|-------------------------------------|
|-------------------------------------|
|--5-2-2-2-2-2-2-2---3p2-2-2-2-2-2-2--|


|-21-18----18-21-18-19-17-21-18----18-21-18-19-17-|
|-------19----------------------19----------------|
|-------------------------------------------------|
|-------------------------------------------------|
|-------------------------------------------------|
|-------------------------------------------------|
|
|-------------------------------------------------|
|-------------------------------------------------|
|-------------------------------------------------|
|-------------------------------------------------|
|--3p=2-------------------------------------------|
|--------2--2--2--2--2--2--3p=2--2--2--2--2--2--2-|


                           ~~~~~~
|-21-18----18-21-18-19-17-22b24r=========|
|-------19-------------------------------|
|----------------------------------------|
|----------------------------------------|
|----------------------------------------|
|----------------------------------------|
|
|----------------------------------------|
|----------------------------------------|
|----------------------------------------|
|----------------------------------------|
|--------------------------0----2-3------|
|--5p=2--2--2--2--2--2--2-----------0----|


|---------------------------------|--------------------------------------|
|---------------------------------|--------------------------------------|
|---------------------------------|--------------------------------------|
|---------------------------------|--------------------------------------|
|---------------------------------|--------------------------------------|
|-3h5-5-5-5-5-5-5-6p5-5-5-5-5-5-5-|--8p5-5--5--5-5-5-5-6p5-5-5-5-5-5-5---|
|
|                                           ~~~
|---------------------------------|--------------------------------------|
|---------------------------------|--------------------------------------|
|-8-8-8-8-8-8-8-8-8-8-8-8-8-8-8---|-10-9-8-------------------------------|
|---------------------------------|--------[8]---------------------------|
|---------------------------------|--------------------------------------|
|---------------------------------|--------------------------------------|


|-------------------------------------------------|
|-------------------------------------------------|
|-------------------------------------------------|
|-------------------------------------------------|
|--6p=5-------------------------------------------|
|--------5--5--5--5--5--5--6p=5--5--5--5--5--5--5-|
|
|-------------------------------------------------|
|-------------------------------------------------|
|-------------------------------------------------|
|----------------------------------14-15----14-15-|
|-------14-15-17-14-15-17-14-15-17-------17-------|
|-15-17-------------------------------------------|


|---------------------------------------------------|
|---------------------------------------------------|
|---------------------------------------------------|
|---------------------------------------------------|
|--------------------------3--5--6------------------|
|--8p=5--5--5--5--5--5--5-----------3---------------|
|
|---------------------------------------------------|
|-------------------------------------15-------15---|
|----------14-16----14-16----14-16-17----16-17------|
|-14-15-17-------17-------17------------------------|
|---------------------------------------------------|
|---------------------------------------------------|


|---------------------------------------|
|---------------------------------------|
|---------------------------------------|
|---------------------------------------|
|---------------------------------------|
|--3h5--5-5-5-5--5-5--6p5--5-5-5-5--5-5-|
|
|---------------------------------------|
|-17-----------------18-----------------|
|------14-------14--------14-------14---|
|---------------------------------------|
|---------------------------------------|
|---------------------------------------|


|-------------------------------------------|
|-------------------------------------------|
|-------------------------------------------|
|-------------------------------------------|
|-------------------------------------------|
|--8p=5--5--5--5--5--5--5-6p5-5-5-5-5-5-5---|
|
|-15----20----19----15----------------------|
|-------------------------------------------|
|----14----14----14----14-------------------|
|-------------------------------------------|
|-------------------------------------------|
|-------------------------------------------|


|-----------------------------------------|
|-----------------------------------------|
|-----------------------------------------|
|-----------------------------------------|
|--6p5------------------------------------|
|-------5-5--5-5--5-5--6p5--5-5--5-5--5-5-|
|
|-----------------------------------------|
|-17--------15--------17--------18--------|
|------14--------14--------14--------14---|
|-----------------------------------------|
|-----------------------------------------|
|-----------------------------------------|


|---------------------------------------|
|---------------------------------------|
|---------------------------------------|
|---------------------------------------|
|--------------------------3--5--6------|
|--8p=5--5--5--5--5--5--5----------3----|
|
|----------------------20-24------------|
|----------------17-18-------20-22------|
|-------16-17-19------------------------|
|-17-19---------------------------------|
|---------------------------------------|
|---------------------------------------|


                                                                  ~~~
|----------------------------------------|----------------------------------------|
|----------------------------------------|----------------------------------------|
|-9tr10-----------------------7tr9-------|-6tr7-------5tr6-------[5]--------------|
|----------------------------------------|----------------------------------------|
|----------------------------------------|----------------------------------------|
|----------------------------------------|----------------------------------------|
|
|----------------------------------------|----------------------------------------|
|----------------------------------------|----------------------------------------|
|----------------------------------------|----------------------------------------|
|----------------------------------------|----------------------------------------|
|----------------------------------------|----------------------------------------|
|-0h====2-2-2-2-2-2-2-3p2-2-2-2----2-2-2-|-5----2-2-2-2----2-2-2--3p2-2-2-2-2-2-2-|


|-15-15-15-15-14-15-14-12-15-15-15-15-14-15-14-12-|
|-------------------------------------------------|
|-------------------------------------------------|
|-------------------------------------------------|
|-------------------------------------------------|
|-------------------------------------------------|
|
|-------------------------------------------------|
|-------------------------------------------------|
|-------------------------------------------------|
|-------------------------------------------------|
|--3p=2-------------------------------------------|
|--------2--2--2--2--2--2--3p=2--2--2--2--2--2--2-|


|-15-15-15-15-14-15-14-12-14-15-14-12-14\---|-----------------------------------------------|
|-------------------------------------------|-----------------------------------------------|
|-------------------------------------------|-----------------------------------------------|
|-------------------------------------------|-----------------------------------------------|
|-------------------------------------------|-----------------------------------------------|
|-------------------------------------------|--3h5-5----5-5-5----5-5--6p5-5----5-5-5----5-5-|
|
|-------------------------------------------|-17-----15-------------------------------------|
|-------------------------------------------|-----------------18-----17-----18-------17-----|
|-------------------------------------------|-----------------------------------------------|
|-------------------------------------------|-----------------------------------------------|
|--------------------------0-----2-----3----|-----------------------------------------------|
|--5p=2--2--2--2--2--2--2-----------------0-|-----------------------------------------------|


|--------------------------------------------------|
|--------------------------------------------------|
|--------------------------------------------------|
|--------------------------------------------------|
|--------------------------------------------------|
|--8p5-5----5-5-5----5-5--6p5-5----5-5-5----5-5----|
|
|-17-----15-------17-----19-----20-------22--------|
|--------------------------------------------------|
|--------------------------------------------------|
|--------------------------------------------------|
|--------------------------------------------------|
|--------------------------------------------------|


|-----------------------------------------------------------------------------------------|
|-----------------------------------------------------------------------------------------|
|-----------------------------------------------------------------------------------------|
|-----------------------------------------------------------------------------------------|
|--6p===5---------------------------------------------------------------------------------|
|-------------5----5-----5----5-----5----5-----6p===5-----5----5-----5----5-----5----5----|
|
|-24-18---24------------24-18---24------------24-18---24------------24-18---24------------|
|------------22-23---22------------22-23---22------------22-23---22------------22-23---22-|
|-----------------------------------------------------------------------------------------|
|-----------------------------------------------------------------------------------------|
|-----------------------------------------------------------------------------------------|
|-----------------------------------------------------------------------------------------|


|------------------------------------------------------------------------------------|
|------------------------------------------------------------------------------------|
|------------------------------------------------------------------------------------|
|------------------------------------------------------------------------------------|
|----------------------------------------------3--------5--------6-------------------|
|--8p===5-----5----5-----5----5-----5----5--------------------------------3----------|
|
|-24-18---24------------24-18---24------------24-18-24----------24-18-24-------------|
|------------22-23---22------------22-23---22----------22-23-22----------22-23-22----|
|------------------------------------------------------------------------------------|
|------------------------------------------------------------------------------------|
|------------------------------------------------------------------------------------|
|------------------------------------------------------------------------------------|


 Breakdown
  Gtrs I, II
|-----------------|-----------------|-----------------|-----------------|
|-----------------|-----------------|-----------------|-----------------|
|-----------------|-----------------|-----------------|-----------------|
|-----------------|-----------------|-----------------|-----------------|
|-5-----4-----3---|-5-----4-----3---|-5-----4-----3---|-----------------|
|---3-2---2-1---1-|---3-2---2-1---1-|---3-2---2-1---1-|-0-1-2-1-2-3-2-3-|


|-----------------|-----------------|-----------------|-----------------|
|-----------------|-----------------|-----------------|-----------------|
|-----------------|-----------------|-----------------|-----------------|
|-----------------|-----------------|-----------------|-----------------|
|-5-----4-----3---|-5-----4-----3---|-5-----4-----3---|-----------------|
|---3-2---2-1---1-|---3-2---2-1---1-|---3-2---2-1---1-|-0-1-2-1-2-3-2-3-|


|-----------------|-----------------|-----------------|-----------------|
|-----------------|-----------------|-----------------|-----------------|
|-----------------|-----------------|-----------------|-----------------|
|-----------------|-----------------|-----------------|-----------------|
|-5-----4-----3---|-5-----4-----3---|-5-----4-----3---|-----------------|
|---3-2---2-1---1-|---3-2---2-1---1-|---3-2---2-1---1-|-0-1-2-1-2-3-2-3-|


|-----------------|-----------------|-----------------|-----------------|
|-----------------|-----------------|-----------------|-----------------|
|-7-----6-----5---|-7-----6-----5---|-7-----6-----5---|-----------------|
|---5-4---4-3---3-|---5-4---4-3---3-|---5-4---4-3---3-|-----------------|
|-----------------|-----------------|-----------------|-----------------|
|-----------------|-----------------|-----------------|-0-1-2-1-2-3-2-3-|


 Outro
|----------|------------|------------|-----------|
|----------|------------|------------|-----------|
|----------|------------|------------|-----------|
|-5--------|-(5)--------|-(5)--------|-6----4----|
|-5--------|-(5)--------|-(5)--------|-6----4----|
|-3--------|-(3)--------|-(3)--------|-4----2----|


|----------|------------|------------|-----------|
|----------|------------|------------|-----------|
|----------|------------|------------|-----------|
|-5--------|-(5)--------|-(5)--------|-8----6----|
|-5--------|-(5)--------|-(5)--------|-8----6----|
|-3--------|-(3)--------|-(3)--------|-6----4----|


|----------|------------|------------|-----------|
|----------|------------|------------|-----------|
|----------|------------|------------|-----------|
|-5--------|-(5)--------|-(5)--------|-6----4----|
|-5--------|-(5)--------|-(5)--------|-6----4----|
|-3--------|-(3)--------|-(3)--------|-4----2----|


|----------|------------|------------|------------|--------*|
|----------|------------|------------|------------|--------*|
|----------|------------|------------|------------|--------*|
|-5--------|-(5)--------|-(5)--------|-(5)--------|-(5)----*|
|-5--------|-(5)--------|-(5)--------|-(5)--------|-(5)----*|
|-3--------|-(3)--------|-(3)--------|-(3)--------|-(3)----*|


Tablature Legend
----------------
 h   - hammer-on
 p   - pull-off
 b   - bend
 pb  - pre-bend
 r   - bend release (if no number after the r, then release immediately)
 /\  - slide into or out of (from/to "nowhere")
 s   - legato slide
 S   - shift slide
  - natural harmonic
[n]  - artificial harmonic
n(n) - tapped harmonic
 ~   - vibrato
 tr  - trill
 T   - tap
 TP  - trem. picking
 PM  - palm muting
\n/  - tremolo bar dip; n = amount to dip
 \n  - tremolo bar down
 n/  - tremolo bar up
/n\  - tremolo bar inverted dip
 =   - hold bend; also acts as connecting device for hammers/pulls
 <>  - volume swell (louder/softer)
 x   - on rhythm slash represents muted slash
 o   - on rhythm slash represents single note slash

Misc Legend
-----------
 |  - bar
||  - double bar
||o - repeat start
o|| - repeat end
*|  - double bar (ending)
 :  - bar (freetime)
 $  - Segno
 &  - Coda
Tempo markers -  = BPM(8/16=s8/s16), where s8 = swing 8ths, s16 = swing 16ths

8. A Farewell to Arms

Intro (clean):
|---5----------------5----------------5---------------------|
|-------6---5---6--------6---5---6--------6---5---6------8--|
|-3---3---3---3---------------------0---0---0---0-----------|
|------------------0---0---0---0---------------------7------|
|-----------------------------------------------------------|
|-----------------------------------------------------------|

Verse 1 (clean):
|-----------------------------------------------------------------|
|-----------------------------------------------------------------|
|-----------------------------------------------------------------|
|---0-----0-----0---0-----0-----0---0-----0-----0-----0-------0---|
|-----0-----0---------1-----1---------0-----0-------5---5---3---3-|
|-0-----0-----0---0-----0-----0---0-----0-----0---5-------3-------|

|---------------------------------------------------------------------------------|
|---------------------------------------------------------------------------------|
|---------------------------------------------------------------------------------|
|---0-----0-----0---0-----0-----0---0-----0-----0-----0-------0-------0-------0---|
|-----0-----0---------1-----1---------0-----0-------5---5---3---3---1---1---3---3-|
|-0-----0-----0---0-----0-----0---0-----0-----0---6-------5-------3-------1-------|

|-----------------------------------------------------------------|
|-----------------------------------------------------------------|
|-----------------------------------------------------------------|
|---0-----0-----0---0-----0-----0---0-----0-----0-----0-------0---|
|-----0-----0---------1-----1---------0-----0-------5---5---3---3-|
|-0-----0-----0---0-----0-----0---0-----0-----0---5-------3-------|

|---------------------------------------------------------------------------------|
|---------------------------------------------------------------------------------|
|---------------------------------------------------------------------------------|
|---0-----0-----0---0-----0-----0---0-----0-----0-----0-------0-------0-------0---|
|-----0-----0---------1-----1---------0-----0-------5---5---3---3---1---1---3---3-|
|-0-----0-----0---0-----0-----0---0-----0-----0---6-------5-------3-------1-------|

|-----------------------------------------------------------------|
|-----------------------------------------------------------------|
|-------------------------------------------------------------5---|
|-8-----8-----8-----8-----8---5---7-----7-----7-----7-----7-------| x2
|---5-----5-----5-----5-----5---5---5-----5-----5-----5-----5---5-|
|-----0-----0-----0-----0-------------0-----0-----0-----0---------|

|-----------------------------------------------------------------|
|-----------------------------------------------------------------|
|-----------------------------------------------------------------|
|-8-----8-----8-----8-----8---5---7-----7-----7---5-----5-----5---|
|---5-----5-----5-----5-----5---5---5-----5-----5---3-----3-----3-|
|-----0-----0-----0-----0-------------0-----0---------0-----0-----|

|-----------------------------------------------------------------|
|-----------------------------------------------------------------|
|-----------------------------------------------------------------|
|-3-----3-----3---1-----1-----1---0-----0-----0---0-----0-----0---|
|---1-----1-----1---1-----1-----1---1-----1-----1---1-----1-----1-|
|-----0-----0---------0-----0---------0-----0---------0-----0-----|

|---------------------------------|
|---------------------------------|
|---------------------------------|
|-0-----0-----0---0-----0-----0---|
|---1-----1-----1---1-----1-----1-|
|-----0-----0---------0-----0-----|

Repeat all of verse 1 and then:

Main Riff (distorted):
Guitar 1
|----------------------------------------------------------------------|
|----------------------------------------------------------------------|
|----------------------------------------------------------------------|
|----------------------------------------------------------------------|
|-0-1-0--0-0-0-0-1-0--0-0-0-0-1-0--0-0-0-0-00-\8-8-8-8-7-7-7-7-6-6-6-6-|
|-0-1-0--0-0-0-0-1-0--0-0-0-0-1-0--0-0-0-0-00--------------------------|
|
|Guitar 2
|----------------------------------------------------------------------| x2
|----------------------------------------------------------------------|
|----------------------------------------------------------------------|
|-0-------------------------------------------\7-7-7-7-6-6-6-6-5-5-5-5-|
|-0--------------------------------------------------------------------|
|-0--------------------------------------------------------------------|

Guitar 1
|----------------------------------------------------------------------|
|----------------------------------------------------------------------|
|----------------------------------------------------------------------|
|----------------------------------------------------------------------|
|-0-1-0--0-0-0-0-1-0--0-0-0-0-1-0--0-0-0-0-00-\8-8-8-8-7-7-7-7-6-6-6-6-|
|-0-1-0--0-0-0-0-1-0--0-0-0-0-1-0--0-0-0-0-00--------------------------|
|
|Guitar 2
|----------------------------------------------------------------------| x4
|----------------------------------------------------------------------|
|----------------------------------------------------------------------|
|---------------------------------------------\7-7-7-7-6-6-6-6-5-5-5-5-|
|-0-1-0--0-0-0-0-1-0--0-0-0-0-1-0--0-0-0-0-00--------------------------|
|-0-1-0--0-0-0-0-1-0--0-0-0-0-1-0--0-0-0-0-00--------------------------|

Pre-chorus (clean):
|-----------------------------------------------------------------|
|-----------------------------------------------------------------|
|-------------------------------------------------------------5---|
|-8-----8-----8-----8-----8---5---7-----7-----7-----7-----7-------|
|---5-----5-----5-----5-----5---5---5-----5-----5-----5-----5---5-|
|-----0-----0-----0-----0-------------0-----0-----0-----0---------|

|-----------------------------------------------------------------|
|-----------------------------------------------------------------|
|---------------------------------------------------7-7-7-7-7-7-7-|
|-8-----8-----8-----8-----8---5---7-----7-----7-------------------|
|---5-----5-----5-----5-----5---5---5-----5-----5---5-5-5-5-5-5-5-|
|-----0-----0-----0-----0-------------0-----0-----0---------------|

Chorus (distorted):
|--------------------|
|-10-8-------------8-|
|------10-9-7-9-10---|x6
|--------------------|
|--------------------|
|--------------------|

|----------------------------------------------|
|-10-11-10-11-10-11-10-11-10-11-10-8-10-8-10---|
|--------------------------------------------8-|
|----------------------------------------------|
|----------------------------------------------|
|----------------------------------------------|

|--------------------|
|-10-8-------------8-|
|------10-9-7-9-10---|x6
|--------------------|
|--------------------|
|--------------------|

|-------------------------------------------------|
|-10-11-10-11-10-11-10-11-10-11-10-11-10-11-10-11-|
|-14-14-14-14-14-14-14-14-14-14-14-14-14-14-14-14-|
|-------------------------------------------------|
|-------------------------------------------------|
|-------------------------------------------------|

Verse 2:
Guitar 1
|----------------------------------------------------------------------|
|----------------------------------------------------------------------|
|----------------------------------------------------------------------|
|----------------------------------------------------------------------|
|-0-1-0--0-0-0-0-1-0--0-0-0-0-1-0--0-0-0-0-00-\8-8-8-8-7-7-7-7-6-6-6-6-|
|-0-1-0--0-0-0-0-1-0--0-0-0-0-1-0--0-0-0-0-00--------------------------|
|
|Guitar 2
|----------------------------------------------------------------------|
|----------------------------------------------------------------------|
|----------------------------------------------------------------------|
|-0-------------------------------------------\7-7-7-7-6-6-6-6-5-5-5-5-|
|-0--------------------------------------------------------------------|
|-0--------------------------------------------------------------------|

Guitar 1
|----------------------------------------------------------------------|
|----------------------------------------------------------------------|
|----------------------------------------------------------------------|
|----------------------------------------------------------------------|
|-0-1-0--0-0-0-0-1-0--0-0-0-0-1-0--0-0-0-0-00-\8-8-8-8-7-7-7-7-6-6-6-6-|
|-0-1-0--0-0-0-0-1-0--0-0-0-0-1-0--0-0-0-0-00--------------------------|
|
|Guitar 2
|----------------------------------------------------------------------| x3
|----------------------------------------------------------------------|
|----------------------------------------------------------------------|
|---------------------------------------------\7-7-7-7-6-6-6-6-5-5-5-5-|
|-0-1-0--0-0-0-0-1-0--0-0-0-0-1-0--0-0-0-0-00--------------------------|
|-0-1-0--0-0-0-0-1-0--0-0-0-0-1-0--0-0-0-0-00--------------------------|


|---------------------------------|
|---------------------------------|
|---------------------------------|
|---------------------------------| x4
|---------------------------------|
|-3-2-1-2-1-3-2-3-2-1-2-1-0-1-0-1-|

|---------------------------------|
|---------------------------------|
|---------------------------------|
|---------------------------------| x2
|-8-7-6-7-6-8-7-8-7-6-7-6-5-6-5-6-|
|---------------------------------|

|---------------------------------|
|---------------------------------|
|---------------------------------|
|-7-6-5-6-5-7-6-7-6-5-6-5-4-5-4-5-| x2
|---------------------------------|
|---------------------------------|

Pre-chorus (clean):
|-5-------------------3-------3---5-------------------------------|
|-----6---5---6---6-------6-----------6---5---6---6---8---6---8---|
|---3---3---3---3---3---3---3---3---------------------------------|
|-----------------------------------0---0---0---0---0---0---0---0-|
|-----------------------------------------------------------------|
|-----------------------------------------------------------------|

|-5-------------------------------5---6---5-------------|
|-----6---5---6---6---8---6---8---------------8---8--6--|
|---0---0---0---0---0---0---0---0-----------------------|
|-----------------------------------7---7---7---7-------|
|-------------------------------------------------------|
|-------------------------------------------------------|

Chorus (distorted):
|--------------------|
|-10-8-------------8-|
|------10-9-7-9-10---|x6
|--------------------|
|--------------------|
|--------------------|

|----------------------------------------------|
|-10-11-10-11-10-11-10-11-10-11-10-8-10-8-10---|
|--------------------------------------------8-|
|----------------------------------------------|
|----------------------------------------------|
|----------------------------------------------|

|--------------------|
|-10-8-------------8-|
|------10-9-7-9-10---|x6
|--------------------|
|--------------------|
|--------------------|

|-------------------------------------------------|
|-10-11-10-11-10-11-10-11-10-11-10-11-10-11-10-11-|
|-14-14-14-14-14-14-14-14-14-14-14-14-14-14-14-14-|
|-------------------------------------------------|
|-------------------------------------------------|
|-------------------------------------------------|

Bridge:
|----------------------------------|
|----------------------------------|
|----------------------------------|
|-0--------------------------------|
|-0----ring out for a long time----|
|-0--------------------------------|

|----------------------------------------------------------------------|
|----------------------------------------------------------------------|
|----------------------------------------------------------------------|
|----------------------------------------------------------------------| x4
|----------------------------------------------------------------------|
|-12-10-12-0-12-10-12-10-12-0-12-10-12-10-12-0-12-10-12-10-12-13-12-10-|

|-------------------------------------------------------------------|
|-------------------------------------------------------------------|
|-------------------------------------------------------------------|
|-------------------------------------------------------------------| x2
|-12-10-12--12-10-12-10-12--12-10-12-10-12--12-10-12-10-12-13-12-10-|
|-12-10-12--12-10-12-10-12--12-10-12-10-12--12-10-12-10-12-13-12-10-|

|----------------------------------------------------------------------|
|----------------------------------------------------------------------|
|----------------------------------------------------------------------|
|----------------------------------------------------------------------| x2
|----------------------------------------------------------------------|
|-12-10-12-0-12-10-12-10-12-0-12-10-12-10-12-0-12-10-12-10-12-13-12-10-|

|----------------------------------------------------------------------|
|----------------------------------------------------------------------|
|----------------------------------------------------------------------|
|----------------------------------------------------------------------|
|----------------------------------------------------------------------|
|-15-14-15-0-15-14-15-14-15-0-15-14-15-14-15-0-15-14-15-14-15-17-15-14-|

|----------------------------------------------------------------------|
|----------------------------------------------------------------------|
|----------------------------------------------------------------------|
|----------------------------------------------------13-13-13-13-13-13-|
|-12-10-12---12-10-12-10-12---12-10-12-10-12---12-10-------------------|
|----------0----------------0----------------0-------------------------|

|--------------------------------------------------------------------------------|
|------------------------------------------------------------------------------6-|
|--------------------------------------------------------------5-7-8-----5-7-8---|
|----------------------------------\8--7--7--------------5-7-8-------7-8---------| x2
|-3--------------5--------6--------\6--5--5--------------------------------------|
|-3--0-0-0-0-0-0-5--0-0-0-6--0-0-0-----------0-0-0-0-0-0-------------------------|

|----------------------------------------------------------------------|
|----------------------------------------------------------------------|
|----------------------------------------------------------------------|
|----------------------------------------------------------------------|
|----------------------------------------------------------------------|
|-12-10-12-0-12-10-12-10-12-0-12-10-12-10-12-0-12-10-12-10-12-13-12-10-|

|----------------------------------------------------------------------|
|----------------------------------------------------------------------|
|----------------------------------------------------------------------|
|-12-10-12-0-12-10-12-10-12-0-12-10-12-10-12-0-12-10-12-10-12-13-12-10-|
|----------------------------------------------------------------------|
|----------------------------------------------------------------------|

|----------------------------------------------------------------------|
|----------------------------------------------------------------------|
|----------------------------------------------------------------------|
|-15-14-15-0-15-14-15-14-15-0-15-14-15-14-15-0-15-14-15-14-15-17-15-14-|
|----------------------------------------------------------------------|
|----------------------------------------------------------------------|

|----------------------------------------------------------------------|
|----------------------------------------------------16-16-16-16-16-16-|
|----------------------------------------------------------------------|
|-19-17-19-0-19-17-19-17-19-0-19-17-19-17-19-0-19-17-------------------|
|----------------------------------------------------------------------|
|----------------------------------------------------------------------|

|--------------------------------------------------------------------------------|
|------------------------------------------------------------------------------6-|
|--------------------------------------------------------------5-7-8-----5-7-8---|
|----------------------------------\8--7--7--------------5-7-8-------7-8---------| x2
|-3--------------5--------6--------\6--5--5--------------------------------------|
|-3--0-0-0-0-0-0-5--0-0-0-6--0-0-0-----------0-0-0-0-0-0-------------------------|

Solo: (Most of the solo has a triplet feel)
|-------------------------------------------------------------------------|
|-13b--13b-13-13b-13-13b-13-13b-13-13b-13-13b-13-13b-13-13b-13-13b-13-13b-|
|-12---12-----12-----12-----12-----10-----10-----10------9------9------9--|
|-------------------------------------------------------------------------|
|-------------------------------------------------------------------------|
|-------------------------------------------------------------------------|

|----------------------------------------------------------10b--13--15--|
|-13--------------------------------------------------------------------|
|----9-7h9p7-5-7-9\10-9h10p9-7-9-10\12-10h12p10-9-10-12\14--------------|
|-----------------------------------------------------------------------|
|-----------------------------------------------------------------------|
|-----------------------------------------------------------------------|

|-15b--15b-15b-15b-15b-15b-15b-15b-15b-15b-15b-15br--|
|----------------------------------------------------|
|----------------------------------------------------|
|----------------------------------------------------|
|----------------------------------------------------|
|----------------------------------------------------|

|-15-15-13-13-12-12-12-12-13-12-17p13----13-------------------------|
|-------------------------------------15----15-13-------------------|
|-------------------------------------------------15p14-12-14-12----|
|----------------------------------------------------------------15-|
|-------------------------------------------------------------------|
|-------------------------------------------------------------------|

|-------------------ph-------22p18----22p18----22p18----22p18----22p18----|
|-------------------14bv-----------20-------20-------20-------20-------20-|
|-------14-------14-------------------------------------------------------|
|-12-15----14-15----------------------------------------------------------|
|-------------------------------------------------------------------------|
|-------------------------------------------------------------------------|

|-22p18----22p18----22p18----22p18----22p18----22-20-18-20-|
|-------20-------20-------20-------20-------20-------------|
|----------------------------------------------------------|
|----------------------------------------------------------|
|----------------------------------------------------------|
|----------------------------------------------------------|

|-18----18-17----17-15----15-13----13-10--10-10-10-10-10-10-10-10-10-10-10-|
|----15-------15-------15-------15----13b-15-15-15-15-15-15-15-15-15-15-15-|
|--------------------------------------------------------------------------|
|--------------------------------------------------------------------------|
|--------------------------------------------------------------------------|
|--------------------------------------------------------------------------|

|-10---10--10--10--13-10--------13-10---10--10--10--13-------------13-|
|-15b--15b-15b-15b----15b---15b----15b--15b-15b-15b----15b--r--15b----|
|---------------------------------------------------------------------|
|---------------------------------------------------------------------|
|---------------------------------------------------------------------|
|---------------------------------------------------------------------|

|-17-15-------17-17-15-------17-17-15-------17-17-15-------|
|-------18-17----------18-17----------18-17----------18-17-|
|----------------------------------------------------------|
|----------------------------------------------------------|
|----------------------------------------------------------|
|----------------------------------------------------------|

|-22-22-20-------22-22-20-------24-24-22-------24-24-24--ph---------------|
|----------18-17----------18-17----------18-17-----------13-whammy dive---|
|-------------------------------------------------------------------------|
|-------------------------------------------------------------------------|
|-------------------------------------------------------------------------|
|-------------------------------------------------------------------------|

Rhythm behind solo:
|-----------------------------------------------|
|-----------------------------------------------|
|--------------------10-10-10-9-9-9-5-5-5-5-5-5-|
|-----------------------------------------------|
|-3--3-3--3--3-3-3-3--8--8--8-7-7-7-5-5-5-3-3-3-|
|-3--3-3--3--3-3-3-3----------------------------|

|-----------------------------------------------|
|-----------------------------------------------|
|--------------------10-10-10-9-9-9-5-5-5-5-5-5-|
|-5--5-5--5--5-5-5-5----------------------------|
|-3--3-3--3--3-3-3-3--8--8--8-7-7-7-5-5-5-3-3-3-|
|-----------------------------------------------|

|-----------------------------------------------|
|-----------------------------------------------|
|--------------------10-10-10-9-9-9-5-5-5-5-5-5-|
|-7--7-7--7--7-7-7-7----------------------------|
|-5--5-5--5--5-5-5-5--8--8--8-7-7-7-5-5-5-3-3-3-|
|-----------------------------------------------|

|-----------------------------------------------|
|-----------------------------------------------|
|--------------------10-10-10-9-9-9-5-5-5-5-5-5-|
|-----------------------------------------------|
|-7--7-7--7--7-7-7-7--8--8--8-7-7-7-5-5-5-3-3-3-|
|-7--7-7--7--7-7-7-7----------------------------|

|-----------------------------------------------|
|-----------------------------------------------|
|--------------------10-10-10-9-9-9-5-5-5-5-5-5-|
|-----------------------------------------------|
|-8--8-8--8--8-8-8-8--8--8--8-7-7-7-5-5-5-3-3-3-|
|-8--8-8--8--8-8-8-8----------------------------|

|-----------------------------------------------|
|-----------------------------------------------|
|--------------------10-10-10-9-9-9-5-5-5-5-5-5-|
|-----------------------------------------------|
|-0--0-0--0--0-0-0-0--8--8--8-7-7-7-5-5-5-3-3-3-|
|-0--0-0--0--0-0-0-0----------------------------|

|-----------------------------------------------|
|-----------------------------------------------|
|--------------------10-10-10-9-9-9-5-5-5-5-5-5-|
|-----------------------------------------------|
|-5--5-5--5--5-5-5-5--8--8--8-7-7-7-5-5-5-3-3-3-|
|-5--5-5--5--5-5-5-5----------------------------|

|-----------------------------------------------|
|-----------------------------------------------|
|--------------------10-10-10-9-9-9-5-5-5-5-5-5-|
|-----------------------------------------------|
|-7--7-7--7--7-7-7-7--8--8--8-7-7-7-5-5-5-3-3-3-|
|-7--7-7--7--7-7-7-7----------------------------|

Under whammy dive at the end:
|------------------------------------------------------------|
|------------------------------------------------------------|
|------------------------------------------------------------|
|-7--------------7--------------/10--8--5--7--------------7--|
|-5--------------5--------------/-8--6--3--5--------------5--|
|----0-0-0-0-0-0----0-0-0-0-0-0---------------0-0-0-0-0-0----|

Both guitars:
|------------------------------------------|
|------------------------------------------|
|------------------------------------------|
|-------------/10--8--5--7--------------7--| x2
|-------------/-8--6--3--5--------------5--|
|-0-0-0-0-0-0---------------0-0-0-0-0-0----|

|----------------------------------------------------------|
|----------------------------------------------------------|
|----------------------------------------/10-8----/10-8----|
|-------------/10--8--5------------------------10-------10-|
|-------------/-8--6--3--/8-6----/8-6----------------------|
|-0-0-0-0-0-0-----------------10------10-------------------|

|---------------------------|
|---------------------------|
|----------nh..............-|
|-8--8--8--5-5-5-5-5-5-5-5--| x8
|-6--6--6-------------------|
|---------------------------|

Final verse:

|--------------------------------------------------|
|--------------------------------------------------|
|--------------------------------------------------|
|--------------------------------------------------|
|-0--3--5/6--5--3--0-0-0-0-0-0-0-0-0-0-0-0-0-0-0-0-|
|-0--3--5/6--5--3--0-0-0-0-0-0-0-0-0-0-0-0-0-0-0-0-|

|--------------------------------------------------|
|--------------------------------------------------|
|--------------------------------------------------|
|--------------------------------------------------|
|-0--3--5/6--5--3--1-1-1-1-1-1-1-1-1-1-1-1-1-1-1-1-|
|-0--3--5/6--5--3--1-1-1-1-1-1-1-1-1-1-1-1-1-1-1-1-|

|------------------------------------------------------------------|
|------------------------------------------------------------------|
|------------------------------------------------------------------|
|------------------------------------------------------------------|
|-0--3--5/6--5--3--10-10-10-10-10-10-10-10-10-10-10-10-10-10-10-10-|
|-0--3--5/6--5--3--10-10-10-10-10-10-10-10-10-10-10-10-10-10-10-10-|

|--------------------------------------------------|
|--------------------------------------------------|
|--------------------------------------------------|
|--------------------------------------------------|
|-0--3--5/6--5--3--6-6-6-6-6-6-6-6-6-6-6-6-6-6-6-6-|
|-0--3--5/6--5--3--6-6-6-6-6-6-6-6-6-6-6-6-6-6-6-6-|

|---------------------------|
|---------------------------|
|----------nh..............-|
|-8--8--8--5-5-5-5-5-5-5-5--| x4
|-6--6--6-------------------|
|---------------------------|

|--------------------------------------------------|
|--------------------------------------------------|
|--------------------------------------------------|
|--------------------------------------------------|
|-0--3--5/6--5--3--0-0-0-0-0-0-0-0-0-0-0-0-0-0-0-0-|
|-0--3--5/6--5--3--0-0-0-0-0-0-0-0-0-0-0-0-0-0-0-0-|

|--------------------------------------------------|
|--------------------------------------------------|
|--------------------------------------------------|
|--------------------------------------------------|
|-0--3--5/6--5--3--1-1-1-1-1-1-1-1-1-1-1-1-1-1-1-1-|
|-0--3--5/6--5--3--1-1-1-1-1-1-1-1-1-1-1-1-1-1-1-1-|

|------------------------------------------------------------------|
|------------------------------------------------------------------|
|------------------------------------------------------------------|
|------------------------------------------------------------------|
|-0--3--5/6--5--3--10-10-10-10-10-10-10-10-10-10-10-10-10-10-10-10-|
|-0--3--5/6--5--3--10-10-10-10-10-10-10-10-10-10-10-10-10-10-10-10-|

|--------------------------------------------------|
|--------------------------------------------------|
|--------------------------------------------------|
|--------------------------------------------------|
|-0--3--5/6--5--3--6-6-6-6-6-6-6-6-6-6-6-6-6-6-6-6-|
|-0--3--5/6--5--3--6-6-6-6-6-6-6-6-6-6-6-6-6-6-6-6-|

|--------------------------|
|-9--9--9------------------|
|--------------------------|
|-6--6--6------------------| x4
|----------0-0-0-0-0-0-0-0-|
|----------0-0-0-0-0-0-0-0-|

|--------------------------|
|--------------------------|
|--------------------------|
|--------------------------| x4
|-6--6--6--0-0-0-0-0-0-0-0-|
|-6--6--6--0-0-0-0-0-0-0-0-|

|-------------------------|
|-------------------------|
|-------------------------|
|-------------------------|
|-6--6--6--0-0--0-0--0-0--|
|-6--6--6--0-0--0-0--0-0--|

|--------------------------|
|--------------------------|
|--------------------------|
|--------------------------|
|-6--6--6--0-0-0-0-0-0-0-0-|
|-6--6--6--0-0-0-0-0-0-0-0-|

|-------------------------|
|-------------------------|
|-------------------------|
|-------------------------|
|-6--6--6--0-0--0-0--0-0--|
|-6--6--6--0-0--0-0--0-0--|

|--------------------------|
|--------------------------|
|--------------------------|
|--------------------------|
|-6--6--6--0-0-0-0-0-0-0-0-|
|-6--6--6--0-0-0-0-0-0-0-0-|

|-------------------------|
|-------------------------|
|-------------------------|
|-------------------------|
|-6--6--6--0-0--0-0--0-0--|
|-6--6--6--0-0--0-0--0-0--|

|--------------------------|
|--------------------------|
|--------------------------|
|--------------------------|
|-6--6--6--0-0-0-0-0-0-0-0-|
|-6--6--6--0-0-0-0-0-0-0-0-|

|-------------------------|
|-------------------------|
|-------------------------|
|-------------------------|
|-6--6--6--0-0--0-0--0-0--|
|-6--6--6--0-0--0-0--0-0--|

|-------------------------|
|-------------------------|
|-------------------------|
|-------------------------|
|-6--6--6--x/-------------|
|-6--6--6--x/-pickslide---|

Outro: (gradually slow the tempo throughout)
|--------------------------------------------------------------------------|
|--------------------------------------------------------------------------|
|--------------------------------------------------------------------------|
|-10-10-10-----------------------------------------------5--5--5-----------|
|--8--8--8--0--0--0--7--7--7--0--0--0--5--5--5--0--0--0--3--3--3--0--0--0--|
|--8--8--8--0--0--0--7--7--7--0--0--0--5--5--5--0--0--0--3--3--3--0--0--0--|

|--------------------------------------------------------------------------|
|--------------------------------------------------------------------------|
|--------------------------------------------------------------------------|
|-10-10-10-----------------------------------------------5--5--5-----------|
|--8--8--8--0--0--0--7--7--7--0--0--0--5--5--5--0--0--0--3--3--3--0--0--0--|
|--8--8--8--0--0--0--7--7--7--0--0--0--5--5--5--0--0--0--3--3--3--0--0--0--|

|--------------------------------------------------------------------------|
|--------------------------------------------------------------------------|
|--------------------------------------------------------------------------|
|-14-14-14----------12-12-12----------12-12-12----------12-12-12-----------|
|-10-10-10--0--0--0--8--8--8--0--0--0--8--8--8--0--0--0--8--8--8--0--0--0--|
|-10-10-10--0--0--0--8--8--8--0--0--0--8--8--8--0--0--0--8--8--8--0--0--0--|

|-------------------|
|-------------------|
|-------------------|
|-12----------------|
|--8----------------|
|--8--let ring------|

Clean (very slow tempo):
|---------------------------------------|
|---------------------------------------|
|---------------------------------------|
|---0-----0-----0---0-----0-----0--0----|
|-----0-----0---------1-----1------0----|
|-0-----0-----0---0-----0-----0----0----|

Clenching the Fists of Dissent - pip7
Beautiful Mourning - Marlo
Aesthetics of Hate - blood lust
Now I Lay Thee Down - blood lust
Now I Lay Thee Down Solo - Hass1234
Slanderous - Marlo
Halo - Anarion614
Wolves - Marlo
A Farewell to Arms - pip7
comments
We did not receive enough feedback on this tab! Please rate:
1 2 3 4 5
4 comments total. Showing first comments.
-2 reply
Goat'sHead wrote on December 4 2009, 02:25 pm

Ever heard of COPY AND PASTING, fag?

0 reply
Goat'sHead wrote on December 4 2009, 02:26 pm

Nevermind, I missed the author's comment... ;(. I'm so embarassed.

+1 reply
scotty9892 wrote on October 13 2011, 08:48 pm

Lol, Imagine if he tabbed it all out himself :P

I want to post or [tab]
guest
You may want to rate the tab now too:
select rating
Please do not post tabs as comments. Select "correction" instead!