Oops, an error
Loading. Please wait.

Unto The Locust Tab

7,149 views 54 this week
2 commentsread comments
1 2 3 4 5
excellent!
x 13
Autoscroll
+/-
esc
set tempo
stop
Contributor
Difficulty
Tuning
advanced
B F# B E G# C#
Hey! There's an official Ultimate Guitar app which is ideal
for learning songs when you're away from computer. Get the app
WARNING: You are trying to view
                                    content from Ultimate-Guitar.com
                                    in an unauthorized application,
                                    which is prohibited.

                                    Please use an official Ultimate
                                    Guitar Tabs application for iPhone,
                                    iPad or Android to access legitimate
                                    chords, guitar, bass, and drum tabs
                                    from Ultimate-Guitar.com database.

                                    Type "ultimate guitar tabs" in Apple
                                    App Store's or Android Market's
                                    search to find the application.
Band:      Machine Head
Album:     Unto The Locust (2011)
Song list: 1) I Am Hell (Sonata In C#)
              a) Sangre Sani (Blood Saint)
              b) I Am Hell
              c) Ashes To The Sky
           2) Be Still And Know
           3) Locust
           4) This Is The End
           5) Darkness Within
           6) Pearls Before The Swine
           7) Who We Are


Tunings:  Tracks 1,2 & 7
          (C# Standard)
          (C#, F#, B, E, G#, C#)
          
Machine Head don't play in C# standard precisely... They are tuned to
C# Standard but then tuned up 40 cents sharper


On a Korg tuner it would look something like this

Tuner:
50                            x  50#
|--|--|--|--|-[-C#-]-|--|--|--|--|

The 'x' is where you want to be tuned to


          Tracks 3,4,5 & 6
          (Drop B)
          (B, F#, B, E, G#, C#)

Machine Head don't play in Drop B precisely... They are tuned to
Drop B but then tuned up 40 cents sharper... So even though not possible
it's kind of like they're playing in Drop B# (Between Drop B and C)


On a Korg tuner it would look something like this

Tuner:
50                           x  50#
|--|--|--|--|-[-B-]-|--|--|--|--|

The 'x' is where you want to be tuned to


This is Machine Head's Unto The Locust

I DO NOT OWN THIS, ALL RIGHTS BELONG TO MACHINE HEAD ALONG WITH ROADRUNNER RECORDS

Anyways, this album in it's entirety took me a very long time so I urge, if you like this album or
even view this album please rate. This is at least 99% of the album and almost 100% correct so
Again, PLEASE RATE!!! :)


##################################################################################################
#I AM HELL (SONATA IN C#) SANGRE SANI (BLOOD SAINT) I AM HELL ASHES TO THE SKY####################
##################################################################################################

Acoustic Guitar 1: Robb Flynn
Acoustic Guitar 2: Phil Demmel
Guitar 1:          Robb Flynn
Guitar 2:          Phil Demmel
Guitar 3:          Harmony guitar

Tabbing Legend
Hammer on:          h
Pull off:           p
Slide up:           /
Slide down:         \
Natural Harmonic:   NH
Return Bend:        ^
Bend:               BU(?)
Pinch Harmonic:     PH
Tapped Note:        T
Whammy bar dive:    WBD
Slight bend:        sb

____________________________________________________________________________

Intro
Both guitars
|-----------------------------------------------------------------|
|-----------------------------------------------------------------|
|-----------------------------------------------------------------|
|-----------------------------------------------------------------|
|-2-2-2-2-2-------2-------2-2-2-2-2-------2-------2-2-2-2-2-------|
|-0-0-0-0-0-------0-------0-0-0-0-0-------0-------0-0-0-0-0-------|

|-----------------------------------------------------------------|
|-----------------------------------------------------------------|
|-----------------------------------------------------------------|
|-----------------------------------------------------------------|
|-2-2-2-2-2-------2-------2-2-2-2-2-------2-------2-2-2-2-2-------|
|-0-0-0-0-0-------0-------0-0-0-0-0-------0-------0-0-0-0-0-------|

|-----------------------------------------------------------------|
|-----------------------------------------------------------------|
|-----------------------------------------------------------------|
|-----------------------------------------------------------------|
|-2-2-2-2-2-------2-------2-2-2-2-2-------2-------2-2-2-2-2-------|
|-0-0-0-0-0-------0-------0-0-0-0-0-------0-------0-0-0-0-0-------|

Guitar 1
|-----------------------------------------------------------------|
|-----------------------------------------------------------------|
|-----------------------------------------------------------------|
|-----------------------------------------------------------------|
|-2-2-2-2-2-------2-------2-2-2-2-2-------------------------------|
|-0-0-0-0-0-------0-------0-0-0-0-0-6----3----6----3----6----3----|

Guitar 2
|-----------------------------------------------------------------|
|-----------------------------------------------------------------|
|-----------------------------------------------------------------|
|-----------------------------------8----5----8----5----8----5----|
|-2-2-2-2-2-------2-------2-2-2-2-2-------------------------------|
|-0-0-0-0-0-------0-------0-0-0-0-0-------------------------------|

____________________________________________________________________________


Both Guitars
|-----------------------------------------------------------------|
|-----------------------------------------------------------------|
|-----------------------------------------------------------------|
|-----------------------------------------------------------------|
|-2-2-2-2-2-------2-------2-2-2-2-2-------2-------2-2-2-2-2-------|
|-0-0-0-0-0-------0-------0-0-0-0-0-------0-------0-0-0-0-0-------|

|-----------------------------------------------------------------|
|-----------------------------------------------------------------|
|-----------------------------------------------------------------|
|-----------------------------------------------------------------|
|-2-2-2-2-2-------2-------2-2-2-2-2-------2-------------0-1-------|
|-0-0-0-0-0-------0-------0-0-0-0-0-------0-------0-1-3-----------|

|-----------------------------------------------------------------|
|-----------------------------------------------------------------|
|-----------------------------------------------------------------|
|-----------------------------------------------------------------|
|-2-2-2-2-2-------2-------2-2-2-2-2-------2-------2-2-2-2-2-------|
|-0-0-0-0-0-------0-------0-0-0-0-0-------0-------0-0-0-0-0-------|

Guitar 1
|-----------------------------------------------------------------|
|-----------------------------------------------------------------|
|-----------------------------------------------------------------|
|-----------------------------------------------------------------|
|-2-2-2-2-2-------2-------2-2-2-2-2-------------------------------|
|-0-0-0-0-0-------0-------0-0-0-0-0-6----3----6----3----6----3----|

Guitar 2
|-----------------------------------------------------------------|
|-----------------------------------------------------------------|
|-----------------------------------------------------------------|
|-----------------------------------8----5----8----5----8----5----|
|-2-2-2-2-2-------2-------2-2-2-2-2-------------------------------|
|-0-0-0-0-0-------0-------0-0-0-0-0-------------------------------|

____________________________________________________________________________


Guitar 1 continues playing the same part and guitar 2 play the below

Guitar 2
|---------------------------------------------------------------------|
|---8---8---8---8---7---7---7---7---10---10---10---10---8---8---8---8-|
|-9---9---9---9---9---9---9---9---9----9----9----9----9---9---9---9---|
|---------------------------------------------------------------------|
|---------------------------------------------------------------------|
|---------------------------------------------------------------------|

|---8---8---8---8---7---7---7---7---10---10---10---10---8---8---8---8-|
|---------------------------------------------------------------------|
|-9---9---9---9---9---9---9---9---9----9----9----9----9---9---9---9---|
|---------------------------------------------------------------------|
|---------------------------------------------------------------------|
|---------------------------------------------------------------------|

Guitar 1
|-----------------------------------------------------------------|
|-----------------------------------------------------------------|
|-----------------------------------------------------------------|
|-----------------------------------------------------------------|
|-2-2-2-2-2-------2-------2-2-2-2-2-------2-------2-2-2-2-2-------|
|-0-0-0-0-0-------0-------0-0-0-0-0-------0-------0-0-0-0-0-------|

Guitar 2
|-----------------------------------------------------------------|
|---10---8---7---5------------------------------------------------|
|-9----9---9---9---7----------------------------------------------|
|-----------------------------------------------------------------|
|-----------------------------------------------------------------|
|-----------------------------------------------------------------|

Guitar 1
|---------------------------|
|---------------------------|
|---------------------------|
|---------------------------|
|-2-2-2-2-2-----------------|
|-0-0-0-0-0-----------------|

Guitar 2
|---------------------------|
|---------------------------|
|-(7)-----------------------|
|---------------------------|
|---------------------------|
|---------------------------|

____________________________________________________________________________

Verse 1 part 1
Both guitars
|-----------------------------------|
|-----------------------------------|
|-----------------------------------|
|---------------8-7-----------------|
|-------8-7-5-------10-8-10-8-7-8-7-|
|-0-5-6-----------------------------|

|-----------------------------------|
|-----------------------------------|
|--------------------------10-9-7---|
|---------------8-7---------------8-|
|-------8-7-5-------10-8-7----------|
|-0-5-6-----------------------------|

|-----------------------------------|
|-----------------------------------|
|-----------------------------------|
|---------------8-7-----------------|
|-------8-7-5-------10-8-10-8-7-8-7-|
|-0-5-6-----------------------------|

|------------------------------------|
|------------------------------------|
|------------------------------------|
|------------------------------------|
|-4--1--1--1--1--1--4--1--1--1--1--1-|
|-4--1--1--1--1--1--4--1--1--1--1--1-|

Verse 1 part 2
|-------------------------------------|
|-------------------------------------|
|-------------------------------------|
|-13-10-10-10-10-10-13-10-10-10-10-10-|
|-11--8--8--8--8--8-11--8--8--8--8--8-|
|-------------------------------------|

____________________________________________________________________________


Verse 2
Both guitars
|---------------------------------|
|---------------------------------|
|---------------------------------|
|---------------------------------|
|-2-----------2-------5---3---5---|
|-0---000-000-0---000-3---1---3---|

|---------------------------------|
|---------------------------------|
|---------------------------------|
|---------------------------------|
|-2-----------5---3---2---6---5---|
|-0---000-0---3---1---0---4---3---|

|---------------------------------|
|---------------------------------|
|---------------------------------|
|---------------------------------|
|-2-----------2-------5---3---5---|
|-0---000-000-0---000-3---1---3---|

|----------------------------------|
|----------------------------------|
|-------------------------10-9-7---|
|-----------------8-7-5----------8-|
|---------8-7-5---------7----------|
|-6-5-3-0-------6------------------|

____________________________________________________________________________


Verse 3
Both guitars
|-----------------|
|-----------------|
|-----------------|
|-----------------|
|-6-------5---7---|
|-7-------6---8---|

____________________________________________________________________________


Chorus 1
Both guitars
|-------------------------------------|---------------------------------|
|-------------------------------------|---------------------------------|
|-------------------------------------|---------------------------------|
|-7-7-7-7-10-10-10-10-9-9-9-9-7-7-7-7-|-6-6-6-6-7-7-7-7-9-9-9-9---------|
|-------------------------------------|-------------------------7-7-7-7-|
|-------------------------------------|---------------------------------|

|--------------------------------------|-------------------------------------|
|--------------------------------------|-------------------------------------|
|---------9-9-9-9-7-7-7-7--------------|-------------7-7-7-7-----------------|
|-------------------------10-10-10-10--|-10-10-10-10---------9-9-9-9-7-7-7-7-|
|-8-8-8-8------------------------------|-------------------------------------|
|--------------------------------------|-------------------------------------|

|---------------------------------------------|-----------------------------------------|
|---------------------------------------------|-----------------------------------------|
|-14-14-14-14-10-10-10-10-9-9-9-9-------------|---------------------------------9-9-9-9-|
|---------------------------------12-12-12-12-|-9-9-9-9-10-10-10-10-12-12-12-12---------|
|---------------------------------------------|-----------------------------------------|
|---------------------------------------------|-----------------------------------------|

|-------------------------------------|-------------------------------------|
|-------------------------------------|-------------------------------------|
|-------------9-9-9-9-7-7-7-7---------|-------------------------------------|
|-10-10-10-10-----------------9-9-9-9-|-10-10-10-10-9-9-9-9-7-7-7-7-6-6-6-6-|
|-------------------------------------|-------------------------------------|
|-------------------------------------|-------------------------------------|

____________________________________________________________________________


Repeat Verse 2

Repeat Verse 3

____________________________________________________________________________


Chorus 2
Gutar 1
|-------------------------------------|---------------------------------|
|-------------------------------------|---------------------------------|
|-------------------------------------|---------------------------------|
|-7-7-7-7-10-10-10-10-9-9-9-9-7-7-7-7-|-6-6-6-6-7-7-7-7-9-9-9-9---------|
|-------------------------------------|-------------------------7-7-7-7-|
|-------------------------------------|---------------------------------|

|--------------------------------------|-------------------------------------|
|--------------------------------------|-------------------------------------|
|---------9-9-9-9-7-7-7-7--------------|-------------7-7-7-7-----------------|
|-------------------------10-10-10-10--|-10-10-10-10---------9-9-9-9-7-7-7-7-|
|-8-8-8-8------------------------------|-------------------------------------|
|--------------------------------------|-------------------------------------|

|---------------------------------------------|-----------------------------------------|
|---------------------------------------------|-----------------------------------------|
|-14-14-14-14-10-10-10-10-9-9-9-9-------------|---------------------------------9-9-9-9-|
|---------------------------------12-12-12-12-|-9-9-9-9-10-10-10-10-12-12-12-12---------|
|---------------------------------------------|-----------------------------------------|
|---------------------------------------------|-----------------------------------------|

|-------------------------------------|-------------------------------------|
|-------------------------------------|-------------------------------------|
|-------------9-9-9-9-7-7-7-7---------|-------------------------------------|
|-10-10-10-10-----------------9-9-9-9-|-10-10-10-10-9-9-9-9-7-7-7-7-6-6-6-6-|
|-------------------------------------|-------------------------------------|
|-------------------------------------|-------------------------------------|

Guitar 2
|---------------------------------|---------------------------------|
|---------------------------------|---------------------------------|
|-5-5-5-5-9-9-9-9-7-7-7-7-5-5-5-5-|-4-4-4-4-5-5-5-5-7-7-7-7---------|
|---------------------------------|-------------------------5-5-5-5-|
|---------------------------------|---------------------------------|
|---------------------------------|---------------------------------|

|-----------------------------------------|---------------------------------------------|
|-----------------------------------------|---------------------------------------------|
|---------12-12-12-12-10-10-10-10-9-9-9-9-|-9-9-9-9-10-10-10-10-------------------------|
|-7-7-7-7---------------------------------|---------------------12-12-12-12-10-10-10-10-|
|-----------------------------------------|---------------------------------------------|
|-----------------------------------------|---------------------------------------------|

|---------------------------------------------|-------------------------------------|
|-13-13-13-13-10-10-10-10-8-8-8-8-------------|-----------------------------8-8-8-8-|
|---------------------------------10-10-10-10-|-7-7-7-7-9-9-9-9-10-10-10-10---------|
|---------------------------------------------|-------------------------------------|
|---------------------------------------------|-------------------------------------|
|---------------------------------------------|-------------------------------------|

|-------------------------------------|---------------------------------|
|---------8-8-8-8---------------------|---------------------------------|
|-9-9-9-9---------10-10-10-10-7-7-7-7-|-9-9-9-9-7-7-7-7-5-5-5-5-4-4-4-4-|
|-------------------------------------|---------------------------------|
|-------------------------------------|---------------------------------|
|-------------------------------------|---------------------------------|

____________________________________________________________________________


Bridge
Guitar 1
|-----------------------------------------------------------------|
|-----------------------------------------------------------------|
|-----------------------------------------------------------------|
|-----------------------------------------------------------------|
|-7-------7-------7---------------5-------5-------5---------------|
|-5-------5-0-0-0-4-------0-0---0-3-------3-0-0-0-2-------0--0--0-|

Guitar 2
|-5--------------7---------------8---------------10----------12-------13-------|
|-8BU(10)--------10BU(12)--------11BU(13)--------13BU(15)----15BU(17)-16BU(18)-|
|------------------------------------------------------------------------------|
|------------------------------------------------------------------------------|
|------------------------------------------------------------------------------|
|------------------------------------------------------------------------------|

Guitar 1
|-------------------------------------------------------------------|
|-------------------------------------------------------------------|
|-------------------------------------------------------------------|
|-------------------------------------------------------------------|
|-3-------3-------7---5h7p5-3---2---0-------0-2-3-5-7---------------|
|-1-------1-0-0-0---------------------------------------------------|
|
|Guitar 3
|-------------------------------------------------------------------|
|-------------------------------------------------------------------|
|-------------------------------------------------------------------|
|----------------10--9h10p9-7---5---7-------------------------------|
|-----------------------------------------------8---7---------------|
|-------------------------------------------------------------------|

Guitar 2
|-12----------15-12-----------------------------------15--------------------------|
|-15BU(17)----------15-13-15BU(17)---13h15p13-15BU(17)--(17)(15)-13-15BU(17)------|
|---------------------------------------------------------------------------------|
|---------------------------------------------------------------------------------|
|---------------------------------------------------------------------------------|
|---------------------------------------------------------------------------------|

|-12-15BU(17)-15BU(17)-15BU(17)-15BU(17)-15BU(17)-|
|-------------------------------------------------|
|-------------------------------------------------|
|-------------------------------------------------|
|-------------------------------------------------|
|-------------------------------------------------|

____________________________________________________________________________


Verse 4
Both guitars
|----------------------------------|------------------------------------|
|----------------------------------|------------------------------------|
|-------------------------10-9-7---|------------------------------------|
|-----------------8-7-5----------8-|------------------------------------|
|---------8-7-5---------7----------|-4--1--1--1--1--1--4--1--1--1--1--1-|
|-6-5-3-0-------6------------------|-4--1--1--1--1--1--4--1--1--1--1--1-|

Repeat Verse 1 part 1

Repeat Verse 1 part 2

____________________________________________________________________________


Pre-solo
Both guitars
Part 1
|-------------------------------------------|
|-------------------------------------------|
|-12-0-10-0-12-13-12-0-12-0-10-0-12-13-12-0-|
|-------------------------------------------|
|-------------------------------------------|
|-------------------------------------------|

|--------------------------------------------|
|--------------------------------------------|
|-12-0-10-0-12-13-12-0-12-13-12-0-16-17-16-0-|
|--------------------------------------------|
|--------------------------------------------|
|--------------------------------------------|

Both guitars
Part 2
|-------------------------------------------|
|-12-0-10-0-12-13-12-0-12-0-10-0-12-13-12-0-|
|-------------------------------------------|
|-------------------------------------------|
|-------------------------------------------|
|-------------------------------------------|

|--------------------------------------------|
|-12-0-10-0-12-13-12-0-12-13-12-0-16-17-16-0-|
|--------------------------------------------|
|--------------------------------------------|
|--------------------------------------------|
|--------------------------------------------|

Guitar 1
Part 3
|-12-0-10-0-12-13-12-0-12-0-10-0-12-13-12-0-|
|-------------------------------------------|
|-------------------------------------------|
|-------------------------------------------|
|-------------------------------------------|
|-------------------------------------------|

|-12-0-10-0-12-13-12-0-12-13-12-0-16-17-16-0-|
|--------------------------------------------|
|--------------------------------------------|
|--------------------------------------------|
|--------------------------------------------|
|--------------------------------------------|

Guitar 2
|-16-0-13-0-16-17-16-0-16-0-13-0-16-17-16-0-|
|-------------------------------------------|
|-------------------------------------------|
|-------------------------------------------|
|-------------------------------------------|
|-------------------------------------------|

|-16-0-13-0-16-17-16-0-16-17-16-0-19-20-17-0-|
|--------------------------------------------|
|--------------------------------------------|
|--------------------------------------------|
|--------------------------------------------|
|--------------------------------------------|

____________________________________________________________________________


Solo
Guitar 1
|---------------------------------|---------------------------------|
|---------------------------------|---------------------------------|
|---------------------------------|---------------------------------|
|-5-------7-----------8---7---5---|-5-------7-------8---7--10---8---|
|-3---0-0-5---0-0-0-0-6---5---3---|-3---0-0-5---0-0-6---5---8---6---|
|---------------------------------|---------------------------------|

Guitar 2
|-12WBD\\\\\\\\-------------------|-12WBD\--------------------------|
|---------------------------------|-------11WBD\--------------------|
|---------------------------------|-------------9WBD\\\\\\\\--------|
|---------------------------------|---------------------------------|
|---------------------------------|---------------------------------|
|---------------------------------|---------------------------------|

|-18p15----------------------------15-18p15----15-|
|-------17----------------------17----------17----|
|----------18p15----------15h18-------------------|
|----------------17----17-------------------------|
|-------------------19----------------------------|
|-------------------------------------------------|

|-21p18----------------------------18-21WB(24)----|
|-------20----------------------20----------------|
|----------21p18----------18h21-------------------|
|----------------20----20-------------------------|
|-------------------22----------------------------|
|-------------------------------------------------|

____________________________________________________________________________


Repeat Verse 3

Repeat Chorus

At the end of the chorus guitar 2 plays the below with
A wah wah pedal (Maybe some other effects aswell)

____________________________________________________________________________


Breakdown
Both guitars
|---------------------------------|
|---------------------------------|
|---------------------------------|
|---------------------------------|
|-3-2-----3-2-----3-2-----6sb-----|
|-1-0-----1-0-0-0-1-0-----4sb-----|

|---------------------------------|
|---------------------------------|
|---------------------------------|
|---------------------------------|
|-3-2-----3-2-----3-2-----6sb-----|
|-1-0-----1-0-0-0-1-0-----4sb-----|

|---------------------------------|
|---------------------------------|
|---------------------------------|
|---------------------------------|
|-3-2-----3-2-----3-2-----6sb-----|
|-1-0-0-0-1-0-0-0-1-0-0-0-4sb-----|

|---------------------------------|
|---------------------------------|
|---------------------------------|
|---------------------------------|
|-3-2-----3-2-----3-2-----6sb-----|
|-1-0-0-0-1-0-0-0-1-0-0-0-4sb-----|

____________________________________________________________________________


Acoustic section
|------------------|-3----
|-0---11---8---3-2-|-------0---7
|------------------|-----0

Acoustic Guitar 1
|-----------------------------------------------------------------|
|---------------------------------------5---3---------------------|
|---2---5---4---2---1---2---4-------------------5---5---7---4---2-|
|-------------------------------2---3-----------------------------|
|-0---0---0---0-----------------------------------3---3---2---2---|
|-----------------4---4---4---4---1---1---1---1-------------------|

|---5-------------------------------------------------------------|
|-------6---5---3-----------3---5-------5---3---------------------|
|-------------------4---5-----------5-----------4---5---4---2---1-|
|-3---3---3---3-----------------------------------2---2---2---2---|
|---------------------------------0---0---0---0-------------------|
|-----------------0---0---0---0-----------------------------------|

Acoustic Guitar 2
|---------------------------------------3---1---0---0---1---------|
|---1---5---3---1---0---1---3-------------------------------3---1-|
|-------------------------------0---2-----------------------------|
|-----------------------------------------------------------------|
|-0---0---0---0-----------------------------------3---3---2---2---|
|-----------------4---4---4---4---1---1---1---1-------------------|

|---8---5---------------0---1---3---0---3---1---------------------|
|-----------8---6---3---------------------------3---5---3---------|
|-----------------------------------------------------------5---4-|
|-------------------------------------------------2---2---2---2---|
|-8---8---8---8-------------------0---0---0---0-------------------|
|-----------------0---0---0---0-----------------------------------|

____________________________________________________________________________


Guitar 2 repeats Chorus 1 whilst Guitar 1 plays the rhythm below

|-------------------------------------------------------------------|
|-------------------------------------------------------------------|
|-------------------------------------------------5-------4---------|
|-7---------------2---------------3---------------5-------5---------|
|-7---------------2---------------3---------------3-------2---------|
|-5-------5---5---0-------0-------1-------1-------------------------|

|-------------------------------------------------------------------|
|-------------------------------------------------------------------|
|-------------------------------------------------------------------|
|-3---------------2---------------7---------------2-----------------|
|-3---------------2---------------7---------------2-----------------|
|-1-------1---1---0-------0-------5-------5-------0-----------------|

____________________________________________________________________________


Repeat Bridge until fade out

____________________________________________________________________________


That's all guys, please rate :)


##################################################################################################
#BE STILL AND KNOW################################################################################
##################################################################################################

Guitar 1: Robb Flynn
Guitar 2: Phil Demmel

Tabbing Legend
Hammer on:          h
Pull off:           p
Slide up:           /
Slide down:         \
Natural Harmonic:   NH
Return Bend:        ^
Bend:               BU(?)
Pinch Harmonic:     PH
Tapped Note:        T
Whammy bar dive:    WBD
Whammy bar rise:    WBR
Slight bend:        sb
Volume Swell:       VS
Trill:              tr

____________________________________________________________________________

Intro
(Guitar 2 plays the intro riff 4 times alone, then Guitar 1 comes in with the 
Volume Swell rhythm for 8 times and then finally Guitar 1 plays the harmony
For the last 4 times)

Guitar 2
|-12-0-7-0-12-0-10-0-8-0-7-0-5-0-2-0-3-0-5-0-3-0-2-0-| x 16
|----------------------------------------------------|
|----------------------------------------------------|
|----------------------------------------------------|
|----------------------------------------------------|
|----------------------------------------------------|

Guitar 1
  VS        VS        VS        VS  VS
|---------|---------|---------|---------|
|---------|---------|---------|---------|
|---------|---------|---------|---------|
|---------|---------|---------|---------|
|-7-------|-3-------|-5-------|-0---2---|
|---------|---------|---------|---------|

  VS  VS    VS        VS        VS  VS
|---------|---------|---------|---------|
|---------|---------|---------|---------|
|---------|---------|---------|---------|
|---------|---------|---------|---------|
|-7--10---|-3-------|-5-------|-0---2---|
|---------|---------|---------|---------|

Guitar 1
|-19-0-15-0-19-0-17-0-15-0-14-0-17-0-14-0-15-0-17-0-15-0-14-0-| x 4
|-------------------------------------------------------------|
|-------------------------------------------------------------|
|-------------------------------------------------------------|
|-------------------------------------------------------------|
|-------------------------------------------------------------|

____________________________________________________________________________


Verse 1
Both guitars
|-------------------------------------------------|
|-------------------------------------------------|
|-------------------------------------------1-----|
|-2-----2-----3---5---3p2-3p2---2-----2-3-5---5-3-|
|-2-----2-----------------2-----2-----------------|
|-0---0-0---0---0---0-----0---0-0---0-------------|

|-------------------------------------------------|
|-------------------------------------------------|
|-------------------------------1-----------1-4-5-|
|-2-----2-----3---5---3p2-2-3-5---5-3-2-3-5-------|
|-2-----2-----------------------------------------|
|-0---0-0---0---0---0-----------------------------|

|-------------------------------------------------|
|-------------------------------------------------|
|-------------------------------------------1-----|
|-2-----2-----3---5---3p2-3p2---2-----2-3-5---5-3-|
|-2-----2-----------------2-----2-----------------|
|-0---0-0---0---0---0-----0---0-0---0-------------|

|---------------------------------------------10-7-|
|---------------------------------9-6-----9-6------|
|-----------------------------7-4-----7-4----------|
|-2-----2-----3---5---3p2-6-3----------------------|
|-2-----2------------------------------------------|
|-0---0-0---0---0---0------------------------------|

____________________________________________________________________________


Verse 2
Both guitars
|-------------------------------------------------|
|-------------------------------------------------|
|-------------------------------------------------|
|-2-----2-----------------2-----2-----------------|
|-2-----2-----------------2-----2-----------------|
|-0---0-0---0-1-0-3-0-1p0-1p0-0-0---0-0-1-3-4-3-1-|

|-------------------------------------------------|
|-------------------------------------------------|
|-------------------------------------------------|
|-2-----2-----------------------------------------|
|-2-----2-------------------------------------2-3-|
|-0---0-0---0-1-0-3-0-1p0-0-1-3-4-3-1-0-1-3-4-----|

|-------------------------------------------------|
|-------------------------------------------------|
|-------------------------------------------------|
|-2-----2-----------------2-----2-----------------|
|-2-----2-----------------2-----2-----------------|
|-0---0-0---0-1-0-3-0-1p0-1p0-0-0---0-0-1-3-4-3-1-|

|-------------------------------------------------|
|-------------------------------------------------|
|---------------------------------------------7-4-|
|-2-----2-------------------------6-3-----6-3-----|
|-2-----2---------------------5-2-----5-2---------|
|-0---0-0---0-1-0-3-0-1p0-4-1---------------------|

____________________________________________________________________________


Verse 3
Both guitars
|-------------------------------------------------------------------|
|-0-10-12-0-10-12-13-13-12-12-10-10-0-10-12-0-10-12-----------------|
|-------------------------------------------------------------------|
|---------------------------------------------------------9-10-9----|
|---------------------------------------------------11-12--------12-|
|-------------------------------------------------------------------|

|-------------------------------------------------------------------|
|-0-10-12-0-10-12-13-13-12-12-10-10-0-10-12-0-10-12-0-10-15-0-10-15-|
|-------------------------------------------------------------------|
|-------------------------------------------------------------------|
|-------------------------------------------------------------------|
|-------------------------------------------------------------------|

|-------------------------------------------------------------------|
|-0-10-12-0-10-12-13-13-12-12-10-10-0-10-12-0-10-12-----------------|
|-------------------------------------------------------------------|
|---------------------------------------------------------9-10-9----|
|---------------------------------------------------11-12--------12-|
|-------------------------------------------------------------------|

|---------------------------------------------------------------------|
|-0-10-12-0-10-12-13-13-12-12-10-10-0-10-12-0-10-12-15-15-15-15-15-15-|
|---------------------------------------------------14-14-14-14-14-14-|
|---------------------------------------------------------------------|
|---------------------------------------------------------------------|
|---------------------------------------------------------------------|

____________________________________________________________________________


Chorus 1
Guitar 1
|-------------------------------------|-------------------------------------|
|-------------------------------------|-------------------------------------|
|-------------------------------------|-----5-----------------5-------------|
|-----2-----------------2-------------|-----5-----------------5-------------|
|-----2-----------------2-------------|-33333-------3-3-3-33333-------3-3-3-|
|-00000-------0-0-0-00000-------0-0-0-|-------------------------------------|

|-------------------------------------|-------------------------------------|
|-------------------------------------|-------------------------------------|
|-----7-----------------7-------------|-----2-----------------4-------------|
|-----7-----------------7-------------|-----2-----------------5-------------|
|-55555-------5-5-5-55555-------5-5-5-|-00000-------0-0-0-22222-------2-2-2-|
|-------------------------------------|-------------------------------------|

Guitar 2
|-12-0-7-0-12-0-10-0-8-0-7-0-5-0-2-0-3-0-5-0-3-0-2-0-| x 8
|----------------------------------------------------|
|----------------------------------------------------|
|----------------------------------------------------|
|----------------------------------------------------|
|----------------------------------------------------|

____________________________________________________________________________


Repeat Verse 1

Repeat Verse 2

Repeat Chorus 1

Repeat Intro (Guitar 1 and 2 harmony)

____________________________________________________________________________


Solo 1
Guitar 1 (Rhythm)
|-------------------------------------------------|
|-------------------------------------------------|
|-------------------------------------------------|
|-4-----------5---4---2---4-----------7---7---5---|
|-2---2-2-2-2-3---2---0---2---2-2-2-2-5---5---3---|
|-------------------------------------------------|

|-------------------------------------------------|
|-------------------------------------------------|
|-------------------------------------------------|
|-4-----------5---4---2---4-----------------------|
|-2---2-2-2-2-3---2---0---2---2-2-2-2-4---4---4---|
|-------------------------------------2---2---2---|

Guitar 2
|-15-0-14-0-12-0-15-0-14-0-12-17-15-14-15-14----14----------------|
|--------------------------------------------17----17-15-14-------|
|-----------------------------------------------------------16-14-|
|-----------------------------------------------------------------|
|-----------------------------------------------------------------|
|-----------------------------------------------------------------|

|---------------------------------------------------------|
|---------------------------------------------------------|
|-14BU(16)------16BU(18)------17BU(19)------19BU(21)------|
|---------------------------------------------------------|
|---------------------------------------------------------|
|---------------------------------------------------------|

|-22p21----22p21----22p21----22p21----22p21----22p21----22p21----22p21----|
|-------19-------19-------19-------19-------20-------20-------20-------20-|
|-------------------------------------------------------------------------|
|-------------------------------------------------------------------------|
|-------------------------------------------------------------------------|
|-------------------------------------------------------------------------|

|-24p22----24p22----24p22----24p22----24BU(26)-------24p22-24BU(26)-------|
|-------22-------22-------22-------22-------------------------------------|
|-------------------------------------------------------------------------|
|-------------------------------------------------------------------------|
|-------------------------------------------------------------------------|
|-------------------------------------------------------------------------|

Solo 2
Guitar 2 (Rhythm)
|-------------------------------------------------|
|-------------------------------------------------|
|-------------------------------------------------|
|-------------------------------------------------|
|-4-----------5---4---2---4-----------7---7---5---|
|-2---2-2-2-2-3---2---0---2---2-2-2-2-5---5---3---|

|-------------------------------------------------|
|-------------------------------------------------|
|-------------------------------------------------|
|-------------------------------------------------|
|-4-----------5---4---2---4-----------2---2---2---|
|-2---2-2-2-2-3---2---0---2---2-2-2-2-0---0---0---|

Guitar 1
||-19h20p19p17-20-20p19p17-19h20p19p17-20-20p19p17-|| x2
|o-------------------------------------------------o|
||-------------------------------------------------||
||-------------------------------------------------||
|o-------------------------------------------------o|
||-------------------------------------------------||

|-18-19-18-19-15-18-15-18-14-15-14-15-12-14-12-14----12----12-------------------------|
|-------------------------------------------------15----15----14-15-14-15-12-14-12-14-|
|-------------------------------------------------------------------------------------|
|-------------------------------------------------------------------------------------|
|-------------------------------------------------------------------------------------|
|-------------------------------------------------------------------------------------|

  PH
|--------|
|--------|
|-15-----|
|--------|
|--------|
|--------|
               PH                   PH
|-------------------------------------------|
|----------------------5BU(7)------(7)------|
|-4BU(6)------(6)---------------------------|
|-------------------------------------------|
|-------------------------------------------|
|-------------------------------------------|

|-------------------------------18BU(19)----|
|---------------------14tr17----------------|
|-----------12tr15--------------------------|
|-11tr14------------------------------------|
|-------------------------------------------|
|-------------------------------------------|

Harmonised Solo
Part 1
Guitar 1
|-------------------------------------|
|-------12-13-12----15-13-12----------|
|----------------14----------14-12----|
|----14----------------------------14-|
|-12----------------------------------|
|-------------------------------------|

Guitar 2
|-------------------------------------|
|-------12-13-12----15-13-12----------|
|----------------14----------14-12----|
|----14----------------------------14-|
|-12----------------------------------|
|-------------------------------------|

Guitar 1
|-------------------------------------|
|-------12-13-12----17-15-13----------|
|----------------14----------16-14-12-|
|----14-------------------------------|
|-12----------------------------------|
|-------------------------------------|

Guitar 2
|-------------------15-13-12----------|
|-------12-13-12-------------15-13-12-|
|----------------14-------------------|
|----14-------------------------------|
|-12----------------------------------|
|-------------------------------------|

Part 2
Guitar 1
|-12-13----12-------12-13----12-------|
|-------15----13-15-------15----13-15-|
|-------------------------------------|
|-------------------------------------|
|-------------------------------------|
|-------------------------------------|

Guitar 2
|-16-17----16-------16-17----16-------|
|-------18----17-18-------18----17-18-|
|-------------------------------------|
|-------------------------------------|
|-------------------------------------|
|-------------------------------------|

Guitar 1
|-13-15----13-------13-15----13-------|
|-------17----15-17-------17----15-17-|
|-------------------------------------|
|-------------------------------------|
|-------------------------------------|
|-------------------------------------|

Guitar 2
|-17-19----17-------17-19----17-------|
|-------21----18-21-------21----18-21-|
|-------------------------------------|
|-------------------------------------|
|-------------------------------------|
|-------------------------------------|

Guitar 1
|-16-17----16-------16-17----16-------|
|-------18----17-18-------18----17-18-|
|-------------------------------------|
|-------------------------------------|
|-------------------------------------|
|-------------------------------------|

Guitar 2
|-19-20----19-------19-20----19-------|
|-------22----21-22-------22----21-22-|
|-------------------------------------|
|-------------------------------------|
|-------------------------------------|
|-------------------------------------|

Guitar 1
|-17-19----17-------17-19----17-------|
|-------21----18-21-------21----18-21-|
|-------------------------------------|
|-------------------------------------|
|-------------------------------------|
|-------------------------------------|

Guitar 2
|-20-22----20-------20-22----20-------|
|-------24----22-24-------24----22-24-|
|-------------------------------------|
|-------------------------------------|
|-------------------------------------|
|-------------------------------------|

____________________________________________________________________________


Breakdown
Part 1
Guitar 1
|-------------------------------------------------|
|-------------------------------------------------|
|-------------------------------------------------|
|-7-7---------7-7---------7-7---------7-7---------|
|-7-7---------7-7---------7-7---------7-7---------|
|-5-5---------5-5---------5-5---------5-5---------|

Guitar 2
|-5---5-7-8-7-5---5-7-8-7-5---5-7-8-7-5---5-7-8-7-|
|---5-----------5-----------5-----------5---------|
|-------------------------------------------------|
|-------------------------------------------------|
|-------------------------------------------------|
|-------------------------------------------------|

Guitar 1
|-------------------------------------------------|
|-------------------------------------------------|
|-------------------------------------------------|
|-6-6---------6-6---------6-6---------6-6---------|
|-7-7---------7-7---------7-7---------7-7---------|
|-4-4---------4-4---------4-4---------4-4---------|

Guitar 2
|-4---4-5-7-5-4---4-5-7-5-4---4-5-7-5-4---4-5-7-5-|
|---5-----------5-----------5-----------5---------|
|-------------------------------------------------|
|-------------------------------------------------|
|-------------------------------------------------|
|-------------------------------------------------|

Guitar 1
|-------------------------------------------------|
|-------------------------------------------------|
|-------------------------------------------------|
|-3-3---------3-3---------3-3---------3-3---------|
|-3-3---------3-3---------3-3---------3-3---------|
|-1-1---------1-1---------1-1---------1-1---------|

Guitar 2
|-1---1-4-5-4-1---1-4-5-4-1---1-4-5-4-1---1-4-5-4-|
|---1-----------1-----------1-----------1---------|
|-------------------------------------------------|
|-------------------------------------------------|
|-------------------------------------------------|
|-------------------------------------------------|

Guitar 1
|-------------------------------------------------|
|-------------------------------------------------|
|-------------------------------------------------|
|-6-6---------6-6---------6-6---------6-6---------|
|-7-7---------7-7---------7-7---------7-7---------|
|-4-4---------4-4---------4-4---------4-4---------|

Guitar 2
|-4---4-5-7-5-4---4-5-7-5-4---4-5-7-5-4---4-5-7-5-|
|---5-----------5-----------5-----------5---------|
|-------------------------------------------------|
|-------------------------------------------------|
|-------------------------------------------------|
|-------------------------------------------------|

____________________________________________________________________________


Part 2
Guitar 1
|-8----8-10-12-10-8----8-10-12-10-8----8-10-12-10-8----8-10-12-10-|
|---10--------------10--------------10--------------10------------|
|-----------------------------------------------------------------|
|-----------------------------------------------------------------|
|-----------------------------------------------------------------|
|-----------------------------------------------------------------|

Guitar 2
|-5---5-7-8-7-5---5-7-8-7-5---5-7-8-7-5---5-7-8-7-|
|---5-----------5-----------5-----------5---------|
|-------------------------------------------------|
|-------------------------------------------------|
|-------------------------------------------------|
|-------------------------------------------------|

Guitar 1
|-7---7-8-10-8-7---7-8-10-8-7---7-8-10-8-7---7-8-10-8-|
|---9------------9------------9------------9----------|
|-----------------------------------------------------|
|-----------------------------------------------------|
|-----------------------------------------------------|
|-----------------------------------------------------|

Guitar 2
|-4---4-5-7-5-4---4-5-7-5-4---4-5-7-5-4---4-5-7-5-|
|---5-----------5-----------5-----------5---------|
|-------------------------------------------------|
|-------------------------------------------------|
|-------------------------------------------------|
|-------------------------------------------------|

Guitar 1
|-5---5-7-8-7-5---5-7-8-7-5---5-7-8-7-5---5-7-8-7-|
|---5-----------5-----------5-----------5---------|
|-------------------------------------------------|
|-------------------------------------------------|
|-------------------------------------------------|
|-------------------------------------------------|

Guitar 2
|-1---1-4-5-4-1---1-4-5-4-1---1-4-5-4-1---1-4-5-4-|
|---1-----------1-----------1-----------1---------|
|-------------------------------------------------|
|-------------------------------------------------|
|-------------------------------------------------|
|-------------------------------------------------|

Guitar 1
|---------------------10-7---------------------10-7-|
|---------9-6-----9-6--------------9-6-----9-6------|
|-----7-4-----7-4--------------7-4-----7-4----------|
|-6-3----------------------6-3----------------------|
|---------------------------------------------------|
|---------------------------------------------------|

Guitar 2
|---------------------------------------------13-10-|
|---------------------------------12-9----12-9------|
|-----------------------------10-7----10-7----------|
|--------------------------9-6----------------------|
|---------------------------------------------------|
|---------------------------------------------------|

____________________________________________________________________________


Verse 4
Both guitars
|-------------------------------------------------|
|-------------------------------------------------|
|-------------------------------------------------|
|-2-----------------------------------------------|
|-2-----------------------------------------------|
|-0-----------------------------------------------|

|-------------------------------------------------|
|-------------------------------------------------|
|-------------------------------1-----------1-4-5-|
|-------------------------2-3-5---5-3-2-3-5-------|
|-------------------------------------------------|
|------------12\----------------------------------|

|-------------------------------------------------|
|-------------------------------------------------|
|-------------------------------------------------|
|-2-----------------------------------------------|
|-2-----------------------------------------------|
|-0-----------------------------------------------|

|-------------------------------------------------|
|-------------------------------------------------|
|-------------------------------------------------|
|-------------------------------------------------|
|-------------------------------------------------|
|-------------------------0---WBR---(1)--WBD--(0)-|

____________________________________________________________________________


Repeat Verse 2

Repeat Verse 3

____________________________________________________________________________


Chorus 2
Guitar 1
|-------------------------------------|-------------------------------------|
|-------------------------------------|-------------------------------------|
|-------------------------------------|-5-----------------5-----------------|
|-------------------------------------|-5-----------------5-----------------|
|-------------------------------------|-3-------------3-3-3-------------3-3-|
|-------------------------------------|-------------------------------------|

|-------------------------------------|-------------------------------------|
|-------------------------------------|-------------------------------------|
|-7-----------------7-----------------|-2-----------------4-----------------|
|-7-----------------7-----------------|-2-----------------5-----------------|
|-5-------------5-5-5-------------5-5-|-0-------------0-0-2-------------2-2-|
|-------------------------------------|-------------------------------------|

Guitar 1
|-------------------------------------|-------------------------------------|
|-------------------------------------|-------------------------------------|
|-------------------------------------|-----5-----------------5-------------|
|-----2-----------------2-------------|-----5-----------------5-------------|
|-----2-----------------2-------------|-33333-------3-3-3-33333-------3-3-3-|
|-00000-------0-0-0-00000-------0-0-0-|-------------------------------------|

|-------------------------------------|-------------------------------------|
|-------------------------------------|-------------------------------------|
|-----7-----------------7-------------|-----2-----------------4-------------|
|-----7-----------------7-------------|-----2-----------------5-------------|
|-55555-------5-5-5-55555-------5-5-5-|-00000-------0-0-0-22222-------2-2-2-|
|-------------------------------------|-------------------------------------|

Guitar 2
|-12-0-7-0-12-0-10-0-8-0-7-0-5-0-2-0-3-0-5-0-3-0-2-0-| x 8
|----------------------------------------------------|
|----------------------------------------------------|
|----------------------------------------------------|
|----------------------------------------------------|
|----------------------------------------------------|

____________________________________________________________________________


Outro (Slow down towards the forth time)
Guitar 1
|-19-0-15-0-19-0-17-0-15-0-14-0-17-0-14-0-15-0-17-0-15-0-14-0-| x 4
|-------------------------------------------------------------|
|-------------------------------------------------------------|
|-------------------------------------------------------------|
|-------------------------------------------------------------|
|-------------------------------------------------------------|

Guitar 2
|-12-0-7-0-12-0-10-0-8-0-7-0-5-0-2-0-3-0-5-0-3-0-2-0-| x 4
|----------------------------------------------------|
|----------------------------------------------------|
|----------------------------------------------------|
|----------------------------------------------------|
|----------------------------------------------------|

____________________________________________________________________________

That's all guys, please rate :)

____________________________________________________________________________


##################################################################################################
#LOCUST###########################################################################################
##################################################################################################

Guitar 1: Robb Flynn
Guitar 2: Phil Demmel

Tabbing Legend
Hammer on:          h
Pull off:           p
Slide up:           /
Slide down:         \
Natural Harmonic:   NH
Slight Return Bend: ^
Bend:               BU(?)
Pinch Harmonic:     PH
Tapped Note:        T

_____________________________________________________________________________

Intro
Guitar 1
||---------------------------------|
|o---------------------------------|
||---------------------------------|
||-0---0---0---0-2---3-0---0---0---|
|o---------------------------------|
||---0---0---0-----0-----0---0---0-|

|---------------------------------||
|---------------------------------o|
|---------------------------------||
|-0---0---0---0---0-------0---0---||
|---------------------------------o|
|---2---2---2-/-7---8-5-5---5---5-||

Guitar 2
||---------------------------------|
|o---------------------------------|
||---7-10--------------------------|
||-0-------------------------------|
|o---------------------------------|
||---------------------------------|

|---------------------------------||
|---8-----------------------------o|
|-------9-------------------------||
|-0---0---------------------------||
|---------------------------------o|
|---------------------------------||

|---------------------------------|
|---------------------------------|
|---7-10--------------------------|
|-0-------------------------------|
|---------------------------------|
|---------------------------------|

|---12-----------------------------|
|--------13------------------------|
|----------------------------------|
|-0----0---------------------------|
|----------------------------------|
|----------------------------------|

Guitar 1
|----------------------------------|
|----------------------------------|
|-7---7---7---7-9---10-7---7---7---|
|---0---0---0-----0------0---0---0-|
|----------------------------------|
|----------------------------------|

|------------------------------------|
|---------------10---11-8---8--------|
|-9---9---9---9---------------10-9-5-|
|---0---0---0------0------0----------|
|------------------------------------|
|------------------------------------|

Guitar 2 (Harmony)
|------------------------------------------|
|------------------------------------------|
|-10---10---10---10-12---14-10---10---10---|
|----0----0----0-------0-------0----0----0-|
|------------------------------------------|
|------------------------------------------|

|-------------------10---12-----------------|
|---------------------------13---13-10------|
|-12---12---12---12--------------------12-9-|
|----0----0----0-------0-------0------------|
|-------------------------------------------|
|-------------------------------------------|

_____________________________________________________________________________

Drum Solo
_____________________________________________________________________________

Main Verse(Chorus)
Both guitars
|------------------------------------------|
|------------------------------------------|
|-7------12-10----9--10---7-----10---9---7-|
|------------------------------------------|
|-5------10--8----7---8---5------8---7---5-|
|-----00-------00-------------00-----------|

                                Guitar 2 harmony starts here
                                VVV
|------------------------------------------|
|------------------------------------------|
|-9------12-10----14--15-12-----10---9--5--|
|------------------------------------------|
|-7------10--8----12--13-10------8---7--3--|
|-----00-------00-------------00-----------|

Guitar 1
|------------------------------------------|
|------------------------------------------|
|-7------12-10----9--10---7-----10---9---7-|
|------------------------------------------|
|-5------10--8----7---8---5------8---7---5-|
|-----00-------00-------------00-----------|

|---------------------------------------------|
|---------------------------------------------|
|-9------12-10----7---9---5-5-5-5-5-5-6-6-6-6-|
|---------------------------------------------|
|-7------10--8----5---7---3-3-3-3-3-3-4-4-4-4-|
|-----00-------00-----------------------------|

Guitar 2
|-------------|
|-------------|
|-14---12---9-|
|-------------|
|-12---10---7-|
|-------------|

|------------------------------------------|
|------------------------------------------|
|-10-----15-14----12--14-10------14--12-10-|
|------------------------------------------|
|--8-----13-12----10--12--8------12--10--8-|
|-----00-------00-------------00-----------|

|-------------------------------------------------------|
|-------------------------------------------------------|
|-12-----15-14----19--21--17-17-17-17-17-17-18-18-18-18-|
|-------------------------------------------------------|
|-10-----13-12----17--19--15-15-15-15-15-15-16-16-16-16-|
|-----00-------00---------------------------------------|

_____________________________________________________________________________

Pre-verse
Guitar 1
|-------------|
|-------------|
|-------------|
|-------------|
|-3-2-1-2-1-0-|
|-3-2-1-2-1-0-|

_____________________________________________________________________________

Verse 1
Both guitars
|---------------------------------|
|---------------------------------|
|---------------------------------|
|---------------------------------|
|-----5-----------5-----------5---|
|-0-6---6-----0-6---6-----0-6---6-|

|---------------------------|
|---------------------------|
|---------------------------|
|---------------------------|
|---------------------------|
|-0-0-0-0-0---0-0-0---0-0-0-|

|---------------------------------|
|---------------------------------|
|---------------------------------|
|---------------------------------|
|-----5-----------5-----------5---|
|-0-6---6-----0-6---6-----0-6---6-|

          NH      NH      NH
|---------------------------|
|---------------------------|
|---------------------------|
|---------5-------5-------5-|
|---------------------------|
|-0-0-0-0-----0-0-----0-0---|

|---------------------------------|
|---------------------------------|
|---------------------------------|
|---------------------------------|
|-----5-----------5-----------5---|
|-0-6---6-----0-6---6-----0-6---6-|

|---------------------------|
|---------------------------|
|---------------------------|
|---------------------------|
|---------------------------|
|-0-0-0-0-0---0-0-0---0-0-0-|

|---------------------------------|
|---------------------------------|
|---------------------------------|
|---------------------------------|
|-----5-----------5-----------5---|
|-0-6---6-----0-6---6-----0-6---6-|

          NH      NH      NH
|---------------------------|
|---------------------------|
|---------5-------5-------5-|
|---------------------------|
|---------------------------|
|-0-0-0-0-----0-0-----0-0---|

_____________________________________________________________________________

Verse 2
Guitar 1
|-----------------|-----------------|-----------------|--------------------|
|-----------------|-----------------|-----------------|--------------------|
|-3-3-3-----------|-5-5-5-----------|-7-7-7-----------|--9--9--9-----------|
|-3-3-3-----------|-5-5-5-----------|-7-7-7-----------|-10-10-10-----------|
|-1-1-1-----------|-3-3-3-----------|-5-5-5-----------|--7--7--7-----------|
|-----------------|-----------------|-----------------|--------------------|

|-----------------|-----------------|
|-----------------|-----------------|
|-3-3-3-3-3-3-3-3-|-5-5-5-5-5-5-5-5-|
|-3-3-3-3-3-3-3-3-|-5-5-5-5-5-5-5-5-|
|-1-1-1-1-1-1-1-1-|-3-3-3-3-3-3-3-3-|
|-----------------|-----------------|

Guitar 2
|---------------------------------------|
|---------------------------------------|
|-10-9-7---------7-9-10-9-7---------7-9-|
|--------10-8-10------------10-8-10-----|
|---------------------------------------|
|---------------------------------------|

|---------------------------------------------|
|---------------------------------------------|
|-12-10-9----------9-10-12-10-9----------9-10-|
|---------12-10-12--------------12-10-12------|
|---------------------------------------------|
|---------------------------------------------|

|-------------------------------------------------|
|-------------------------------------------------|
|-14-12-10----------10-12-14-12-10----------10-12-|
|----------14-12-14----------------14-12-14-------|
|-------------------------------------------------|
|-------------------------------------------------|

|-------------------------------------------------|
|-------------------------------------------------|
|-17-15-14----------14-15-17-15-14----------14-15-|
|----------17-15-17----------------17-15-17-------|
|-------------------------------------------------|
|-------------------------------------------------|

|-------------------------------------------------|
|-------------------------------------------------|
|-19-17-15----------15-17-19-17-15----------15-17-|
|----------19-17-19----------------19-17-19-------|
|-------------------------------------------------|
|-------------------------------------------------|

|-------------------------------------------------|
|-------------------------------------------------|
|-21-19-17----------17-19-21-19-17-19-22-19-17-19-|
|----------20-19-20-------------------------------|
|-------------------------------------------------|
|-------------------------------------------------|

_____________________________________________________________________________

Repeat Main Verse(Chorus)

Repeat Pre-Verse

Repeat Verse 1

Repeat Verse 2

Repeat Chorus

Repeat Pre-Verse x2
_____________________________________________________________________________


Breakdown
Both guitars
|-------------------------|-------------------------|
|-------------------------|-------------------------|
|-------------------------|-------------------------|
|-------------------------|-------------------------|
|-------------------------|-------------------------|
|-3-2-1-2-1-0-3-2-1-2-1-0-|-3-2-1-2-1-0-6-5-4-7-6-5-|

_____________________________________________________________________________


Verse 3 (Clean interlude)
Guitar 1
|-5-------5-------|-5-------5-------|-5-------5-------|-3-------3-------|
|-----6-------6---|-----6-------6---|-----6-------6---|-----6-------6---|
|---7---7---7---7-|---5---5---5---5-|---4---4---4---4-|---3---3---3---3-|
|-----------------|-----------------|-----------------|-----------------|
|-----------------|-----------------|-----------------|-----------------|
|-----------------|-----------------|-----------------|-----------------|

_____________________________________________________________________________


Verse 4 (Pre-Solo Harmony)
Guitar 1
|-13-12-13-10-13--8-13----13----13----13----13----|
|----------------------11----10-------------------|
|----------------------------------12----10-----9-|
|-------------------------------------------------|
|-------------------------------------------------|
|-------------------------------------------------|

|-13-12-13-10-13--8-13----13--------------------------|
|----------------------11----10^-------13-11h13p11-10-|
|--------------------------------12-10----------------|
|-----------------------------------------------------|
|-----------------------------------------------------|
|-----------------------------------------------------|

|-13-12-13-10-13--8-13----13----13----13----13----|
|----------------------11----10-------------------|
|----------------------------------12----10-----9-|
|-------------------------------------------------|
|-------------------------------------------------|
|-------------------------------------------------|

|-13-12-13-10-13--8-13----------------------------|
|----------------------10-------------------------|
|-------------------------12--9-------------------|
|-------------------------------------------------|
|-------------------------------------------------|
|-------------------------------------------------|

Guitar 2
|-17-15-17-13-17-12-17----17----17----17----17----|
|----------------------15----13-------------------|
|----------------------------------15----14----12-|
|-------------------------------------------------|
|-------------------------------------------------|
|-------------------------------------------------|

|-17-15-17-13-17-12-17----17--------------------------|
|----------------------15--------------17-15h17p15-13-|
|----------------------------17^-15-14----------------|
|-----------------------------------------------------|
|-----------------------------------------------------|
|-----------------------------------------------------|

|-17-15-17-13-17-12-17----17----17----17----17----|
|----------------------15----13-------------------|
|----------------------------------15----14----12-|
|-------------------------------------------------|
|-------------------------------------------------|
|-------------------------------------------------|

|-17-15-17-13-17-12-17----------------------------|
|-------------------------------------------------|
|----------------------17-15----------------------|
|----------------------------17-------------------|
|-------------------------------------------------|
|-------------------------------------------------|

Guitar 1
|-17-15-17-13-17-12-17----17----17----17----17----|
|----------------------15----13-------------------|
|----------------------------------15----14----12-|
|-------------------------------------------------|
|-------------------------------------------------|
|-------------------------------------------------|

|-17-15-17-13-17-12-17----17--------------------------|
|----------------------15-----------------------------|
|----------------------------14^-------17-15h17p15-14-|
|--------------------------------17-15----------------|
|-----------------------------------------------------|
|-----------------------------------------------------|

|-17-15-17-13-17-12-17----17----17----17----17----|
|----------------------15----13-------------------|
|----------------------------------15----14----12-|
|-------------------------------------------------|
|-------------------------------------------------|
|-------------------------------------------------|

|-17-15-17-13-17-12-17----17--------------------------|
|----------------------15-----------------------------|
|----------------------------14^-------17-15h17p15-14-|
|--------------------------------17-15----------------|
|-----------------------------------------------------|
|-----------------------------------------------------|

Guitar 2
|-22-20-22-17-22----22----22----22----22----22----|
|----------------20----18-------------------------|
|----------------------------21----19----17-------|
|----------------------------------------------20-|
|-------------------------------------------------|
|-------------------------------------------------|

|-22-20-22-17-22----22----22--------------------------|
|----------------20----18--------------22-20h22p20-18-|
|----------------------------22^-21-19----------------|
|-----------------------------------------------------|
|-----------------------------------------------------|
|-----------------------------------------------------|

|-22-20-22-17-22----22----22----22----22----22----|
|----------------20----18-------------------------|
|----------------------------21----19----17-------|
|----------------------------------------------20-|
|-------------------------------------------------|
|-------------------------------------------------|

|-22-20-22-17-22----22----22--------------------------|
|----------------20----18--------------22-20h22p20-18-|
|----------------------------22^-21-19----------------|
|-----------------------------------------------------|
|-----------------------------------------------------|
|-----------------------------------------------------|
Guitar 1
|-13-----------13/15-|-15-----------15/17-|
|--------------------|--------------------|
|--------------------|--------------------|
|--------------------|--------------------|
|--------------------|--------------------|
|--------------------|--------------------|

|-17-----------17/20-|-20-----------------|
|--------------------|--------------------|
|--------------------|--------------------|
|--------------------|--------------------|
|--------------------|--------------------|
|--------------------|--------------------|

Guitar 2
|-18-----------18/20-|-20-----------20/22-|
|--------------------|--------------------|
|--------------------|--------------------|
|--------------------|--------------------|
|--------------------|--------------------|
|--------------------|--------------------|

|-22-----------22/24-|-24^------24^-------|
|--------------------|--------------------|
|--------------------|--------------------|
|--------------------|--------------------|
|--------------------|--------------------|
|--------------------|--------------------|

_____________________________________________________________________________


Solo 1
Guitar 1
|---------------------------------|---------------------------------|
|---------------------------------|---------------------------------|
|---------------------------------|---------------------------------|
|---------------------------------|---------------------------------|
|-1-0---------1-0---------1-0-3-0-|-1-0---------1-0---3---5---6---5-|
|-1-0-0-0-0-0-1-0-0-0-0-0-1-0-3-0-|-1-0-0-0-0-0-1-0-0-3-0-5-0-6-0-5-|

Guitar 2
|---------------------------------|---------------------------------|
|-13BU(15)--------------(15)-(15)-|-(15)-(15)-(15)---------10h13p10-|
|---------------------------------|---------------------------------|
|---------------------------------|---------------------------------|
|---------------------------------|---------------------------------|
|---------------------------------|---------------------------------|

                                                           PH
|---------------------------------|---------------------------------|
|------10h13p10------10h13p10-----|---------------------------------|
|-12^-----------12^-----------12^-|-12-10-7-10-7--------------------|
|---------------------------------|--------------10-7---------------|
|---------------------------------|-------------------10-8-10^------|
|---------------------------------|---------------------------------|

|----------17--------------17--15-|-17--18--17--15--13--15--13--13--|
|----15-------15-----------15--15-|-15--15--15--15--15--15--15--15--|
|-14------------------------------|---------------------------------|
|---------------------------------|---------------------------------|
|---------------------------------|---------------------------------|
|---------------------------------|---------------------------------|

|-------17-20-18-17-------------------------------|
|----18-------------20-18-17-18-17----17----------|
|-19-------------------------------19----19-17----|
|----------------------------------------------19-|
|-------------------------------------------------|
|-------------------------------------------------|

|-------------------------------------------------|
|-------------------------------------------------|
|-17BU(19)----17----14--12BU(14)------------------|
|-------------------------------------------------|
|-------------------------------------------------|
|-------------------------------------------------|

_____________________________________________________________________________


Solo 2
Guitar 2
|---------------------------------|---------------------------------|
|---------------------------------|---------------------------------|
|---------------------------------|---------------------------------|
|-3-2---------3-2---------3-2-5-2-|-3-2---------3-2---5---7---8---7-|
|-1-0-0-0-0-0-1-0-0-0-0-0-1-0-3-0-|-1-0-0-0-0-0-1-0-0-3-0-5-0-6-0-5-|
|---------------------------------|---------------------------------|

Guitar 1
|-17---------------------21BU(22)-|-(22)---------21p17h21^----17-21-|
|-20BU(22)------------------------|---------------------------------|
|---------------------------------|---------------------------------|
|---------------------------------|---------------------------------|
|---------------------------------|---------------------------------|
|---------------------------------|---------------------------------|

|-21-22-21-22-18-21-18-21-17-18-17-18-------------------------------------|
|-------------------------------------20-22-20-22-18-20-18-20-17-18-17-18-|
|-------------------------------------------------------------------------|
|-------------------------------------------------------------------------|
|-------------------------------------------------------------------------|
|-------------------------------------------------------------------------|

|-----------------------------------------------|
|-----------------------------------------------|
|-19-21-19-21-18-19-18-19-15-17-15-17-----------|
|-------------------------------------17/19-----|
|-----------------------------------------------|
|-----------------------------------------------|

|---------------------------------|---------------------------------|
|---------------------------------|--------------8BU(10)------------|
|-7BU(9)--7BU(9)--7BU(9)------7BU-|-(9)(7)----5---------------------|
|---------------------------------|---------------------------------|
|---------------------------------|---------------------------------|
|---------------------------------|---------------------------------|

|-8p7p5h7h8/10p8p7h8h10/12p10p8/7h8-10p8p7h8h10/12p10p8h10h12/13p12p10h12h13-|
|----------------------------------------------------------------------------|
|----------------------------------------------------------------------------|
|----------------------------------------------------------------------------|
|----------------------------------------------------------------------------|
|----------------------------------------------------------------------------|

|-19BU(20)--19--17----------------|
|-------------------20BU(22)------|
|-------------------19BU(21)------|
|---------------------------------|
|---------------------------------|
|---------------------------------|

_____________________________________________________________________________

Solo 3
Guitar 1
|---------------------------------|---------------------------------|
|---------------------------------|---------------------------------|
|---------------------------------|---------------------------------|
|---------------------------------|---------------------------------|
|-1-0---------1-0---------1-0-3-0-|-1-0---------1-0---3---5---6---5-|
|-1-0-0-0-0-0-1-0-0-0-0-0-1-0-3-0-|-1-0-0-0-0-0-1-0-0-3-0-5-0-6-0-5-|

Guitar 2
  T  T                       T  T
|-22-22p17p13----------13h17-22-22p17p13----------13h17-|
|-------------15----15-------------------15----15-------|
|----------------14-------------------------14----------|
|-------------------------------------------------------|
|-------------------------------------------------------|
|-------------------------------------------------------|

  T  T           T  T           T  T
|-22-22p17p13h17-24-24p17p13h17-22-22p17p13----------13h17/|
|-------------------------------------------15----15-------|
|----------------------------------------------14----------|
|----------------------------------------------------------|
|----------------------------------------------------------|
|----------------------------------------------------------|

|/22---17---18---17---20---18---|
|-------------------------------|
|-------------------------------|
|-------------------------------|
|-------------------------------|
|-------------------------------|

|-------------------------------------------------|
|-17h18p17h18-------------------------------------|
|-------------14h15p14h15-------------------------|
|-------------------------14h15p14h15-------------|
|-------------------------------------12h13p12p10-|
|-------------------------------------------------|


_____________________________________________________________________________


Solo 4
Guitar 2
|---------------------------------|---------------------------------|
|---------------------------------|---------------------------------|
|---------------------------------|---------------------------------|
|-3-2---------3-2---------3-2-5-2-|-3-2---------3-2---5---7---8---7-|
|-1-0-0-0-0-0-1-0-0-0-0-0-1-0-3-0-|-1-0-0-0-0-0-1-0-0-3-0-5-0-6-0-5-|
|---------------------------------|---------------------------------|

Guitar 1
|---------------------------------|-18------------------------------|
|-20BU(22)-(22)--------(22)-------|-21BU(23)------------------------|
|-19BU(21)-------(21)-------------|---------------------------------|
|---------------------------------|---------------------------------|
|---------------------------------|---------------------------------|
|---------------------------------|---------------------------------|

|-18BU(20)---------------21BU(22)-|-21BU(22)(21)-17-22---BU---(24)--|
|---------------------------------|---------------------------------|
|---------------------------------|---------------------------------|
|---------------------------------|---------------------------------|
|---------------------------------|---------------------------------|
|---------------------------------|---------------------------------|

_____________________________________________________________________________

After Solo Harmony
Guitar 1
|--------------------|------------8-10p8-------|
|-------------8----8-|-10-8-10-11--------11-10-|
|-7-9-10-9-10---10---|-------------------------|
|--------------------|-------------------------|
|--------------------|-------------------------|
|--------------------|-------------------------|

Guitar 2
|-------------------------|----------10-12-13p12-10----|
|-------10----10-11-10-11-|-13-11-13----------------13-|
|-10-12----12-------------|----------------------------|
|-------------------------|----------------------------|
|-------------------------|----------------------------|
|-------------------------|----------------------------|

Guitar 1
|-10-------12-------13----|----15-------17----17----|
|-13^------15^------16^---|----18^------20^---20^---|
|-------------------------|-------------------------|
|-------------------------|-------------------------|
|-------------------------|-------------------------|
|-------------------------|-------------------------|

                                                        Last note carries through
|----------------------------|-------------------------|----------|
|-20^-18--20^-18--20BU(22)---|-------------------------|-18-------|
|----------------------------|----------------17-19-21-|----------|
|----------------------------|-------17-19-20----------|----------|
|-------------------------17-|-19-20-------------------|----------|
|----------------------------|-------------------------|----------|

Guitar 2
|-13-------15-------17----|----18-------20----20-22-|
|-16^------18^------20^---|----21^------23^---------|
|-------------------------|-------------------------|
|-------------------------|-------------------------|
|-------------------------|-------------------------|
|-------------------------|-------------------------|

                                                     Last note carries through
|-22BU(24)--23BU(25)--22--|-20-------20-18-17-17-18-|-18-------|
|-------------------------|-------------------------|----------|
|-------------------------|-------------------------|----------|
|-------------------------|-------------------------|----------|
|-------------------------|-------------------------|----------|
|-------------------------|-------------------------|----------|

_____________________________________________________________________________

Repeat Verse 2 x2

Repeat Intro (part 1 only)

Repeat Main Verse (Chorus)

_____________________________________________________________________________

Breakdown
Both guitars
|-------------------------------------------------------------|
|-------------------------------------------------------------|
|-------------------------------------------------------------|
|-------------------------------------------------------------|
|-3---2---1---2---1---0---3---2---1---2---1---0---------------|
|-3---2---1---2---1---0---3---2---1---2---1---0---6-5-4-7-6-5-|

The above is played again but slightly slower

____________________________________________________________________________

Outro
Both guitars
|-----------------|-----------------|-----------------|
|-----------------|-----------------|-----------------|
|-----------------|-----------------|-----------------|
|-----------------|-----------------|-----------------|
|-----------------|-----------------|-----------------|
|-0-------------5-|-------3-------2-|------3------0---|



##################################################################################################
#THIS IS THE END##################################################################################
##################################################################################################

Acoustic Guitar: Robb Flynn
Guitar 1:        Robb Flynn
Guitar 2:        Phil Demmel
Guitar 3:        Harmony

Tabbing Legend
Hammer on:          h
Pull off:           p
Slide up:           /
Slide down:         \
Natural Harmonic:   NH
Bend:               BU(?)
Whammy Bar Rise:    WBR
Whammy Bar Lower:   WBL
Tremelo Pick:       Tr---
Trill:              tr

____________________________________________________________________________


Intro
Acoustic Guitar
|-6---6---6-5h6p5p3---5---5-----------|-----------------5-------------------5h6p5-|
|-------------------6---------5---5---|---5h6-3---5h6-3---5---4h5-2---4h5-2-------|
|---3---3---------------2---2---2---2-|---------------------2-------2-------------|
|-------------------------------------|-0-------0---------------------------------|
|-------------------------------------|-------------------------------------------|
|-------------------------------------|-------------------------------------------|

|-------------------------------0-5h6p5-|-----------------5-------------------5h6p5-|
|---5h6-3---5h6-3-----------3-2---------|---5h6-3---5h6-3---5---4h5-2---4h5-2-------|
|-3-------3-------0-2-3-0-2-------------|---------------------2-------2-------------|
|---------------------------------------|-0-------0---------------------------------|
|-----------------1-0-------0-----------|-------------------------------------------|
|---------------------5-----------------|-------------------------------------------|

|-------------------------------0-5h6p5-|-6---6---6-5h6p5p3---5---5-----------|
|---5h6-3---5h6-3-----------3-2---------|-------------------6---------5---5---|
|-3-------3-------0-2-3-0-2-------------|---3---3---------------2---2---2---2-|
|---------------------------------------|-------------------------------------|
|---------------------------------------|-------------------------------------|
|---------------------------------------|-------------------------------------|

Guitar 2
||-------------------------------------|--------------------------------------------||
|o-15-----------15WB(13)-----------17WB|(15)-------------18-18\17-17\15-15\13-13/15-o|
||-------------------------------------|--------------------------------------------||
||-------------------------------------|--------------------------------------------||
|o-------------------------------------|--------------------------------------------o|
||-------------------------------------|--------------------------------------------||
|
|Guitar 3
||-13-----------13WB(12)-----------15WB|(13)-------------17-17\15-15\13-13\12-12/13-||
|o-------------------------------------|--------------------------------------------o|
||-------------------------------------|--------------------------------------------||
||-------------------------------------|--------------------------------------------||
|o-------------------------------------|--------------------------------------------o|
||-------------------------------------|--------------------------------------------||

Guitar 2
|--------------------------------------|
|-18-----------20WB(17)----------------|
|--------------------------------------|
|--------------------------------------|
|--------------------------------------|
|--------------------------------------|
|
|Guitar 3
|-17-----------18WB(15)----------------|
|--------------------------------------|
|--------------------------------------|
|--------------------------------------|
|--------------------------------------|
|--------------------------------------|

____________________________________________________________________________

Drum Solo

____________________________________________________________________________


Chorus
Both guitars
|---------------------------------------------------------------------------------|
|---------------------------------------------------------10-10-10-10-------------|
|---------10-10-10-10-7-7-7-7---------10-10-10-10-7-7-7-7-------------10-10-10-10-|
|-0---------------------------0-0-0-0---------------------------------------------|
|---------------------------------------------------------------------------------|
|---------------------------------------------------------------------------------|

|-------------------------------------------------------------------------|
|-------------------------------------------------11-11-11-11-10-10-10-10-|
|---------9-9-9-9-6-6-6-6---------9-9-9-9-6-6-6-6-------------------------|
|-7-----------------------7-7-7-7-----------------------------------------|
|-------------------------------------------------------------------------|
|-------------------------------------------------------------------------|

|---------------------------------------------------------------------------------|
|---------------------------------------------------------------------------------|
|---------10-10-10-10-7-7-7-7---------10-10-10-10-9-9-9-9-10-10-10-10-12-12-12-12-|
|-8---------------------------8-8-8-8---------------------------------------------|
|---------------------------------------------------------------------------------|
|---------------------------------------------------------------------------------|

|---------------------------------10-10-10-10-|
|-11-11-11-11-8-8-8-8-10-10-10-10-------------|
|---------------------------------------------|
|---------------------------------------------|
|---------------------------------------------|
|---------------------------------------------|

|-9-9-9-9-12-12-12-12-18-18-18-18-17-17-17-17-|
|---------------------------------------------|
|---------------------------------------------|
|---------------------------------------------|
|---------------------------------------------|
|---------------------------------------------|

____________________________________________________________________________


Verse 1
Both guitars
|---------------------------------|---------------------------------|
|---------------------------------|-------------------------6p5-----|
|---------------------------------|-----------------------------5/7-|
|---------------8\7---3/5---------|---------------8\7---3/5---------|
|---8\7---3/5---------------------|---8\7---3/5---------------------|
|-0-----0-----0-----0-----000-000-|-0-----0-----0-----0-------------|

Guitar 1
|---------------------------------|---------------------------------|
|---------------------------------|---------------------------------|
|---------------------------------|---------------------------------|
|---------------8\7---3/5-7-5-----|---------------------------------|
|---8\7---3/5-----------------8p7-|---------------------------------|
|-0-----0-----0-----0-------------|-7-777-7-777-777-7-777-7-777-777-|
|
|Guitar 2
|---------------------------------|---------------------------------|
|---------------------------------|---------------------------------|
|---------------------------------|---------------------------------|
|---------------8\7---3/5---------|---------------------------------|
|---8\7---3/5-------------8-7-5p4-|---------------------------------|
|-0-----0-----0-----0-------------|-7-777-7-777-777-7-777-7-777-777-|

Guitar 1
|---------------------------------|---------------------------------|
|---------------------------------|-------------------------6p5-----|
|---------------------------------|-----------------------------5/7-|
|---------------8\7---3/5---------|---------------8\7---3/5---------|
|---8\7---3/5---------------------|---8\7---3/5---------------------|
|-0-----0-----0-----0-----000-000-|-0-----0-----0-----0-------------|
|
|Guitar 2
|---------------------------------|-----------------------------------|
|---------------------------------|-------------------------10p8------|
|---------------------------------|------------------------------9/10-|
|---------------8\7---3/5---------|---------------8\7---3/5-----------|
|---8\7---3/5---------------------|---8\7---3/5-----------------------|
|-0-----0-----0-----0-----000-000-|-0-----0-----0-----0---------------|

Both guitars
|----------------------------------|---------------------------------|
|----------------------------------|---------------------------------|
|----------------------------------|---------------------------------|
|---------------8\7---3/5----------|---------------------------------|
|---8\7---3/5-------------8p7------|---------------------------------|
|-0-----0-----0-----0---------10p9-|-7-777-7-777-777-7-777-7-777-777-|

|-------------------------------------------------------|
|-------------------------------------------------------|
|-14-141414-14-141414-141414-14-141414-14-141414-141414-|
|-------------------------------------------------------|
|-12-121212-12-121212-121212-12-121212-12-121212-121212-|
|-------------------------------------------------------|

____________________________________________________________________________


Verse 2
Guitar 1
|--------------------------------------------------------------------|
|--------------------------------------------------------------------|
|--------------------------------------------------------------------|
|-8-------8---8-------8---8-------8-------8---8-------15p0-14p0-10p0-|
|---5-0-5---5---5-0-5---5---5-0-5---5-0-5---5---5-0-0----------------|
|--------------------------------------------------------------------|
|
|Guitar 2
|-----------------------------------------------------------------|
|-----------------------------------------------------------------|
|-----------------------------------------------------------------|
|-----------------------------------------------------------------|
|-------------------------0-0-0-0-------------------------0-0-0-0-|
|-------------------------0-0-0-0-------------------------0-0-0-0-|

Guitar 1
|-------------------------------------------------------------------------|
|-------------------------------------------------------------------------|
|-------------------------------------------------------------------------|
|-8-------8---8-------8-----------12p0-10p0-14p0-12p0-15p0-14p0-17p0-15p0-|
|---5-0-5---5---5-0-5---5-------------------------------------------------|
|-------------------------0-0-0-0-----------------------------------------|
|
|Guitar 2
|-----------------------------------------------------------------|
|-----------------------------------------------------------------|
|-----------------------------------------------------------------|
|-----------------------------------------------------------------|
|-------------------------0-0-0-0-------------------------0-0-0-0-|
|-------------------------0-0-0-0-------------------------0-0-0-0-|

Both guitars
|--------------------------------------------------------------------|
|--------------------------------------------------------------------|
|--------------------------------------------------------------------|
|-8-------8---8-------8-----------8-------8---8-------15p0-14p0-10p0-|
|---5-0-5---5---5-0-5---5-0-0-0-0---5-0-5---5---5-0-0----------------|
|-------------------------0-0-0-0------------------------------------|

Guitar 1
|-------------------------------------------------------------------------|
|-------------------------------------------------------------------------|
|-------------------------------------------------------------------------|
|-8-------8---8-------8-----------12p0-10p0-14p0-12p0-15p0-14p0-17p0-15p0-|
|---5-0-5---5---5-0-5---5-------------------------------------------------|
|-------------------------0-0-0-0-----------------------------------------|
|
|Guitar 2
|-------------------------------------------------------------------------|
|-------------------------------------------------------------------------|
|-------------------------------------------------------------------------|
|-8-------8---8-------8-----------15p0-14p0-17p0-15p0-19p0-17p0-20p0-19p0-|
|---5-0-5---5---5-0-5---5-------------------------------------------------|
|-------------------------0-0-0-0-----------------------------------------|

Both guitars
|---------------------------------|---------------------------------|
|---------------------------------|---------------------------------|
|---------------------------------|---------------------------------|
|-8-------8-----x-8---7---5---3---|-3/7------------------------(7)\-|
|-8-------8-----x-8---7---5---3---|-3/7------------------------(7)\-|
|-8-------8-----x-8---7---5---3---|-3/7------------------------(7)\-|

____________________________________________________________________________


Verse 3
Both guitars
|-----------------------------------|-----------------------------------|
|-----------------------------------|-----------------------------------|
|-----------------------------7NH---|-----------------------------7NH---|
|-----------------8\7---3/5-----7NH-|-----------------8\7---3/5-----7NH-|
|-----8\7---3/5---------------------|-----8\7---3/5---------------------|
|-0-------0-----0-----0-----0-------|-0-------0-----0-----0-----0-------|

|----------------------------------|------------------13-------13-------13-------|
|----------------------------------|------------------16BU(18)-16BU(18)-16BU(18)-|
|----------------------------------|---------------------------------------------|
|-----------------8\7---3/5--------|---------------------------------------------|
|-----8\7---3/5---------------/8-7-|------8\7---5/7------------------------------|
|-8-------0-----0-----0-----0------|-10-------0-----0----------------------------|

|---------------------------------|
|---------------------------------|
|---------------------------------|
|-0-------------------------------|
|-0-------------------------------|
|-0-------------------------------|

____________________________________________________________________________


Pre-solo verse
Guitar 1
||---------------------------------||
|o---------------------------------o|
||---------------------------------|| x4
||---------------------------------||
|o---------------------------------o|
||-0-000-0-000-000-0-000-0-000-000-||

Guitar 2
(Third time guitar 1 plays the above)
|---------------------------------|
|---------------------------------|
|---------------------------------|
|-0-WBL-(12NH)-WBR----------------|
|---------------------------------|
|---------------------------------|

____________________________________________________________________________


Solo 1
Guitar 1 (Rhythm)
|---------------------------------|---------------------------------|
|---------------------------------|---------------------------------|
|---------------------------------|---------------------------------|
|---------------------------------|---------------------------------|
|---------------------------------|---------------------------------|
|-3-333-3-333-333-3-333-3-333-333-|-7-777-7-777-777-7-777-7-777-777-|

|---------------------------------|---------------------------------|
|---------------------------------|---------------------------------|
|---------------------------------|---------------------------------|
|---------------------------------|---------------------------------|
|-5-555-5-555-555-5-555-5-555-555-|-3-333-3-333-333-3-333-3-333-333-|
|---------------------------------|---------------------------------|

Guitar 2 (Lead) (With Wah-Wah)
|---------------------------------|
|---------------------------------|
|-5NH-WBR-------------------------|
|---------------------------------|
|---------------------------------|
|---------------------------------|

|---------------------------------------------------------------------------|
|------------------------------------------------------15---17---17BU(18)---|
|-14-12--------12-14-12--------12-14-12--------12-14------------------------|
|------15-14-15--------15-14-15--------15-14-15-----------------------------|
|---------------------------------------------------------------------------|
|---------------------------------------------------------------------------|

Guitar 2
|-----------------------------------13tr15-17tr20-|
|-(18)-(18)-(18)-(18)(17)-15-13tr15---------------|
|-------------------------------------------------|
|-------------------------------------------------|
|-------------------------------------------------|
|-------------------------------------------------|
|
|Guitar 3
|----------------------------13tr15-17tr20-20tr24-|
|-------------------------------------------------|
|-------------------------------------------------|
|-------------------------------------------------|
|-------------------------------------------------|
|-------------------------------------------------|

Guitar 2
  Tr---------------------------------------------
|-19------------20-19---20-19-20-19---20-19-20-19-|
|-------------------------------------------------|
|-------------------------------------------------|
|-------------------------------------------------|
|-------------------------------------------------|
|-------------------------------------------------|

|-22-17-15tr17-22-17-15tr17-22-17-15tr17----------|
|----------------------------------------20BU(22)-|
|-------------------------------------------------|
|-------------------------------------------------|
|-------------------------------------------------|
|-------------------------------------------------|

|-17p13--------------13-15h17p15--13-15p13p12h13p12\10-----------------------------|
|------15----------15-----------17---------------------13h15p13p11\10h11p10\8------|
|--------14------14-----------------------------------------------------------10p9-|
|----------15--15------------------------------------------------------------------|
|------------17--------------------------------------------------------------------|
|----------------------------------------------------------------------------------|

____________________________________________________________________________


Solo 2
Guitar 1 (Rhythm)
|-----------------------------------------------------------------------------|
|-----------------------------------------------------------------------------|
|-2---3-5-3---5-7-5---7-9-7---9-10-9---10-12-10---12-14-12---14-15-14---12-10-|
|-----------------------------------------------------------------------------|
|-0---1-3-1---3-5-3---5-7-5---7--8-7----8-10--8---10-12-10---12-13-12---10--8-|
|-----------------------------------------------------------------------------|

Guitar 2 (Lead) (With Wah Wah)
|--------------------|------------------------------|
|--------------------|------------------------------|
|-2tr3-----3tr5-5tr7-|-3tr5-----12p10p9h10p9\7-5tr7-|
|--------------------|------------------------------|
|--------------------|------------------------------|
|--------------------|------------------------------|

|-------------------------------|------------------------------------|
|-------------------------------|----------------------8-10-11-8tr10-|
|-7-----7-9-10-9-7-----7-9-10-9-|-12-10-9-7-----7-9-10---------------|
|-------------------------------|------------------------------------|
|-------------------------------|------------------------------------|
|-------------------------------|------------------------------------|

|--------------------------------------|
|-8tr10--------------13-15-17-17BU(18)-|
|-----------12-14-15-------------------|
|--------------------------------------|
|--------------------------------------|
|--------------------------------------|

|----------------------------------------15----------------|
|-17BU(18)(17)p15-17------------15-17-18----18-17-15-------|
|----------------------14-15-17----------------------17-15-|
|----------------------------------------------------------|
|----------------------------------------------------------|
|----------------------------------------------------------|

|----------------------------------------18----------------|
|-20BU(22)(20)p18-20------------18-20-22----22-20-18-------|
|----------------------17-19-21----------------------21-19-|
|----------------------------------------------------------|
|----------------------------------------------------------|
|----------------------------------------------------------|

|----------------------------------------20----------------|-----|
|-22BU(23)(22)p20-22------------20-22-23----23-22-20-------|-22\-|
|----------------------19-21-22----------------------22-21-|-----|
|----------------------------------------------------------|-----|
|----------------------------------------------------------|-----|
|----------------------------------------------------------|-----|

____________________________________________________________________________


Breakdown
Guitar 1
|-5-0-0-5-0-0-5-0-6-0-6-0-3-0-3-0-|
|---------------------------------|
|---------------------------------|
|---------------------------------|
|---------------------------------|
|---------------------------------|
|
|Guitar 2
|-17-0-0-17-0-0-17-0-18-0-18-0-15-0-15-0-|
|----------------------------------------|
|----------------------------------------|
|----------------------------------------|
|----------------------------------------|
|----------------------------------------|

Guitar 1
|-12-0-0-12-0-0-12-0-13-0-13-0-10-0-10-0-|
|----------------------------------------|
|----------------------------------------|
|----------------------------------------|
|----------------------------------------|
|----------------------------------------|
|
|Guitar 2
|-17-0-0-17-0-0-17-0-18-0-18-0-15-0-15-0-|
|----------------------------------------|
|----------------------------------------|
|----------------------------------------|
|----------------------------------------|
|----------------------------------------|

____________________________________________________________________________


Repeat Chorus
Guitar 2 (Harmony)
|-------------------------------------------------------------------------------------|
|-------------------------------------------------------------15-15-15-15-10-10-10-10-|
|-----14-14-14-14-10-10-10-10---------14-14-14-14-10-10-10-10-------------------------|
|-0---------------------------0-0-0-0-------------------------------------------------|
|-------------------------------------------------------------------------------------|
|-------------------------------------------------------------------------------------|

|-----------------------------------------------------10-10-10-10-9-9-9-9-|
|-------------------------------------------------------------------------|
|-----12-12-12-12-9-9-9-9---------12-12-12-12-9-9-9-9---------------------|
|-7-----------------------7-7-7-7-----------------------------------------|
|-------------------------------------------------------------------------|
|-------------------------------------------------------------------------|

|---------------------------------------------------------------------------------|
|-----10-10-10-10---------------------10-10-10-10-8-8-8-8-10-10-10-10-11-11-11-11-|
|-----------------10-10-10-10-----------------------------------------------------|
|-8---------------------------8-8-8-8---------------------------------------------|
|---------------------------------------------------------------------------------|
|---------------------------------------------------------------------------------|

|-10-10-10-10-----------9-9-9-9-13-13-13-13-|
|------------10-10-10-10--------------------|
|-------------------------------------------|
|-------------------------------------------|
|-------------------------------------------|
|-------------------------------------------|

|-12-12-12-12-15-15-15-15-22-22-22-22-21-21-21-21-|
|-------------------------------------------------|
|-------------------------------------------------|
|-------------------------------------------------|
|-------------------------------------------------|
|-------------------------------------------------|

____________________________________________________________________________


Outro
Both guitars
|---------------------------------|---------------------------------|
|---------------------------------|---------------------------------|
|---------------------------------|---------------------------------|
|---------------8\7---3/5---------|---------------8\7---3/5---------|
|---8\7---3/5---------------------|---8\7---3/5---------------------|
|-0-----0-----0-----0-----0-0-0-0-|-0-----0-----0-----0-----0-0-0-0-|

|---------------------------------|---------------------------------|
|---------------------------------|---------------------------------|
|---------------------------------|---------------------------------|
|---------------8\7---3/5---------|---------------------------------|
|---8\7---3/5---------------------|---8\7---3/5---8-----------------|
|-0-----0-----0-----0-----0-0-0-0-|-0-----0-----0---0---------------|

That's all guys please rate :)


##################################################################################################
#DARKNESS WITHIN##################################################################################
##################################################################################################

Acoustic Guitar: Robb Flynn
Guitar 1:        Robb Flynn
Guitar 2:        Phil Demmel

Tabbing Legend
Hammer on:          h
Pull off:           p
Slide up:           /
Slide down:         \
Natural Harmonic:   NH
Return Bend:        ^
Bend:               BU(?)
Pinch Harmonic:     PH
Tapped Note:        T

____________________________________________________________________________

Verse 1
Acoustic guitar
|------------------|------------------|
|------------------|------------------|
|-14---------------|-12---------------|
|--0---------------|--0---------------|
|------------------|------------------|
|------------------|------------------|

|------------------|------------------|
|------------------|------------------|
|-15---------------|-10---------------|
|--0---------------|--0---------------|
|------------------|------------------|
|------------------|------------------|

____________________________________________________________________________


Verse 2
Acoustic guitar
|---------------------------------|---------------------------------|
|-6-6-5-----6-6-5---------6-6-5---|-6-6-5-----6-6-5---------6-6-5---|
|-7-7-7-----7-7-7---------7-7-7---|-6-6-6-----6-6-6---------6-6-6---|
|-0-0-0-0-0-0-0-0-0-0-0-0-0-0-0-0-|-0-0-0-0-0-0-0-0-0-0-0-0-0-0-0-0-|
|---------------------------------|---------------------------------|
|---------------------------------|---------------------------------|

|---------------------------------|---------------------------------|
|-6-6-5-----6-6-5---------6-6-5---|-6---5-----5-6-8---6-----8-8-6---|
|-5-5-5-----5-5-5---------5-5-5---|-3---3-----3-3-5---5-----5-5-5---|
|-0-0-0-0-0-0-0-0-0-0-0-0-0-0-0-0-|-0-0-0-0-0-0-0-0-0-0-0-0-0-0-0-0-|
|---------------------------------|---------------------------------|
|---------------------------------|---------------------------------|

|---------------------------------|---------------------------------|
|-6-6-5-----6-6-5---------6-6-5---|-6-6-5-----6-6-5---------6-6-5---|
|-7-7-7-----7-7-7---------7-7-7---|-6-6-6-----6-6-6---------6-6-6---|
|-0-0-0-0-0-0-0-0-0-0-0-0-0-0-0-0-|-0-0-0-0-0-0-0-0-0-0-0-0-0-0-0-0-|
|---------------------------------|---------------------------------|
|---------------------------------|---------------------------------|

|---------------------------------|------------------------------------|
|-6-6-5-----6-6-5---------6-6-5---|-10---8-----8-10-11--13--11--10-----|
|-5-5-5-----5-5-5---------5-5-5---|--7---7-----7--7--7---7---7---7-----|
|-0-0-0-0-0-0-0-0-0-0-0-0-0-0-0-0-|--0-0-0-0-0-0--0--0-0-0-0-0-0-0-0-0-|
|---------------------------------|------------------------------------|
|---------------------------------|------------------------------------|

____________________________________________________________________________


Chorus
Acoustic guitar
    NH--|   NH--|   NH--|   NH--|     NH--|   NH--|    NH--|    NH--|
|---------------------------------|-----------------------------------|
|---------------------------------|-----------------------------------|
|-----7-------7-------7-------7---|-----7-------7--------7--------7---|
|---7---7---7---7---7---7---7---7-|---7---7---7---7----7---7----7---7-|
|---------------------------------|-----------------------------------|
|-8-------8-------5-------5-------|-0-------0-------10-------10-------|

    NH--|   NH--|   NH--|   NH--|     NH--|   NH--|   NH--|   NH--|
|---------------------------------|---------------------------------|
|---------------------------------|---------------------------------|
|-----7-------7-------7-------7---|-----7-------7-------7-------7---|
|---7---7---7---7---7---7---7---7-|---7---7---7---7---7---7---7---7-|
|---------------------------------|-0-------0-------0-------0-------|
|-8-------8-------5-------5-------|---------------------------------|

____________________________________________________________________________


Verse 1
Acoustic guitar
|------------------|------------------|
|------------------|------------------|
|-14---------------|-12---------------|
|--0---------------|--0---------------|
|------------------|------------------|
|------------------|------------------|

____________________________________________________________________________


Verse 2
Guitar 1
|---------------------------------|---------------------------------|
|-6-6-5-----6-6-5---------6-6-5---|-6-6-5-----6-6-5---------6-6-5---|
|-7-7-7-----7-7-7---------7-7-7---|-6-6-6-----6-6-6---------6-6-6---|
|-0-0-0-0-0-0-0-0-0-0-0-0-0-0-0-0-|-0-0-0-0-0-0-0-0-0-0-0-0-0-0-0-0-|
|---------------------------------|---------------------------------|
|---------------------------------|---------------------------------|

|---------------------------------|---------------------------------|
|-6-6-5-----6-6-5---------6-6-5---|-6---5-----5-6-8---6-----8-8-6---|
|-5-5-5-----5-5-5---------5-5-5---|-3---3-----3-3-5---5-----5-5-5---|
|-0-0-0-0-0-0-0-0-0-0-0-0-0-0-0-0-|-0-0-0-0-0-0-0-0-0-0-0-0-0-0-0-0-|
|---------------------------------|---------------------------------|
|---------------------------------|---------------------------------|

|---------------------------------|---------------------------------|
|-6-6-5-----6-6-5---------6-6-5---|-6-6-5-----6-6-5---------6-6-5---|
|-7-7-7-----7-7-7---------7-7-7---|-6-6-6-----6-6-6---------6-6-6---|
|-0-0-0-0-0-0-0-0-0-0-0-0-0-0-0-0-|-0-0-0-0-0-0-0-0-0-0-0-0-0-0-0-0-|
|---------------------------------|---------------------------------|
|---------------------------------|---------------------------------|

|---------------------------------|------------------------------------|
|-6-6-5-----6-6-5---------6-6-5---|-10---8-----8-10-11--13--11--10-----|
|-5-5-5-----5-5-5---------5-5-5---|--7---7-----7--7--7---7---7---7-----|
|-0-0-0-0-0-0-0-0-0-0-0-0-0-0-0-0-|--0-0-0-0-0-0--0--0-0-0-0-0-0-0-0-0-|
|---------------------------------|------------------------------------|
|---------------------------------|------------------------------------|

____________________________________________________________________________


Pre-chorus
Guitar 1
|------------------------------------|
|-10---8-----8-10-11--13--11--10-----|
|--7---7-----7--7--7---7---7---7-----|
|--0-0-0-0-0-0--0--0-0-0-0-0-0-0-0-0-|
|------------------------------------|
|------------------------------------|

____________________________________________________________________________


Chorus
Guitar 1
    NH--|   NH--|   NH--|   NH--|     NH--|   NH--|    NH--|    NH--|
|---------------------------------|-----------------------------------|
|---------------------------------|-----------------------------------|
|-----7-------7-------7-------7---|-----7-------7--------7--------7---|
|---7---7---7---7---7---7---7---7-|---7---7---7---7----7---7----7---7-|
|---------------------------------|-----------------------------------|
|-8-------8-------5-------5-------|-0-------0-------10-------10-------|

Guitar 2
|---------------------------------|---------------------------------|
|---------------------------------|---------------------------------|
|---------------------------------|---------------------------------|
|-8-8-8-8-8-8-8-8-8-8-8-8-8-8-8-8-|-5-5-5-5-5-5-5-5-5-5-5-5-5-5-5-5-|
|-8-8-8-8-8-8-8-8-8-8-8-8-8-8-8-8-|-5-5-5-5-5-5-5-5-5-5-5-5-5-5-5-5-|
|-8-8-8-8-8-8-8-8-8-8-8-8-8-8-8-8-|-5-5-5-5-5-5-5-5-5-5-5-5-5-5-5-5-|

|---------------------------------|-------------------------------------------------|
|---------------------------------|-------------------------------------------------|
|---------------------------------|-------------------------------------------------|
|-0-0-0-0-0-0-0-0-0-0-0-0-0-0-0-0-|-10-10-10-10-10-10-10-10-10-10-10-10-10-10-10-10-|
|-0-0-0-0-0-0-0-0-0-0-0-0-0-0-0-0-|-10-10-10-10-10-10-10-10-10-10-10-10-10-10-10-10-|
|-0-0-0-0-0-0-0-0-0-0-0-0-0-0-0-0-|-10-10-10-10-10-10-10-10-10-10-10-10-10-10-10-10-|

Guitar 1
    NH--|   NH--|   NH--|   NH--|     NH--|   NH--|   NH--|   NH--|
|---------------------------------|---------------------------------|
|---------------------------------|---------------------------------|
|-----7-------7-------7-------7---|-----7-------7-------7-------7---|
|---7---7---7---7---7---7---7---7-|---7---7---7---7---7---7---7---7-|
|---------------------------------|-0-------0-------0-------0-------|
|-8-------8-------5-------5-------|---------------------------------|

Guitar 2
|---------------------------------|---------------------------------|
|---------------------------------|---------------------------------|
|---------------------------------|---------------------------------|
|-8-8-8-8-8-8-8-8-8-8-8-8-8-8-8-8-|-5-5-5-5-5-5-5-5-5-5-5-5-5-5-5-5-|
|-8-8-8-8-8-8-8-8-8-8-8-8-8-8-8-8-|-5-5-5-5-5-5-5-5-5-5-5-5-5-5-5-5-|
|-8-8-8-8-8-8-8-8-8-8-8-8-8-8-8-8-|-5-5-5-5-5-5-5-5-5-5-5-5-5-5-5-5-|

|---------------------------------|---------------------------------|
|---------------------------------|---------------------------------|
|---------------------------------|---------------------------------|
|-7-7-7-7-7-7-7-7-7-7-7-7-7-7-7-7-|-7-7-7-7-7-7-7-7-7-7-7-7-7-7-7-7-|
|-7-7-7-7-7-7-7-7-7-7-7-7-7-7-7-7-|-7-7-7-7-7-7-7-7-7-7-7-7-7-7-7-7-|
|-7-7-7-7-7-7-7-7-7-7-7-7-7-7-7-7-|-7-7-7-7-7-7-7-7-7-7-7-7-7-7-7-7-|

____________________________________________________________________________


Verse 3
Both guitars
|---------------------------------|---------------------------------|
|---------------------------------|---------------------------------|
|-7-7-7-7-7-7-7-7-7-7-7-7-7-7-7-7-|-6-6-6-6-6-6-6-6-6-6-6-6-6-6-6-6-|
|-7-7-7-7-7-7-7-7-7-7-7-7-7-7-7-7-|-7-7-7-7-7-7-7-7-7-7-7-7-7-7-7-7-|
|-5-5-5-5-5-5-5-5-5-5-5-5-5-5-5-5-|-4-4-4-4-4-4-4-4-4-4-4-4-4-4-4-4-|
|---------------------------------|---------------------------------|

|---------------------------------|---------------------------------------|
|---------------------------------|---------------------------------------|
|-5-5-5-5-5-5-5-5-6-6-6-6-6-6-6-6-|-7-7-7-7-7-7-7-10-10\9-9/12-12\10-9/10-|
|-5-5-5-5-5-5-5-5-7-7-7-7-7-7-7-7-|-7-7-7-7-7-7-7-------------------------|
|-3-3-3-3-3-3-3-3-4-4-4-4-4-4-4-4-|-5-5-5-5-5-5-5--8--8\7-7/10-10\-8-7/-8-|
|---------------------------------|---------------------------------------|

|---------------------------------|---------------------------------|
|---------------------------------|---------------------------------|
|-7-7-7-7-7-7-7-7-7-7-7-7-7-7-7-7-|-6-6-6-6-6-6-6-6-6-6-6-6-6-6-6-6-|
|-7-7-7-7-7-7-7-7-7-7-7-7-7-7-7-7-|-7-7-7-7-7-7-7-7-7-7-7-7-7-7-7-7-|
|-5-5-5-5-5-5-5-5-5-5-5-5-5-5-5-5-|-4-4-4-4-4-4-4-4-4-4-4-4-4-4-4-4-|
|---------------------------------|---------------------------------|

|---------------------------------|---------------------------------|
|---------------------------------|---------------------------------|
|-5-5-5-5-5-5-5-5-6-6-6-6-6-6-6-6-|---------------------------------|
|-5-5-5-5-5-5-5-5-7-7-7-7-7-7-7-7-|-0-0-0-0-0-0-0-0-0-0-0-0-0-0-0-0-|
|-3-3-3-3-3-3-3-3-4-4-4-4-4-4-4-4-|-0-0-0-0-0-0-0-0-0-0-0-0-0-0-0-0-|
|---------------------------------|-0-0-0-0-0-0-0-0-0-0-0-0-0-0-0-0-|

____________________________________________________________________________


Solo 1
Guitar 2
|-----------|
|-----18-20-|
|-/19-------|
|-----------|
|-----------|
|-----------|

Guitar 2
|------------------20---------20----------20---------|
|-20BU(22)-----------20BU(22)----20BU(22)---20BU(22)-|
|----------------------------------------------------|
|----------------------------------------------------|
|----------------------------------------------------|
|----------------------------------------------------|
|
|Guitar 1
|---------------------------------|
|---------------------------------|
|---------------------------------|
|-8-8-8-8-8-8-8-8-8-8-8-8-8-7-7-7-|
|-8-8-8-8-8-8-8-8-8-8-8-8-8-7-7-7-|
|-8-8-8-8-8-8-8-8-8-8-8-8-8-7-7-7-|

Guitar 2
                                            PH
|--------------------------------------------------------------|
|-22-20-20p18-18-18-18p17-17-17-17h18p17h18-18BU(20)(18)-17-18-|
|--------------------------------------------------------------|
|--------------------------------------------------------------|
|--------------------------------------------------------------|
|--------------------------------------------------------------|
|
|Guitar 1
|---------------------------------|
|---------------------------------|
|---------------------------------|
|-5-5-5-5-5-5-5-5-5-5-5-5---2-----|
|-5-5-5-5-5-5-5-5-5-5-5-5---2-----|
|-5-5-5-5-5-5-5-5-5-5-5-5-3-2-----|

Guitar 2
|----------------------------------|
|----------------------------------|
|-9-10-9-10---9-10-9-10/12\10-9-10-|
|----------------------------------|
|----------------------------------|
|----------------------------------|
|
|Guitar 1
|---------------------------------|
|---------------------------------|
|-7-7-7-7-7-7-7-7-7-7-7-7-7-7-7-7-|
|-7-7-7-7-7-7-7-7-7-7-7-7-7-7-7-7-|
|-5-5-5-5-5-5-5-5-5-5-5-5-5-5-5-5-|
|---------------------------------|

Guitar 2
               PH
|----------------------------------|
|----------------------------------|
|-14^-10----10-14^-10----10-14^-10-|
|--------12-----------12-----------|
|----------------------------------|
|----------------------------------|
|
|Guitar 1
|---------------------------------|
|---------------------------------|
|-5-5-5-5-5-5-5-5-5-5-5-5-5-5-5-5-|
|-5-5-5-5-5-5-5-5-5-5-5-5-5-5-5-5-|
|-3-3-3-3-3-3-3-3-3-3-3-3-3-3-3-3-|
|---------------------------------|

Guitar 2
                                  PH
|-------------------------------------------|
|----10------12------10------12-------------|
|----10------12------10------12---12^-10-12-|
|-12------12------12------12----------------|
|-------------------------------------------|
|-------------------------------------------|
|
|Guitar 1
|---------------------------------|
|---------------------------------|
|---------------------------------|
|-8-8-8-8-8-8-8-8-8-8-8-8-8-7-7-7-|
|-8-8-8-8-8-8-8-8-8-8-8-8-8-7-7-7-|
|-8-8-8-8-8-8-8-8-8-8-8-8-8-7-7-7-|

Guitar 2
                               PH
|----------------------------------------------------------------20------|
|-------------------------------------------------18-20-20BU(22)----(22)-|
|-------9-10-12-----------9-10-12-----------17-19------------------------|
|-10-12-------------10-12-------------17-19------------------------------|
|------------------------------------------------------------------------|
|------------------------------------------------------------------------|
|
|Guitar 1
|---------------------------------|
|---------------------------------|
|---------------------------------|
|-5-5-5-5-5-5-5-5-5-5-5-5---2-----|
|-5-5-5-5-5-5-5-5-5-5-5-5---2-----|
|-5-5-5-5-5-5-5-5-5-5-5-5-3-2-----|

Guitar 2
|-13p10------10-13p10------10-13p10------10-13p10------10-|
|------10--10--------10--10--------10--10--------10--10---|
|---------------------------------------------------------|
|--------12------------12------------12------------12-----|
|---------------------------------------------------------|
|---------------------------------------------------------|
|
|Guitar 1
|---------------------------------|
|---------------------------------|
|-7-7-7-7-7-7-7-7-7-7-7-7-7-7-7-7-|
|-7-7-7-7-7-7-7-7-7-7-7-7-7-7-7-7-|
|-5-5-5-5-5-5-5-5-5-5-5-5-5-5-5-5-|
|---------------------------------|

Guitar 2
                              T  T     T  T     T  T     T  T
|-12p10------10-12p10------10-15-15p10-13-13p10-12-12p10-13-13p10-|
|------10--10--------10--10---------------------------------------|
|-----------------------------------------------------------------|
|--------12------------12-----------------------------------------|
|-----------------------------------------------------------------|
|-----------------------------------------------------------------|
|
|Guitar 1
|---------------------------------|
|---------------------------------|
|-5-5-5-5-5-5-5-5-5-5-5-5-5-5-5-5-|
|-5-5-5-5-5-5-5-5-5-5-5-5-5-5-5-5-|
|-3-3-3-3-3-3-3-3-3-3-3-3-3-3-3-3-|
|---------------------------------|

Guitar 2
|-17^-13----13-17^-13----13-17^---|
|--------15-----------15----------|
|---------------------------------|
|---------------------------------|
|---------------------------------|
|---------------------------------|
|
|Guitar 1
|---------------------------------|
|---------------------------------|
|---------------------------------|
|-8-8-8-8-8-8-8-8-8-8-8-8-8-8-8-8-|
|-8-8-8-8-8-8-8-8-8-8-8-8-8-8-8-8-|
|-8-8-8-8-8-8-8-8-8-8-8-8-8-8-8-8-|

Guitar 2
|-17-18-20--18--17-18--17--15-17--15--13-15--13--12-|
|---------------------------------------------------|
|---------------------------------------------------|
|---------------------------------------------------|
|---------------------------------------------------|
|---------------------------------------------------|
|
|Guitar 1
|---------------------------------|
|---------------------------------|
|---------------------------------|
|-7-7-7-7-7-7-7-7-7-7-7-7-7-7-7-7-|
|-7-7-7-7-7-7-7-7-7-7-7-7-7-7-7-7-|
|-7-7-7-7-7-7-7-7-7-7-7-7-7-7-7-7-|

Guitar 2
|----------------------------------------------------------------|
|-3h5h6-5h6h8-6h8h10-8h10h11-10h11h13-11h13h15-13h15h17-15h17h18-|
|----------------------------------------------------------------|
|----------------------------------------------------------------|
|----------------------------------------------------------------|
|----------------------------------------------------------------|
|
|Guitar 1
|---------------------------------|
|---------------------------------|
|-7-7-7-7-7-7-7-7-7-7-7-7-7-7-7-7-|
|---------------------------------|
|-5-5-5-5-5-5-5-5-5-5-5-5-5-5-5-5-|
|---------------------------------|

____________________________________________________________________________

Pre-Breakdown
Guitar 1
|---------------------------------|---------------------------------|
|---------------------------------|---------------------------------|
|-7---9---10--12--14--17--19--19--|-7---9---10--12--14--17--19--19--|
|---0---0---0---0---0---0---0---0-|---0---0---0---0---0---0---0---0-|
|---------------------------------|---------------------------------|
|---------------------------------|---------------------------------|

|---------------------------------|---------------------------------|
|---------------------------------|---------------------------------|
|-7---9---10--12--14--17--19--19--|-7---9---10--12--14--17--19--19--|
|---0---0---0---0---0---0---0---0-|---0---0---0---0---0---0---0---0-|
|---------------------------------|---------------------------------|
|---------------------------------|---------------------------------|

Guitar 1
|---------------------------------|---------------------------------|
|---------------------------------|---------------------------------|
|-7---9---10--12--14--17--19--19--|-7---9---10--12--14--17--19--19--|
|---0---0---0---0---0---0---0---0-|---0---0---0---0---0---0---0---0-|
|---------------------------------|---------------------------------|
|---------------------------------|---------------------------------|

Guitar 2
|---------------------------------|---------------------------------|
|---------------------------------|---------------------------------|
|-10--12--14--15--17--20--22--22--|-10--12--14--15--17--20--22--22--|
|---0---0---0---0---0---0---0---0-|---0---0---0---0---0---0---0---0-|
|---------------------------------|---------------------------------|
|---------------------------------|---------------------------------|

Guitar 1
|---------------------------------|---------------------------------|
|---------------------------------|---------------------------------|
|-7---9---10--12--14--17--19--19--|-7---9---10--12--14--17--19--19--|
|---0---0---0---0---0---0---0---0-|---0---0---0---0---0---0---0---0-|
|---------------------------------|---------------------------------|
|---------------------------------|---------------------------------|

Guitar 2
|---------------------------------|---------------------------------|
|---------------------------------|---------------------------------|
|-10--12--14--15--17--20--22--22--|-10--12--14--15--17--20--22--22--|
|---0---0---0---0---0---0---0---0-|---0---0---0---0---0---0---0---0-|
|---------------------------------|---------------------------------|
|---------------------------------|---------------------------------|

____________________________________________________________________________

Breakdown
Both guitars
|-------------------------|-------------------------|-------------------------|
|-------------------------|-------------------------|-------------------------|
|-------------------------|-------------------------|-------------------------|
|-3-----------------------|-2-----------------------|-1-----------------------|
|-3-----------------------|-2-----------------------|-1-----------------------|
|-3-------0-0-0---0-0-0---|-2-------0-0-0---0-0-0---|-1-------0-0-0---0-0-0---|

      NH--|       NH---|
|-----------------------|
|-----------------------|
|---------7-------7-----|
|-----7---------------7-|
|-6-----------6---------|
|-6-----------6---------|

|-------------------------|-------------------------|-------------------------|
|-------------------------|-------------------------|-------------------------|
|-------------------------|-------------------------|-------------------------|
|-3-----------------------|-2-----------------------|-1-----------------------|
|-3-----------------------|-2-----------------------|-1-----------------------|
|-3-------0-0-0---0-0-0---|-2-------0-0-0---0-0-0---|-1-------0-0-0---0-0-0---|

|-----------------------|
|-----------------------|
|-----------------------|
|-----------------------|
|-6---5---3---6---5---3-|
|-6---5---3---6---5---3-|

____________________________________________________________________________


(Guitar 1 plays the first harmony part alone then guitar 2 kicks in)

Repeat Chorus x2

____________________________________________________________________________


Outro
Guitar 1 (Repeat until fade out)
|-----------------|-----------------|-----------------|-----------------|
|-----------------|-----------------|-----------------|-----------------|
|-----------------|-----------------|-----------------|-----------------|
|-7---------------|-7---------------|-5-------7-------|-7---------------|
|-5---------------|-4---------------|-3-------4-------|-5---------------|
|-----------------|-----------------|-----------------|-----------------|

Guitar 2
|-----------------|-----------------|-----------------|-----------------|
|-----------------|-----------------|-----------------|-----------------|
|-----------------|-----------------|-----------------|-----------------|
|-0---------------|-(0)-------------|-(0)-------------|-(0)-------------|
|-0---------------|-(0)-------------|-(0)-------------|-(0)-------------|
|-0---------------|-(0)-------------|-(0)-------------|-(0)-------------|

Please Rate :)


##################################################################################################
#PEARLS BEFORE THE SWINE##########################################################################
##################################################################################################

Guitar 1:        Robb Flynn
Guitar 2:        Phil Demmel

Tabbing Legend
Hammer on:          h
Pull off:           p
Slide up:           /
Slide down:         \
Natural Harmonic:   NH
Whammy Bar:         WB
Bend:               BU(?)
Pinch Harmonic:     PH

____________________________________________________________________________


Intro/Verse 1
Both guitars
|---------------|-------------------------------------------------|
|---------------|-------------------------------------------------|
|---------------|-7-----------------------------------------------|
|---------------|-------------------------------------------------|
|---------------|-5-----------------------------------------------|
|-0-7-6-5-6-5-3-|-----------------------------------0-7-6-5-6-5-3-|

|-------------------------------------------------|
|-------------------------------------------------|
|-6----------------------10-----------------------|
|-------------------------------------------------|
|-4-----------------------8-----------------------|
|-----------------------------------0-7-6-5-6-5-3-|

|-------------------------------------------------|
|-------------------------------------------------|
|-7-----------------------------------------------|
|-------------------------------------------------|
|-5-----------------------------------------------|
|-----------------------------------0-7-6-5-6-5-3-|

|-------------------------------------------------|
|-------------------------------------------------|
|-3-----------------------6-----------------------|
|-------------------------------------------------|
|-1-----------------------4-----------------------|
|-----------------------------------0-7-6-5-6-5-3-|

Guitar 1
|-------------------------------------------------|
|-------------------------------------------------|
|-7-----------------------------------------------|
|-------------------------------------------------|
|-5-----------------------------------------------|
|-----------------------------------0-7-6-5-6-5-3-|
|
|Guitar 2
|-------------------------------------------------|
|-------------------------------------------------|
|-10----------------------------------------------|
|-------------------------------------------------|
|--8----------------------------------------------|
|-----------------------------------0-7-6-5-6-5-3-|

Guitar 1
|-------------------------------------------------|
|-------------------------------------------------|
|-6----------------------10-----------------------|
|-------------------------------------------------|
|-4-----------------------8-----------------------|
|-----------------------------------0-7-6-5-6-5-3-|
|
|Guitar 2
|-------------------------------------------------|
|-------------------------------------------------|
|-9----------------------14-----------------------|
|-------------------------------------------------|
|-7----------------------12-----------------------|
|-----------------------------------0-7-6-5-6-5-3-|

Guitar 1
|-------------------------------------------------|
|-------------------------------------------------|
|-7-----------------------------------------------|
|-------------------------------------------------|
|-5-----------------------------------------------|
|-----------------------------------0-7-6-5-6-5-3-|
|
|Guitar 2
|-------------------------------------------------|
|-------------------------------------------------|
|-10----------------------------------------------|
|-------------------------------------------------|
|--8----------------------------------------------|
|-----------------------------------0-7-6-5-6-5-3-|

Guitar 1
|-------------------------------------------------|
|-------------------------------------------------|
|-3-----------------------6-----------------------|
|-------------------------------------------------|
|-1-----------------------4-----------------------|
|-----------------------------------0-7-6-5-6-5-3-|
|
|
|-------------------------------------------------|
|-------------------------------------------------|
|-7----------------------10-----------------------|
|-------------------------------------------------|
|-5-----------------------8-----------------------|
|-----------------------------------0-7-6-5-6-5-3-|

____________________________________________________________________________


Verse 2
Both guitars
|-------------------------------------------------|
|-------------------------------------------------|
|-------------------------------------------------|
|-------------------------------------------------|
|-------5---5-------5---5-------5---5-------5---5-|
|-0-2-3---0---0-2-3---0---0-2-3---0---0-2-3---0---|

|-------------------------------------------------|
|-------------------------------------------------|
|-------------------------------------------------|
|-------------------------------3---3-------2---2-|
|-------4---4-------4---4-------------------------|
|-0-2-3---0---0-2-3---0---0-2-3---0---0-2-3---0---|

|-------------------------------------------------|
|-------------------------------------------------|
|-------------------------------------------------|
|-------------------------------------------------|
|-------5---5-------5---5-------5---5-------5---5-|
|-0-2-3---0---0-2-3---0---0-2-3---0---0-2-3---0---|

|-------------------------------------------------|
|-------------------------------------------------|
|-------------------------------------------------|
|-------------------------------------------------|
|-------1---1-------1---1-------4---4-------4---4-|
|-0-2-3---0---0-2-3---0---0-2-3---0---0-2-3---0---|

____________________________________________________________________________


Verse 3
Both guitars
|-------------------------------------------------|
|-------------------------------------------------|
|-------------------------------------3p2-2-3p2-2-|
|-------------------------------------------------|
|-2-2---2---2-5-----------2-2---2---2-------------|
|-2-2---2---2-5-----------2-2---2---2-------------|

|-------------------------------------------------|
|-------------------------------------------------|
|------------10\9-9-9-9-9-9\8-8-8-8-8-5-5-5-8-8-8-|
|-------------------------------------------------|
|-2-2---2---2-8\7-7-7-7-7-7\6-6-6-6-6-3-3-3-6-6-6-|
|-2-2---2---2-------------------------------------|

|-------------------------------------------------|
|-------------------------------------------------|
|-------------------------------------3p2-2-3p2-2-|
|-------------------------------------------------|
|-2-2---2---2-5-----------2-2---2---2-------------|
|-2-2---2---2-5-----------2-2---2---2-------------|

|-------------------------------------------------|
|-------------------------------------------------|
|------------10\9-9-9-9-9-9\8-8-8-8-8---------5-8-|
|-----------------------------------------4-7-----|
|-2-2---2---2-8\7-7-7-7-7-7\6-6-6-6-6-3-6---------|
|-2-2---2---2-------------------------------------|

____________________________________________________________________________


Verse 4
Both guitars
|-------------------------------------------------|
|-------------------------------------------------|
|-------------------------------------------------|
|-------------------3-----------------------5-----|
|-0-0---0---0-4-5-7---7-5-0-0---0---0-5-7-8---8-7-|
|-0-0---0---0-------------0-0---0---0-------------|

|---------------------------------------------------------------|
|---------------------------------------------------------------|
|---------------------------------------------------------------|
|-------------------3------------7------5-7-8-7-8-7-5-7-5-------|
|-0-0---0---0-4-5-7---7-5-7-8-10---10-8-------------------8-7-4-|
|-0-0---0---0---------------------------------------------------|

Guitar 1
|-------------------------------------------------|
|-------------------------------------------------|
|-------------------------------------------------|
|-------------------3-----------------------5-----|
|-0-0---0---0-4-5-7---7-5-0-0---0---0-5-7-8---8-7-|
|-0-0---0---0-------------0-0---0---0-------------|
|
|Guitar 2
|-------------------------------------------------------|
|-------------------------------------------------------|
|-------------------------------------------------------|
|--------------------7--------------------------8-------|
|-0-0---0---0-7-8-10---10-8-0-0---0---0-8-10-12---12-10-|
|-0-0---0---0---------------0-0---0---0-----------------|

Guitar 1
|---------------------------------------------------------------|
|---------------------------------------------------------------|
|---------------------------------------------------------------|
|-------------------3------------7------5-7-8-7-8-7-5-7-5-------|
|-0-0---0---0-4-5-7---7-5-7-8-10---10-8-------------------8-7-4-|
|-0-0---0---0---------------------------------------------------|
|
|Guitar 2
|-----------------------------------------------------------------------------|
|-----------------------------------------------------------------------------|
|-----------------------------------------------------------------------------|
|--------------------7---------------10-------8-10-12-10-12-10-8-10-8---------|
|-0-0---0---0-7-8-10---10-8-10-12-13----13-12-------------------------12-10-7-|
|-0-0---0---0-----------------------------------------------------------------|

____________________________________________________________________________


Chorus 1
Both guitars
|---------------------------------------------------|
|---------------------------------------------------|
|---------------------------------------------------|
|---------------------------------------------------|
|-------8---8-------7---7-------10---10-------8---8-|
|-8-8-8-8-8-8-8-8-8-8-8-8-8-8-8--8-8-8--8-8-8-8-8-8-|

|-------------------------------------------------|
|-------------------------------------------------|
|-------------------------------------------------|
|-------------------------------------------------|
|-------7---7-------5---5-------8---8-------7---7-|
|-7-7-7-7-7-7-7-7-7-7-7-7-7-7-7-7-7-7-7-7-7-7-7-7-|

|---------------------------------------------------|
|---------------------------------------------------|
|---------------------------------------------------|
|---------------------------------------------------|
|-------8---8-------7---7-------10---10-------8---8-|
|-8-8-8-8-8-8-8-8-8-8-8-8-8-8-8--8-8-8--8-8-8-8-8-8-|

|-------------------------|-------------------------------------------------|
|-------------------------|-------------------------------------------------|
|-------------------------|-------------------------------------------------|
|-------------------------|-5NH---------5NH---------5NH---------------------|
|-------7---7-------5---5-|-------------------------------------------------|
|-7-7-7-7-7-7-7-7-7-7-7-7-|---0-2-3-2-0---0-2-3-2-0---0-2-3-2-0-7-6-5-6-5-3-|

____________________________________________________________________________


Repeat Verse 1


Repeat Verse 2
(But this time guitar 2 plays a harmony)
|-------------------------------------------------|
|-------------------------------------------------|
|-------------------------------------------------|
|-------3---3-------3---3-------3---3-------3---3-|
|-------------------------------------------------|
|-0-2-3---0---0-2-3---0---0-2-3---0---0-2-3---0---|

|-------------------------------------------------|
|-------------------------------------------------|
|-------------------------------2---2-------------|
|-------2---2-------2---2-------------------5---5-|
|-------------------------------------------------|
|-0-2-3---0---0-2-3---0---0-2-3---0---0-2-3---0---|

|-------------------------------------------------|
|-------------------------------------------------|
|-------------------------------------------------|
|-------3---3-------3---3-------3---3-------3---3-|
|-------------------------------------------------|
|-0-2-3---0---0-2-3---0---0-2-3---0---0-2-3---0---|

|-------------------------------------------------|
|-------------------------------------------------|
|-------------------------------------------------|
|-------------------------------3---3-------2---2-|
|-------5---5-------5---5-------------------------|
|-0-2-3---0---0-2-3---0---0-2-3---0---0-2-3---0---|

____________________________________________________________________________


Repeat Verse 3
(But this time there is a small harmony right at the end)
|-------------------------------------|---------------|
|-------------------------------------|---------------|
|------------10\9-9-9-9-9-9\8-8-8-8-8-|----------8-11-|
|-------------------------------------|-----7-10------|
|-2-2---2---2-8\7-7-7-7-7-7\6-6-6-6-6-|-6-9-----------|
|-2-2---2---2-------------------------|---------------|

____________________________________________________________________________


Repeat Chorus 1

____________________________________________________________________________


Soothing Verse
(This verse is clean and I think they use)
(A chorus flange to get the effect)
Guitar 1
|-10-----------------------13-----12-----10------------|
|-10--------------------------------------------13-----|
|-10---------------------------------------------------|
|-12---------------------------------------------------|
|------------------------------------------------------|
|------------------------------------------------------|

|-6-------------------8---------------------------------|
|-6-------------------------10--------------------------|
|-7-------------------------10-------------------12-----|
|-8-------------------------12--------------------------|
|---------------------------12--------------------------|
|-------------------------------------------------------|

|---------------------------9-----------------------|
|-10-----------------------10-----------------------|
|-10------------------------9-----------------------|
|-12-----------------------11-----------------------|
|-12-----------------------12-----------------------|
|---------------------------------------------------|

Guitar 1
|---------------------------------------------8-----|
|--------------------------------8-----10-----------|
|-7-----------9-----------10------------------------|
|---------------------------------------------------|
|---------------------------------------------------|
|---------------------------------------------------|
|
|Guitar 2
|---------------------------------------8-----------|
|-------------8------------10-----------------------|
|-10------------------------------------------------|
|---------------------------------------------------|
|---------------------------------------------------|
|---------------------------------------------------|

Guitar 1 repeats what it played before
Whilst guitar 2 plays the below

Guitar 2
|-10\-----------------------------------12-----13-----|
|-----------------------------------------------------|
|-----------------------------------------------------|
|-----------------------------------------------------|
|-----------------------------------------------------|
|-----------------------------------------------------|

|-15-----------------17-----13----------12-----10-----|
|-----------------------------------------------------|
|-----------------------------------------------------|
|-----------------------------------------------------|
|-----------------------------------------------------|
|-----------------------------------------------------|

|-13-----------15-----------17----------20\-----------|
|-15-----------17-----------18----------22\-----------|
|-----------------------------------------------------|
|-----------------------------------------------------|
|-----------------------------------------------------|
|-----------------------------------------------------|

Both guitars (Distorted)
|-------------------------------------------------|
|-------------------------------------------------|
|-------------------------------------------------|
|-------------------------------------------------|
|---8---8---8---7---7---7---5---5---5---3---3---3-|
|-0-----------0-----------0-----------0-----------|

____________________________________________________________________________


Broken Vows verse
(Rusted hopeless dreams)
Guitar 1
|-------------------------------------------------------------|
|-------------------------------------------------------------|
|-10-10-10-10-10-10-10-10-10-14-14-14-12-12-12-10-10-10-9-9-9-|
|-------------------------------------------------------------|
|--8--8--8--8--8--8--8--8--8-12-12-12-10-10-10--8--8--8-7-7-7-|
|-------------------------------------------------------------|
|
|Guitar 2
|-10-10-10-10-10-10-10-10-10-10-10-10-13-13-13-12-12-12-10-10-10----------|
|----------------------------------------------------------------13-13-13-|
|--7--7--7--7--7--7--7--7--7--7--7--7-10-10-10--9--9--9--7--7--7----------|
|----------------------------------------------------------------10-10-10-|
|-------------------------------------------------------------------------|
|-------------------------------------------------------------------------|

Guitar 1
|-------------------------------------------------|
|-------------------------------------------------|
|-7-7-7-7-7-7-7-7-7-9-9-9-5-5-5-5-5-5-3-3-3-2-2-2-|
|-------------------------------------------------|
|-5-5-5-5-5-5-5-5-5-7-7-7-3-3-3-3-3-3-1-1-1-0-0-0-|
|-------------------------------------------------|
|
|Guitar 2
|-------------------------------------------------------------------|
|-11-11-11-11-11-11-11-11-11-13-13-13-10-10-10-10-10-10-8-8-8-6-6-6-|
|-------------------------------------------------------------------|
|--8--8--8--8--8--8--8--8--8-10-10-10--7--7--7--7--7--7-5-5-5-3-3-3-|
|-------------------------------------------------------------------|
|-------------------------------------------------------------------|

Guitar 1
|-------------------------------------------------------|
|-------------------------------------------------------|
|-10-10-10-10-10-10-7-7-7-7-7-7-9-9-9-9-9-9-5-5-5-5-5-5-|
|-------------------------------------------------------|
|--8--8--8--8--8--8-5-5-5-5-5-5-7-7-7-7-7-7-3-3-3-3-3-3-|
|-------------------------------------------------------|
|
|Guitar 2
|-------------------------------------------------------|
|-10-10-10-10-10-10-6-6-6-6-6-6-8-8-8-8-8-8-5-5-5-5-5-5-|
|-------------------------------------------------------|
|--7--7--7--7--7--7-3-3-3-3-3-3-5-5-5-5-5-5-2-2-2-2-2-2-|
|-------------------------------------------------------|
|-------------------------------------------------------|

Guitar 1
|-------------------------------------------------|
|-------------------------------------------------|
|-------------------------------------------------|
|-------------------------------------------------|
|---8---8---8---7---7---7---5---5---5---3---3---3-|
|-0-----------0-----------0-----------0-----------|
|
|Guitar 2
|-------------------------------------------------------|
|-------------------------------------------------------|
|-------------------------------------------------------|
|-------------------------------------------------------|
|---12---12---12---10---10---10---8---8---8---7---7---7-|
|-0--------------0--------------0-----------0-----------|

(Rusted hands in prayer)
Guitar 1
|-------------------------------------------------------------|
|-------------------------------------------------------------|
|-10-10-10-10-10-10-10-10-10-14-14-14-12-12-12-10-10-10-9-9-9-|
|-------------------------------------------------------------|
|--8--8--8--8--8--8--8--8--8-12-12-12-10-10-10--8--8--8-7-7-7-|
|-------------------------------------------------------------|
|
|Guitar 2
|-10-10-10-10-10-10-10-10-10-10-10-10-13-13-13-12-12-12-10-10-10----------|
|----------------------------------------------------------------13-13-13-|
|--7--7--7--7--7--7--7--7--7--7--7--7-10-10-10--9--9--9--7--7--7----------|
|----------------------------------------------------------------10-10-10-|
|-------------------------------------------------------------------------|
|-------------------------------------------------------------------------|

Guitar 1
|-------------------------------------------------|
|-------------------------------------------------|
|-7-7-7-7-7-7-7-7-7-9-9-9-5-5-5-5-5-5-3-3-3-2-2-2-|
|-------------------------------------------------|
|-5-5-5-5-5-5-5-5-5-7-7-7-3-3-3-3-3-3-1-1-1-0-0-0-|
|-------------------------------------------------|
|
|Guitar 2
|-------------------------------------------------------------------|
|-11-11-11-11-11-11-11-11-11-13-13-13-10-10-10-10-10-10-8-8-8-6-6-6-|
|-------------------------------------------------------------------|
|--8--8--8--8--8--8--8--8--8-10-10-10--7--7--7--7--7--7-5-5-5-3-3-3-|
|-------------------------------------------------------------------|
|-------------------------------------------------------------------|

Guitar 1
|-------------------------------------------------------------|
|-------------------------------------------------------------|
|-10-10-10-10-10-10-7-7-7-7-7-7-9-9-9-9-9-9-12-12-12-12-12-12-|
|-------------------------------------------------------------|
|--8--8--8--8--8--8-5-5-5-5-5-5-7-7-7-7-7-7-10-10-10-10-10-10-|
|-------------------------------------------------------------|
|
|Guitar 2
|-------------------------------------------------------------|
|-10-10-10-10-10-10-6-6-6-6-6-6-8-8-8-8-8-8-11-11-11-11-11-11-|
|-------------------------------------------------------------|
|--7--7--7--7--7--7-3-3-3-3-3-3-5-5-5-5-5-5--8--8--8--8--8--8-|
|-------------------------------------------------------------|
|-------------------------------------------------------------|

Guitar 1
|-------------------------------------------------|
|-------------------------------------------------|
|-------------------------------------------------|
|-------------------------------------------------|
|---8---8---8---7---7---7---5---5---5---3---3---3-|
|-0-----------0-----------0-----------0-----------|
|
|Guitar 2
|-------------------------------------------------------|
|-------------------------------------------------------|
|-------------------------------------------------------|
|-------------------------------------------------------|
|---12---12---12---10---10---10---8---8---8---7---7---7-|
|-0--------------0--------------0-----------0-----------|

(In these killing fields)
Guitar 1
|-------------------------------------------------------------------------|
|-------------------------------------------------------------------------|
|-10-10-10-10-10-10-10-10-10-10-10-10-12-12-12-12-12-12-12-12-12-12-12-12-|
|-------------------------------------------------------------------------|
|--8--8--8--8--8--8--8--8--8--8--8--8-10-10-10-10-10-10-10-10-10-10-10-10-|
|-------------------------------------------------------------------------|
|
|Guitar 2
|-13-----------------------12-----13-----15-----12-----|
|------------------------------------------------------|
|-10------------------------9-----10-----12------9-----|
|------------------------------------------------------|
|------------------------------------------------------|
|------------------------------------------------------|

Guitar 1
|-------------------------------------------------------------------------|
|-------------------------------------------------------------------------|
|-14-14-14-14-14-14-14-14-14-15-15-15-12-12-12-12-12-12-14-14-14-14-14-14-|
|-------------------------------------------------------------------------|
|-12-12-12-12-12-12-12-12-12-13-13-13-10-10-10-10-10-10-12-12-12-12-12-12-|
|-------------------------------------------------------------------------|
|
|Guitar 2
|-13-----------10-----------12-----------8-----------|
|----------------------------------------------------|
|-10------------7------------9-----------5-----------|
|----------------------------------------------------|
|----------------------------------------------------|
|----------------------------------------------------|

Guitar 1
|-------------------------------------------------------|
|-------------------------------------------------------|
|-10-10-10-10-10-10-7-7-7-7-7-7-9-9-9-9-9-9-5-5-5-5-5-5-|
|-------------------------------------------------------|
|--8--8--8--8--8--8-5-5-5-5-5-5-7-7-7-7-7-7-3-3-3-3-3-3-|
|-------------------------------------------------------|
|
|Guitar 2
|-6-----------13-----------12-----------8-----------|
|---------------------------------------------------|
|-3-----------10------------9-----------5-----------|
|---------------------------------------------------|
|---------------------------------------------------|
|---------------------------------------------------|

Guitar 1
|-------------------------------------------------|
|-------------------------------------------------|
|-------------------------------------------------|
|-------------------------------------------------|
|---8---8---8---7---7---7---5---5---5---3---3---3-|
|-0-----------0-----------0-----------0-----------|
|
|Guitar 2
|----------------------------------------------------------|
|----------------------------------------------------------|
|----------------------------------------------------------|
|----------------------------------------------------------|
|---8---8---8---10---10---10---12---12---12---15---15---15-|
|-0-----------0--------------0--------------0--------------|

Guitar 1
|-------------------------------------------------|
|-------------------------------------------------|
|-------------------------------------------------|
|-------------------------------------------------|
|---8---8---8---7---7---7---5---5---5---3---3---3-|
|-0-----------0-----------0-----------0-----------|
|
|Guitar 2
|-------------------------------------------------------------|
|-------------------------------------------------------------|
|-------------------------------------------------------------|
|-------------------------------------------------------------|
|---12---12---12---15---15---15---17---17---17---19---19---19-|
|-0--------------0--------------0--------------0--------------|

____________________________________________________________________________


Break
Guitar 1
|---------|
|---------|
|---------|
|-0-------|
|-0-------|
|-0-------|

Guitar 2
|--------------------|
|-10-----------------|
|------10------------|
|-----------12-------|
|--------------------|
|--------------------|

____________________________________________________________________________


Bridge
Both guitars
|------------------------------------------------------------------------|
|------------------------------------------------------------------------|
|------------------------------------------------------------------------|
|------------------------------------------------------------------------|
|-----------------------13p12---------12p10---------10p8---------7-/-8---|
|-0-0-0-0-12p10-0-0-0-0-------0-0-0-0-------0-0-0-0------0-0-0-0---------|

|----------------------------------------------------------------------|
|----------------------------------------------------------------------|
|----------------------------------------------------------------------|
|----------------------------------------------------------------------|
|-----------------------12p10---------10p8---------7-/-8-------7-\-5---|
|-0-0-0-0-12p10-0-0-0-0-------0-0-0-0------0-0-0-0---------8-----------|

|------------------------------------------------------------------------|
|------------------------------------------------------------------------|
|------------------------------------------------------------------------|
|------------------------------------------------------------------------|
|-----------------------13p12---------12p10---------10p8---------7-/-8---|
|-0-0-0-0-12p10-0-0-0-0-------0-0-0-0-------0-0-0-0------0-0-0-0---------|

|----------------------------------------------------------------------|
|----------------------------------------------------------------------|
|----------------------------------------------------------------------|
|----------------------------------------------------------------------|
|-----------------------12p10---------7--------------------------------|
|-0-0-0-0-12p10-0-0-0-0-------0-0-0-0-8--------------------------------|

____________________________________________________________________________


Chorus 2
Both guitars
|------------------------------------------------------------------|
|------------------------------------------------------------------|
|------------------------------------------------------------------|
|------------------------------------------------------------------|
|-8---------------7---------------10---------------8---------------|
|-8-8-8-8-8-8-8-8-8-8-8-8-8-8-8-8--8-8-8-8-8-8-8-8-8-8-8-8-8-8-8-8-|

|-----------------------------------------------------------------|
|-----------------------------------------------------------------|
|-----------------------------------------------------------------|
|-----------------------------------------------------------------|
|-7---------------5---------------8---------------7---------------|
|-7-7-7-7-7-7-7-7-7-7-7-7-7-7-7-7-7-7-7-7-7-7-7-7-7-7-7-7-7-7-7-7-|

|------------------------------------------------------------------|
|------------------------------------------------------------------|
|------------------------------------------------------------------|
|------------------------------------------------------------------|
|-8---------------7---------------10---------------8---------------|
|-8-8-8-8-8-8-8-8-8-8-8-8-8-8-8-8--8-8-8-8-8-8-8-8-8-8-8-8-8-8-8-8-|

|---------------------------------|
|---------------------------------|
|---------------------------------|
|---------------------------------|
|-7---------------5---------------|
|-7-7-7-7-7-7-7-7-7-7-7-7-7-7-7-7-|

Guitar 1
|-----------------------------------------------------------------|
|-----------------------------------------------------------------|
|-----------------------------------------------------------------|
|-----------------------------------------------------------------|
|-----------------------------------------------------------------|
|-0-0-0-0-3-------0-0-0-0-5-------0-0-0-0-6-------0-0-0-0-7-------|
|
|Guitar 2 (Wah-wah pedal)
|-----------------------------------------------------------------|
|-----------------------------------------------------------------|
|-----------------------------------------------------------------|
|---------3---------------5---------------6---------------7p5-----|
|-------------------------------------------------------------8---|
|-----------------------------------------------------------------|

____________________________________________________________________________


Repeat Bridge


Repeat Chorus

____________________________________________________________________________


Solo
Guitar 1 (Rhythm)
|-----------------------------------------------------------------|
|-----------------------------------------------------------------|
|-----------------------------------------------------------------|
|-----------------------------------------------------------------|
|-5---------------3---------------8---------------6---------------|
|-----0-0-0-0-0-0-----0-0-0-0-0-0-----0-0-0-0-0-0-----0-0-0-0-0-0-|

|-----------------------------------------------------------------|
|-----------------------------------------------------------------|
|-----------------------------------------------------------------|
|-----------------------------------------------------------------|
|-5---------------3---------------8---------------6---------------|
|-----0-0-0-0-0-0-----0-0-0-0-0-0-----0-0-0-0-0-0-----0-0-0-0-0-0-|

|-----------------------------------------------------------------|
|-----------------------------------------------------------------|
|-----------------------------------------------------------------|
|---------------------------------3---------------2---------------|
|-5---1-1-1-1-1-1-3---1-1-1-1-1-1-----1-1-1-1-1-1-----1-1-1-1-1-1-|
|-----------------------------------------------------------------|

|-----------------------------------------------------------------|
|-----------------------------------------------------------------|
|-----------------------------------------------------------------|
|---------------------------------5---------------3---------------|
|-5---3-3-3-3-3-3-3---3-3-3-3-3-3-----3-3-3-3-3-3-----3-3-3-3-3-3-|
|-----------------------------------------------------------------|

Guitar 2 (Lead)
(With Wah-Wah pedal)
|-----------------------------------------------------------------|
|-----------------------------------------------------------------|
|-5PH-DB----------------------------------------------------------|
|-----------------------------------------------------------------|
|-----------------------------------------------------------------|
|-----------------------------------------------------------------|

|-10WB------------12WB------------13WB------------15BU(17)--------|
|-----------------------------------------------------------------|
|-----------------------------------------------------------------|
|-----------------------------------------------------------------|
|-----------------------------------------------------------------|
|-----------------------------------------------------------------|

|-----------------------------------------------------------------|
|------------------8----------------------------------------------|
|-7-----9-----10---------10-----9---10-----9-----7h9p7------------|
|--------------------------------------------------------10-------|
|-----------------------------------------------------------------|
|-----------------------------------------------------------------|

|-------------------------------------------------------------------------------------20-22-|
|----------------------------------------------------------------------------18-20-22-------|
|-7h9p7h9-9h10p9h10-10h12p10h12-12h14p12h14-14h15p14h15-17h19p17h17-17-19-21----------------|
|-------------------------------------------------------------------------------------------|
|-------------------------------------------------------------------------------------------|
|-------------------------------------------------------------------------------------------|

|-24-----BU-----(25)-(24)-22----------------|
|--------------------------------------22---|
|-------------------------------------------|
|-------------------------------------------|
|-------------------------------------------|
|-------------------------------------------|

|-24-----BU-----(25)-(24)-20BU(22)(20)-18-17-------|
|--------------------------------------------18----|
|-----------------------------------------------19-|
|--------------------------------------------------|
|--------------------------------------------------|
|--------------------------------------------------|

|-18BU(20)(18)p17-18-------20BU(22)(20)p18-20------|
|--------------------------------------------------|
|--------------------------------------------------|
|--------------------------------------------------|
|--------------------------------------------------|
|--------------------------------------------------|

|-------10-13p10--------------------------13-12-10-12-13-------|
|-----10--------10---15-13-11-13-15----------------------------|
|---10------------10-------------------------------------------|
|-12-----------------------------------------------------------|
|--------------------------------------------------------------|
|--------------------------------------------------------------|

|-15-13-12----------12-13-15p13p12/13-17p15p13h15-17BU(18)-----|
|----------15-13-15--------------------------------------------|
|--------------------------------------------------------------|
|--------------------------------------------------------------|
|--------------------------------------------------------------|
|--------------------------------------------------------------|

____________________________________________________________________________


Final Verse
Both guitars
|--------------------------------------------|
|--------------------------------------------|
|--------------------------------------------|
|--------------------------------------------|
|---------8---------------7---------------10-|
|-8-8-8-8-8-------8-8-8-8-8-------8-8-8-8--8-|

|-------------------------------------------|
|-------------------------------------------|
|-------------------------------------------|
|-------------------------------------------|
|---------7---------------5---------------8-|
|-7-7-7-7-7-------7-7-7-7-7-------7-7-7-7-7-|

|--------------------------------------------|
|--------------------------------------------|
|--------------------------------------------|
|--------------------------------------------|
|---------8---------------7---------------10-|
|-8-8-8-8-8-------8-8-8-8-8-------8-8-8-8--8-|

|-------------------------------------------|
|-------------------------------------------|
|---------------------------------7h10p7h10-|
|-------------------------6h9p6h9-----------|
|---------7-------5h8p5h8-------------------|
|-7-7-7-7-7---------------------------------|

____________________________________________________________________________


Breakdown
Both guitars
|---------------------------------------------------|
|---------------------------------------------------|
|---------------------------------7h10p7h10---------|
|-------------------------6h9p6h9-----------6h9p6h9-|
|-0-0-0-0-0-0-0-0-5h8p5h8---------------------------|
|-0-0-0-0-0-0-0-0-----------------------------------|

|-----------------------------------------------------------|
|-----------------------------------------------------------|
|-------------------------------------10h13p10h13-----------|
|---------------------------9h12p9h12-------------9h12p9h12-|
|-0--0--0-0--0--0-8h11p8h11---------------------------------|
|-0--0--0-0--0--0-------------------------------------------|

|---------------------------------------------------|
|---------------------------------------------------|
|---------------------------------7h10p7h10---------|
|-------------------------6h9p6h9-----------6h9p6h9-|
|-0-0-0---0-0-0---5h8p5h8---------------------------|
|-0-0-0---0-0-0-------------------------------------|

|---------------------------------|
|---------------------------------|
|---------------------------------|
|---------------------------------|
|-(12)-----Harmonic-slide-----(5)-|
|-0-0-0-0-0-0-0-0-0-0-0-0-0-0-0-0-|

Guitar 1
|-----------------------------------|
|-----------------------------------|
|-7h10p7h10-------------------------|
|-----------6h9p6h9---------6h9p6h9-|
|-------------------5h8p5h8---------|
|-----------------------------------|
|
|Guitar 2
|-------------------------------------------|
|-------------------------------------------|
|---------------------10h13p10h13-----------|
|-----------9h12p9h12-------------9h12p9h12-|
|-8h11p8h11---------------------------------|
|-------------------------------------------|

Guitar 1
|-------------------------------------------|
|-------------------------------------------|
|-10h13p10h13-------------------------------|
|-------------9h12p9h12-----------9h12p9h12-|
|-----------------------8h11p8h11-----------|
|-------------------------------------------|
|
|Guitar 2
|-------------------------------------------------|
|-------------------------------------------------|
|-------------------------13h16p13h16-------------|
|-------------12h15p12h15-------------12h15p12h15-|
|-11h14p11h14-------------------------------------|
|-------------------------------------------------|

|---------------------------------------------------|
|---------------------------------------------------|
|---------------------------------7h10p7h10---------|
|-------------------------6h9p6h9-----------6h9p6h9-|
|-0-0-0-0-0-0-0-0-5h8p5h8---------------------------|
|-0-0-0-0-0-0-0-0-----------------------------------|

Guitar 1
|---------------------------------------------|
|---------------------------------------------|
|-----------------13---10---------------------|
|---------------------------12---9------------|
|-0--0--0-0--0--0--------------------11---8---|
|-0--0--0-0--0--0-----------------------------|
|
|Guitar 2
|-------------------------------------------|
|-------------------------------------------|
|----------------------------------7---10---|
|--------------------------6---9------------|
|-0--0--0-0--0--0-5---8---------------------|
|-0--0--0-0--0--0---------------------------|

|---------------------------------------------------|
|---------------------------------------------------|
|---------------------------------7h10p7h10---------|
|-------------------------6h9p6h9-----------6h9p6h9-|
|-0-0-0---0-0-0---5h8p5h8---------------------------|
|-0-0-0---0-0-0-------------------------------------|

|---------------------------------|
|---------------------------------|
|---------------------------------|
|---------------------------------|
|-(12)-----Harmonic-slide-----(5)-|
|-0-0-0-0-0-0-0-0-0-0-0-0-0-0-0-0-|

Guitar 1
|-----------------------------------|
|-----------------------------------|
|-7h10p7h10-------------------------|
|-----------6h9p6h9---------6h9p6h9-|
|-------------------5h8p5h8---------|
|-----------------------------------|
|
|Guitar 2
|-------------------------------------------|
|-------------------------------------------|
|---------------------10h13p10h13-----------|
|-----------9h12p9h12-------------9h12p9h12-|
|-8h11p8h11---------------------------------|
|-------------------------------------------|

Guitar 1
|-------------------------------------------|
|-------------------------------------------|
|-10h13p10h13-------------------------------|
|-------------9h12p9h12-----------9h12p9h12-|
|-----------------------8h11p8h11-----------|
|-------------------------------------------|
|
|Guitar 2
|-------------------------------------------------|
|-------------------------------------------------|
|-------------------------13h16p13h16-------------|
|-------------12h15p12h15-------------12h15p12h15-|
|-11h14p11h14-------------------------------------|
|-------------------------------------------------|

That's all guys, please rate :)


##################################################################################################
#WHO WE ARE#######################################################################################
##################################################################################################

Acoustic Guitar: Robb Flynn
Guitar 1:        Robb Flynn
Guitar 2:        Phil Demmel

Tabbing Legend
Hammer on:          h
Pull off:           p
Slide up:           /
Slide down:         \
Pinch Harmonic:     PH
Bend:               BU(?)
Whammy Bar Rise:    WBR
Whammy Bar Lower:   WBL
Tremelo Pick:       Tr---
Trill:              tr

____________________________________________________________________________


Intro
Acoustic Guitar
|-0---------------|-1---------------|-0---------------|-3---------------|
|-1---------------|-1---------------|-1---------------|-0---------------|
|-2---------------|-2---------------|-0---------------|-0---------------|
|-2---------------|-3---------------|-2---------------|-0---------------|
|-0---------------|-3---------------|-3---------------|-2---------------|
|-----------------|-1---------------|-----------------|-3---------------|

|-0---------------|-1---------------|-0---------------|-7---------------|
|-1---------------|-1---------------|-1---------------|-7---------------|
|-2---------------|-2---------------|-0---------------|-8---------------|
|-2---------------|-3---------------|-2---------------|-9---------------|
|-0---------------|-3---------------|-3---------------|-9---------------|
|-----------------|-1---------------|-----------------|-7---------------|

____________________________________________________________________________


Verse 1
Guitar 1
|-------------------------------------------------|
|-------------------------------------------------|
|-------------------------------------------------|
|-7-----------------------------------------------|
|-7-----------------------------------------------|
|-5-----------------------------------------------|

|-------------------------------------------------|
|-------------------------------------------------|
|-------------------------------------------------|
|-------------------------8-8-8-8-8-8-8-8-8-8-8-8-|
|-------------------------8-8-8-8-8-8-8-8-8-8-8-8-|
|-------------------------6-6-6-6-6-6-6-6-6-6-6-6-|

|-------------------------------------------------|
|-------------------------------------------------|
|-------------------------------------------------|
|-7-----------------------------------------------|
|-7-----------------------------------------------|
|-5-----------------------------------------------|

|-------------------------------------------------|
|-------------------------------------------------|
|-------------------------------------------------|
|-------------------------3-3-3-3-3-3-3-3-3-3-3-3-|
|-------------------------3-3-3-3-3-3-3-3-3-3-3-3-|
|-------------------------1-1-1-1-1-1-1-1-1-1-1-1-|

Guitar 1
|-------------------------------------------------|
|-------------------------------------------------|
|-------------------------------------------------|
|-7-----------------------------------------------|
|-5-----------------------------------------------|
|-5-----------------------------------------------|
|
Guitar 2
|---------------------------------------------------|
|---------------------------------------------------|
|---------------------------------------------------|
|---------------------------------------------8p7h8-|
|-0-0-0-7p5h7-0-0-0-10p8h10-0-0-0-7p5h7-0-0-0-------|
|---------------------------------------------------|

Guitar 1
|-------------------------------------------------|
|-------------------------------------------------|
|-------------------------------------------------|
|-------------------------8-8-8-8-8-8-8-8-8-8-8-8-|
|-------------------------8-8-8-8-8-8-8-8-8-8-8-8-|
|-------------------------6-6-6-6-6-6-6-6-6-6-6-6-|
|
|Guitar 2
|---------------------------------------------------|
|---------------------------------------------------|
|---------------------------------------------------|
|-------------------------------------5-----------5-|
|-0-0-0-7p5h7-0-0-0-10p8h10-0-3-5-6-7---0-3-5-6-7---|
|---------------------------------------------------|

Guitar 1
|---------------------------------------------------|
|---------------------------------------------------|
|-17-----------------------16-----------------------|
|---------------------------------------------------|
|-15-----------------------14-----------------------|
|---------------------------------------------------|
|
Guitar 2
|---------------------------------------------------|
|---------------------------------------------------|
|---------------------------------------------------|
|---------------------------------------------8p7h8-|
|-0-0-0-7p5h7-0-0-0-10p8h10-0-0-0-7p5h7-0-0-0-------|
|---------------------------------------------------|

Guitar 1
|---------------------------------------------------|
|---------------------------------------------------|
|-14-----------------------12-----------------------|
|---------------------------------------------------|
|-12-----------------------10-----------------------|
|---------------------------------------------------|
|
|Guitar 2
|---------------------------------------------------|
|---------------------------------------------------|
|---------------------------------------------------|
|-------------------------------------5-----------5-|
|-0-0-0-7p5h7-0-0-0-10p8h10-0-3-5-6-7---0-3-5-6-7---|
|---------------------------------------------------|

Both guitars
|-------|
|-------|
|-------|
|-2-----|
|-2-----|
|-0-----|

Break

Both guitars
|---------------------------------------------------|
|---------------------------------------------------|
|---------------------------------------------------|
|---------------------------------------------8p7h8-|
|-------7p5h7-------10p8h10-------7p5h7-------------|
|-0-0-0-------0-0-0---------0-0-0-------0-0-0-------|

|---------------------------------------------------|
|---------------------------------------------------|
|---------------------------------------------------|
|---------------------------------------------------|
|-------7p5h7-------10p8h10-----------5-----------5-|
|-0-0-0-------0-0-0---------0-3-5-6-7---0-3-5-6-7---|

|---------------------------------------------------|
|---------------------------------------------------|
|---------------------------------------------------|
|---------------------------------------------8p7h8-|
|-------7p5h7-------10p8h10-------7p5h7-------------|
|-0-0-0-------0-0-0---------0-0-0-------0-0-0-------|

|---------------------------------------------------|
|---------------------------------------------------|
|---------------------------------------------------|
|---------------------------------------------------|
|-------7p5h7-------10p8h10-----------5-----------5-|
|-0-0-0-------0-0-0---------0-3-5-6-7---0-3-5-6-7---|

|-------------------------|-------------------------|
|-------------------------|-------------------------|
|-------------------------|-------------------------|
|-7-7-7-7-----7-----7-7-7-|-7-----7-----8-8-8-8-8-8-|
|-7-7-7-7-----7-----7-7-7-|-7-----7-----8-8-8-8-8-8-|
|-5-5-5-5-----5-----5-5-5-|-5-----5-----6-6-6-6-6-6-|

____________________________________________________________________________


Verse 2
Both guitars
||---------------------------------------------------|
|o---------------------------------------------------|
||---------------------------------------------------|
||---------------------------------------------8p7h8-|
|o-------7p5h7-------10p8h10-------7p5h7-------------|
||-0-0-0-------0-0-0---------0-0-0-------0-0-0-------|

|---------------------------------------------------||
|---------------------------------------------------o|
|---------------------------------------------------||
|---------------------------------------------------||
|-------7p5h7-------10p8h10-----------5-----------5-o|
|-0-0-0-------0-0-0---------0-3-5-6-7---0-3-5-6-7---||

Both guitars
|---------------------------------------------------|
|---------------------------------------------------|
|---------------------------------------------8p7h8-|
|-------7p5h7-------10p8h10-------7p5h7-------------|
|-0-0-0-------0-0-0---------0-0-0-------0-0-0-------|
|---------------------------------------------------|

|---------------------------------------------------|
|---------------------------------------------------|
|---------------------------------------------------|
|-------7p5h7-------10p8h10-----------5-----------5-|
|-0-0-0-------0-0-0---------0-3-5-6-7---0-3-5-6-7---|
|---------------------------------------------------|

Both guitars
|---------------------------------------------------|
|---------------------------------------------------|
|---------------------------------------------------|
|---------------------------------------------8p7h8-|
|-------7p5h7-------10p8h10-------7p5h7-------------|
|-0-0-0-------0-0-0---------0-0-0-------0-0-0-------|

|---------------------------------------------------|
|---------------------------------------------------|
|---------------------------------------------------|
|---------------------------------------------------|
|-------7p5h7-------10p8h10-----------5-----------5-|
|-0-0-0-------0-0-0---------0-3-5-6-7---0-3-5-6-7---|

Guitar 1
|-------------------------|
|-------------------------|
|-9-9-9-9-9-9-9-9-9-9-9-9-|
|-------------------------|
|-7-7-7-7-7-7-7-7-7-7-7-7-|
|-------------------------|

____________________________________________________________________________


Chorus
|-------------------------|-------------------------|
|-------------------------|-------------------------|
|-------------------------|-------------------------|
|-7-----------------------|-3-----------------------|
|-7-----------------------|-3-----------------------|
|-5-----------------------|-1-----------------------|

|-------------------------|-------------------------|
|-------------------------|-------------------------|
|-5-----------------------|-------------------------|
|-5-----------------------|-5-----------------2-----|
|-3-----------------------|-5-----------------2-----|
|-------------------------|-3-----------------0-----|

|-------------------------|-------------------------|
|-------------------------|-------------------------|
|-------------------------|-------------------------|
|-7-----------------------|-3-----------------------|
|-7-----------------------|-3-----------------------|
|-5-----------------------|-1-----------------------|


|-------------------------|-------------------------|
|-------------------------|-------------------------|
|-5-----------------------|-------------------------|
|-5-----------------------|-2-----------------------|
|-3-----------------------|-2-----------------------|
|-------------------------|-0-----------------------|

|-------------------------|-------------------------|
|-------------------------|-------------------------|
|-------------------------|-------------------------|
|-7-----------------------|-3-----------------------|
|-7-----------------------|-3-----------------------|
|-5-----------------------|-1-----------------------|


|-------------------------|-------------------------|
|-------------------------|-------------------------|
|-5-----------------------|-------------------------|
|-5-----------------------|-5-----------------------|
|-3-----------------------|-5-----------------------|
|-------------------------|-3-----------------------|

|-------------------------|-------------------------|
|-------------------------|-------------------------|
|-------------------------|-------------------------|
|-3-----------------------|-------------------------|
|-3-----------------------|-------------------------|
|-1-----------------------|-------------------------|

|-------------------------|-------------------------|
|-------------------------|-------------------------|
|-------------------------|-------------------------|
|-------------------------|-------------------------|
|-5h7-7-7-7-7-5h7-7-7-7-7-|-5h7-7-7-7-7-5h7-7-7-7-7-|
|-------------------------|-------------------------|

____________________________________________________________________________


Verse 3
Both guitars
|-------------------------|-------------------------|
|-------------------------|-------------------------|
|-9-9-9-9-----9-----9-9-9-|-9-----9-----9-9-9-9-9-9-|
|-9-9-9-9-----9-----9-9-9-|-9-----9-----9-9-9-9-9-9-|
|-7-7-7-7-----7-----7-7-7-|-7-----7-----7-7-7-7-7-7-|
|-------------------------|-------------------------|

____________________________________________________________________________


Repeat Verse 2 from the 3rd to 7th box

Repeat Chorus

____________________________________________________________________________


Verse 4
Both guitars
|--------------------------------------------------------|
|--------------------------------------------------------|
|-9-10-7-9----7------------------------------------------|
|----------10---9-10-7-9----7----------------------------|
|------------------------10---8-10-7-8----7--------------|
|--------------------------------------10---8-10-7-8-5-7-|

____________________________________________________________________________


Verse 5
Guitar 1
|-------------------------------------|-------------------------|
|-------------------------------------|-------------------------|
|-10-10-10-10-10-10-10-10-10-10-10-10-|-9-9-9-9-9-9-9-9-9-9-9-9-|
|-------------------------------------|-------------------------|
|--8--8--8--8--8--8--8--8--8--8--8--8-|-7-7-7-7-7-7-7-7-7-7-7-7-|
|-------------------------------------|-------------------------|
|
|Guitar 2
|-------------------------|-------------------------|
|-------------------------|-------------------------|
|-------------------------|-5-----------------------|
|-3-----------------------|-5-----------------------|
|-3-----------------------|-3-----------------------|
|-1-----------------------|-------------------------|

Both guitars
|-------------------------|-------------------------|
|-------------------------|-------------------------|
|-------------------------|-------------------------|
|-------------------------|-------------------------|
|-3h5-5-5-5-5-3h5-5-5-5-5-|-3h5-5-5-5-5-3h5-5-5-5-5-|
|-------------------------|-------------------------|

Guitar 1
|-------------------------------------|-------------------------|
|-------------------------------------|-------------------------|
|-10-10-10-10-10-10-10-10-10-10-10-10-|-9-9-9-9-9-9-9-9-9-9-9-9-|
|-------------------------------------|-------------------------|
|--8--8--8--8--8--8--8--8--8--8--8--8-|-7-7-7-7-7-7-7-7-7-7-7-7-|
|-------------------------------------|-------------------------|
|
|Guitar 2
|-------------------------|-------------------------|
|-------------------------|-------------------------|
|-------------------------|-5-----------------------|
|-3-----------------------|-5-----------------------|
|-3-----------------------|-3-----------------------|
|-1-----------------------|-------------------------|

Both guitars
|-------------------------|----------------------------|
|-------------------------|----------------------------|
|-3-----------5-----------|-7------------12---10---9---|
|-3-----------5-----------|-7--------------------------|
|-1-----------3-----------|-5------------10----8---7---|
|-------------------------|----------------------------|

Guitar 1
|-------------------------------------|-------------------------|
|-------------------------------------|-------------------------|
|-10-10-10-10-10-10-10-10-10-10-10-10-|-9-9-9-9-9-9-9-9-9-9-9-9-|
|-------------------------------------|-------------------------|
|--8--8--8--8--8--8--8--8--8--8--8--8-|-7-7-7-7-7-7-7-7-7-7-7-7-|
|-------------------------------------|-------------------------|
|
|Guitar 2
|-------------------------|-------------------------|
|-------------------------|-------------------------|
|-------------------------|-5-----------------------|
|-3-----------------------|-5-----------------------|
|-3-----------------------|-3-----------------------|
|-1-----------------------|-------------------------|

Both guitars
|-------------------------|-------------------------|
|-------------------------|-------------------------|
|-------------------------|-------------------------|
|-------------------------|-------------------------|
|-3h5-5-5-5-5-3h5-5-5-5-5-|-3h5-5-5-5-5-3h5-5-5-5-5-|
|-------------------------|-------------------------|

Guitar 1
|-------------------------------------------------------------------------|
|-------------------------------------------------------------------------|
|-12-12-12-12-12-12-12-12-12-12-12-12-12-12-12-12-12-12-10-10-10-12-12-12-|
|-------------------------------------------------------------------------|
|-10-10-10-10-10-10-10-10-10-10-10-10-10-10-10-10-10-10--8--8--8-10-10-10-|
|-------------------------------------------------------------------------|
|
|Guitar 2
|-------------------------------------------------|
|-------------------------------------------------|
|-------------------------------------------------|
|-5-----------------------------------------------|
|-5-----------------------------------------------|
|-3-----------------------------------------------|

Guitar 1
|-------------------------------------------------------------------------|
|-------------------------------------------------------------------------|
|-14-14-14-14-14-14-14-14-14-14-14-14-18-18-18-18-18-18-18-18-18-18-18-18-|
|-------------------------------------------------------------------------|
|-12-12-12-12-12-12-12-12-12-12-12-12-14-14-14-14-14-14-14-14-14-14-14-14-|
|-------------------------------------------------------------------------|
|
|Guitar 2
|-------------------------------------------------|
|-------------------------------------------------|
|-------------------------------------------------|
|-7-----------------------------------------------|
|-7-----------------------------------------------|
|-5-----------------------------------------------|

____________________________________________________________________________


Breakdown
Guitar 1
|-------------------------|-------------------------|
|-------------------------|-------------------------|
|-------------------------|-------------------------|
|-7-7-7-7-7-7-7-----------|-------------------------|
|-5-5-5-5-5-5-5-----------|-------------------------|
|-------------------------|-------------------------|
|
|Guitar 2
|-------------------------|--------------------------|
|-------------------------|--------------------------|
|-------------------------|--------------------------|
|-7-7-7-7-7-7-7-0-2-3-0-3-|-5-0-5-7-0-7-8-0-8-10-0-0-|
|-5-5-5-5-5-5-5-----------|--------------------------|
|-------------------------|--------------------------|

Guitar 1
|-------------------------|-------------------------|
|-------------------------|-------------------------|
|-------------------------|-------------------------|
|-7-7-7-7-7-7-7-----------|-------------------------|
|-5-5-5-5-5-5-5-----------|-------------------------|
|-------------------------|-------------------------|
|
|Guitar 2
|----------------------------|-----------------------------|
|----------------------------|-----------------------------|
|----------------------------|-----------------------------|
|-7-7-7-7-7-7-7-0-14-15-0-12-|-14-0-10-12-0-8-10-0-7-8-0-0-|
|-5-5-5-5-5-5-5--------------|-----------------------------|
|----------------------------|-----------------------------|

Guitar 1
|-------------------------|-------------------------|
|-------------------------|-------------------------|
|-------------------------|-------------------------|
|-5-5-5-5-5-5-5-----------|-------------------------|
|-3-3-3-3-3-3-3-----------|-------------------------|
|-------------------------|-------------------------|
|
|Guitar 2
|-------------------------|--------------------------|
|-------------------------|--------------------------|
|-------------------------|--------------------------|
|-5-5-5-5-5-5-5-0-2-3-0-3-|-5-0-5-7-0-7-8-0-8-10-0-0-|
|-3-3-3-3-3-3-3-----------|--------------------------|
|-------------------------|--------------------------|

Guitar 1
|----------------------------|----------------------------------|
|----------------------------|----------------------------------|
|----------------------------|----------------15p14\12-14p12----|
|-3-3-3-3-3-3-3-0-17-19-0-15-|-17-0-14-15-0-0----------------15-|
|-1-1-1-1-1-1-1--------------|----------------------------------|
|----------------------------|----------------------------------|
|
|Guitar 2
|----------------------------|--------------------------------|
|----------------------------|--------------------------------|
|----------------------------|----------------12p10\9-10p9----|
|-3-3-3-3-3-3-3-0-14-15-0-12-|-14-0-10-12-0-0--------------12-|
|-1-1-1-1-1-1-1--------------|--------------------------------|
|----------------------------|--------------------------------|

____________________________________________________________________________


Solo 1
Guitar 2 (Rhythm)
|-------------------------|-------------------------|
|-------------------------|-------------------------|
|-------------------------|-5-----------------------|
|-3-----------------------|-5-----------------------|
|-3-----------------------|-3-----------------------|
|-1-----------------------|-------------------------|

|-------------------------|-------------------------|
|-------------------------|-------------------------|
|-------------------------|-------------------------|
|-------------------------|-------------------------|
|-3h5-5-5-5-5-3h5-5-5-5-5-|-3h5-5-5-5-5-3h5-5-5-5-5-|
|-------------------------|-------------------------|

|-------------------------|-------------------------|
|-------------------------|-------------------------|
|-------------------------|-5-----------------------|
|-3-----------------------|-5-----------------------|
|-3-----------------------|-3-----------------------|
|-1-----------------------|-------------------------|

|-------------------------|----------------------------|
|-------------------------|----------------------------|
|-3-----------5-----------|-7------------12---10---9---|
|-3-----------5-----------|-7--------------------------|
|-1-----------3-----------|-5------------10----8---7---|
|-------------------------|----------------------------|

|-------------------------|-------------------------|
|-------------------------|-------------------------|
|-------------------------|-5-----------------------|
|-3-----------------------|-5-----------------------|
|-3-----------------------|-3-----------------------|
|-1-----------------------|-------------------------|

|-------------------------|-------------------------|
|-------------------------|-------------------------|
|-------------------------|-------------------------|
|-------------------------|-------------------------|
|-3h5-5-5-5-5-3h5-5-5-5-5-|-3h5-5-5-5-5-3h5-5-5-5-5-|
|-------------------------|-------------------------|

|-------------------------------------------------|
|-------------------------------------------------|
|-------------------------------------------------|
|-5-----------------------------------------------|
|-5-----------------------------------------------|
|-3-----------------------------------------------|

|-------------------------------------------------|
|-------------------------------------------------|
|-------------------------------------------------|
|-7-----------------------------------------------|
|-7-----------------------------------------------|
|-5-----------------------------------------------|

Guitar 1 (Lead)
|------------------------------20-----17---20---|
|-20BU(22)-----20BU(22)(20)-18------------------|
|-----------------------------------------------|
|-----------------------------------------------|
|-----------------------------------------------|
|-----------------------------------------------|

|-20BU(22)-(20)-17------17h18p17-15h17p15-------------------|
|-----------------------------------------18-17-15----------|
|--------------------------------------------------17-15-14-|
|-----------------------------------------------------------|
|-----------------------------------------------------------|
|-----------------------------------------------------------|

|-17p13------13-17p13--18p13---15p12------12-15p12--17p12---|
|------13--13--------13-----13------13--13--------13-----13-|
|--------14---------------------------12--------------------|
|-----------------------------------------------------------|
|-----------------------------------------------------------|
|-----------------------------------------------------------|

|-12tr13-10tr12-8tr10----------------------------------|
|---------------------11tr13-10tr11-8tr10--------------|
|-----------------------------------------10tr12-9tr10-|
|------------------------------------------------------|
|------------------------------------------------------|
|------------------------------------------------------|

|--------------------------------------12BU(13)-|
|--------------------------13-------10----------|
|-12BU(14)---(14PH)(12)p10----------------------|
|-----------------------------------------------|
|-----------------------------------------------|
|-----------------------------------------------|

|-(12)(13)(12)(13)------------12h13p12p10h12p10-------------|
|-----------------------------------------------13-13BU(15)-|
|-----------------------------------------------------------|
|-----------------------------------------------------------|
|-----------------------------------------------------------|
|-----------------------------------------------------------|

|-10tr12-12tr13-13tr15-12tr13-13tr15-15tr17-17tr18-15tr17-|
|---------------------------------------------------------|
|---------------------------------------------------------|
|---------------------------------------------------------|
|---------------------------------------------------------|
|---------------------------------------------------------|

|-17tr18-18tr20-20tr22-22BU(24)-----(22)(24)(22)(24)(22)(24)-----|
|----------------------------------------------------------------|
|----------------------------------------------------------------|
|----------------------------------------------------------------|
|----------------------------------------------------------------|
|----------------------------------------------------------------|

____________________________________________________________________________


Solo 2
Guitar 1 (Rhythm)
||-------------------------------------------------|
|o-------------------------------------------------|
||-------------------------------------------------|
||-------------------------------------------------|
|o-0-0-0-0-0-0-0-0-0-3p1h3-0-0-0-0-0-0-0-0-0-6p5h6-|
||-------------------------------------------------|

|-------------------------------------------------||
|-------------------------------------------------o|
|-------------------------------------------------||
|-------------------------------------------------||
|-0-0-0-0-0-0-0-0-0-3p1h3-0-0-0-6p5h6-0-0-0-3p1h3-o|
|-------------------------------------------------||

|-------------------------------------------------|
|-------------------------------------------------|
|-9-------5-------7-------4-------5-------2-------|
|-9-------5-------7-------4-------5-------2-------|
|-7-------3-------5-------2-------3-------0-------|
|-------------------------------------------------|

|-------------------------------------------------|
|-------------------------------------------------|
|-------------------------------------------------|
|-------------------------------------------------|
|-0p2-2-2-2-2-0p2-2-2-2-2-0p2-2-2-2-2-0p2-2-2-2-2-|
|-------------------------------------------------|

Guitar 2 (Lead)
|-Floyd Rose Bar drop>>>>>>>>>>>>>>>>>>>>---------|
|-10h13p10h13p10h13p10h13p10h13p10h13p10----------|
|----------------------------------------12BU(14)-|
|-------------------------------------------------|
|-------------------------------------------------|
|-------------------------------------------------|

          Tr-------------------
|-------------------------------------------------|
|-------------------------------------------------|
|-7---7-7-7--BU(8)---(9)-----(9)(7)p5-------------|
|------------------------------------7p5----------|
|----------------------------------------7p6------|
|-------------------------------------------------|

|----------------------------------------------------------|
|-WBL-WBR-20p17----WBL-WBR-20p17----20p17--20p17--20BU(22)-|
|--------------h19--------------h19------19-----19---------|
|----------------------------------------------------------|
|----------------------------------------------------------|
|----------------------------------------------------------|

|-22p17-20p17----17-22p17-20p17----17-22p17-20p17----17----------|
|-------------20----------------20----------------20----20BU(22)-|
|----------------------------------------------------------------|
|----------------------------------------------------------------|
|----------------------------------------------------------------|
|----------------------------------------------------------------|

|------------------------------------15-14-12------------------------------|
|-15BU(17)---(17)(15)p12-15BU(17)-------------15-13-12---------------------|
|------------------------------------------------------14-12----14BU(16)---|
|------------------------------------------------------------14------------|
|--------------------------------------------------------------------------|
|--------------------------------------------------------------------------|

  Tr----------------------------------
|--------------------------------------|
|--------------------------------------|
|-2---BU---(3)---(4)-----------(4)-----|
|--------------------------------------|
|--------------------------------------|
|--------------------------------------|

|-------------------------------------|
|-------------------------------------|
|----------16----------------16-------|
|-16-17-19----19-17-16-17-19----19-17-|
|-------------------------------------|
|-------------------------------------|

|----------------------------17-19-20-|
|-------------------17-19-20----------|
|----------16-17-19-------------------|
|-16-17-19----------------------------|
|-------------------------------------|
|-------------------------------------|

Guitar 1
|-19-20-17-19----17-------------------------------------------------------|
|-------------20----19-20-17-19----17-------------------------------------|
|-------------------------------19----17-19-16-17----16-------------------|
|-------------------------------------------------19----17-19-16-17----16-|
|-------------------------------------------------------------------19----|
|-------------------------------------------------------------------------|
|
|Guitar 2
|-22-24-20-22----20-------------------------------------------------------|
|-------------24----22-24-20-22----20-------------------------------------|
|-------------------------------23----21-23-19-21----19-------------------|
|-------------------------------------------------22----21-22-19-21----19-|
|-------------------------------------------------------------------22----|
|-------------------------------------------------------------------------|

____________________________________________________________________________


Verse 6
Guitar 2 plays the below whilst guitar 1 plays a series of octaves
Guitar 2
|---------------------------------------------------|
|---------------------------------------------------|
|---------------------------------------------------|
|---------------------------------------------8p7h8-|
|-------7p5h7-------10p8h10-------7p5h7-------------|
|-0-0-0-------0-0-0---------0-0-0-------0-0-0-------|

|---------------------------------------------------|
|---------------------------------------------------|
|---------------------------------------------------|
|---------------------------------------------------|
|-------7p5h7-------10p8h10-----------5-----------5-|
|-0-0-0-------0-0-0---------0-3-5-6-7---0-3-5-6-7---|

Guitar 1
|-------------------------------------------------------------------------|
|-------------------------------------------------------------------------|
|-------------------------------------12-12-12-12-12-12-10-10-10-10-10-10-|
|-2-----------------------------------------------------------------------|
|-2-----------------------------------10-10-10-10-10-10--8--8--8--8--8--8-|
|-0-----------------------------------------------------------------------|

|-------------------------------------------------------------------------|
|-------------------------------------------------------------------------|
|-------------------------------------12-12-12-12-12-12-10-10-10-10-10-10-|
|-2-----------------------------------------------------------------------|
|-2-----------------------------------10-10-10-10-10-10--8--8--8--8--8--8-|
|-0-----------------------------------------------------------------------|

|-------------------------------------------------|
|-------------------------------------------------|
|-12-12-12-12-12-12-12-12-12-12-12-12-15-15-14-14-|
|-------------------------------------------------|
|-10-10-10-10-10-10-10-10-10-10-10-10-13-13-12-12-|
|-------------------------------------------------|

|-------------------------------------------------|
|-------------------------------------------------|
|-15-15-15-15-15-15-15-15-15-15-15-15-15-15-15-15-|
|-------------------------------------------------|
|-13-13-13-13-13-13-13-13-13-13-13-13-13-13-13-13-|
|-------------------------------------------------|

____________________________________________________________________________


Outro
Acoustic Guitar                                         Both guitars
|-0---------------|-1---------------|-0---------------|-----------------|
|-1---------------|-1---------------|-1---------------|-----------------|
|-2---------------|-2---------------|-0---------------|-----------------|
|-2---------------|-3---------------|-2---------------|-5---------------|
|-0---------------|-3---------------|-3---------------|-5---------------|
|-----------------|-1---------------|-----------------|-3---------------|

Guitar 1
|-------------------------|-------------------------|
|-------------------------|-------------------------|
|-------------------------|-------------------------|
|-7-----------------------|-3-----------------------|
|-7-----------------------|-3-----------------------|
|-5-----------------------|-1-----------------------|
|
|Guitar 2
|-------------------------|-------------------------|
|-------------------------|------------------10-----|
|-------------------------|------------10-----------|
|-------------7-----------|------10-----------------|
|-------7-----------7-----|-8-----------------------|
|-5-----------------------|-------------------------|

Guitar 1
|-------------------------|-------------------------|
|-------------------------|-------------------------|
|-5-----------------------|-------------------------|
|-5-----------------------|-5-----------------------|
|-3-----------------------|-5-----------------------|
|-------------------------|-3-----------------------|
|
|Guitar 2
|-------------------------|-------------------------|
|-------------------------|-------------------------|
|-------------5-----------|-------------------4-----|
|-------5-----------5-----|-------------5-----------|
|-3-----------------------|-------5-----------------|
|-------------------------|-3-----------------------|

|-------------------------|-------------------------|
|-------------------------|-------------------------|
|-------------------------|-------------------------|
|-7-----------------------|-3-----------------------|
|-7-----------------------|-3-----------------------|
|-5-----------------------|-1-----------------------|
|
|Guitar 2
|-------------------------|-------------------------|
|-------------------------|------------------10-----|
|-------------------------|------------10-----------|
|-------------7-----------|------10-----------------|
|-------7-----------7-----|-8-----------------------|
|-5-----------------------|-------------------------|

Guitar 1
|-------------------------|-------------------------|
|-------------------------|-------------------------|
|-5-----------------------|-------------------------|
|-5-----------------------|--9----------------------|
|-3-----------------------|-10----------------------|
|-------------------------|--7----------------------|
|
|Guitar 2
|-------------------------|-------------------------|
|-------------------------|-------------------------|
|-------------5-----------|------------10-----9-----|
|-------5-----------5-----|-7----10-----------------|
|-3-----------------------|-------------------------|
|-------------------------|-------------------------|

Guitar 1
|-------------------------|-------------------------|
|-------------------------|-------------------------|
|-------------------------|-------------------------|
|-7-----------------------|-------------------------|
|-7-----------------------|-------------------------|
|-5-----------------------|-------------------------|

Guitar 2
|-------------------------|-------------------------|
|-------------------------|-------------------------|
|-5-----------------------|-------------------------|
|-------------------------|-------------------------|
|-------------------------|-------------------------|
|-------------------------|-------------------------|

That's all of the album guys, please rate :)
comments
print report bad tab
2 comments total.
+1 reply
svelle wrote on June 29 2012, 10:29 am

dude your like the tabbing-master... seriously!

+1 reply
slipknot836 wrote on June 29 2012, 11:51 am

Haha, thanks dude, that made me giggle for a while ;')

I've done a few other albums if you wanna check them out :D

I want to post or [tab]
guest
You may want to rate the tab now too:
select rating
Please do not post tabs as comments. Select "correction" instead!