Oops, an error
Loading. Please wait.

Bleeding From Within Tab

1,037 views 1 this week
no commentswrite comment
1 2 3 4 5
please rate
Autoscroll
+/-
esc
set tempo
stop
Contributor
Difficulty
advanced
WARNING: You are trying to view
                                    content from Ultimate-Guitar.com
                                    in an unauthorized application,
                                    which is prohibited.

                                    Please use an official Ultimate
                                    Guitar Tabs application for iPhone,
                                    iPad or Android to access legitimate
                                    chords, guitar, bass, and drum tabs
                                    from Ultimate-Guitar.com database.

                                    Type "ultimate guitar tabs" in Apple
                                    App Store's or Android Market's
                                    search to find the application.

        Artist : Machinemade God
          Song : Bleeding From Within
         Album : The Infinity Complex
  Copyright (c): (Metal Blade Recods) (2006)
        Tuning : C F A# D# G C


#######################
## h - hammer-on      #
## p - pull-off       #
## * - Squeal         #
## \ - slide down to  #
## / - slipe up to    #
## x - silenced       #
#######################



Intro

|-----------------------------------------------------------------------------------------------------|C
|-----------------------------------------------------------------------------------------------------|G
|-----------------------------------------------------------------------------------------------------|D#
|-(222)-(222)-(222)-(222)-(222)-(222)-(222)-(222)-(222)-(222)-(222)-(222)-----------------------------|A#
|-(222)-(222)-(222)-(222)-(222)-(222)-(222)-(222)-(222)-(222)-(222)-(222)-10---7---12-10-9------------|F
|-(000)-(000)-(000)-(000)-(000)-(000)-(000)-(000)-(000)-(000)-(000)-(000)---(0)-(0)--------10---------|C

|-----------------------------------------------------------------------------------------------------|C
|-----------------------------------------------------------------------------------------------------|G
|-----------------------------------------------------------------------------------------------------|D#
|-(222)-(222)-(222)-(222)-(222)-(222)-(222)-(222)-(222)-(222)-(222)-(222)-----------------------------|A#
|-(222)-(222)-(222)-(222)-(222)-(222)-(222)-(222)-(222)-(222)-(222)-(222)-5-3-2-----------------------|F
|-(000)-(000)-(000)-(000)-(000)-(000)-(000)-(000)-(000)-(000)-(000)-(000)-------3-5-3-2---------------|C

|-----------------------------------------------------------------------------------------------------|C
|-----------------------------------------------------------------------------------------------------|G
|-----------------------------------------------------------------------------------------------------|D#
|-(222)-(222)-(222)-(222)-(222)-(222)-(222)-(222)-(222)-(222)-(222)-(222)----------7h8p7--------------|A#
|-(222)-(222)-(222)-(222)-(222)-(222)-(222)-(222)-(222)-(222)-(222)-(222)-10---7---------10-9---------|F
|-(000)-(000)-(000)-(000)-(000)-(000)-(000)-(000)-(000)-(000)-(000)-(000)---(0)-(0)-------------------|C

|-----------------------------------------------------------------------------------------------------|C
|-----------------------------------------------------------------------------------------------------|G
|-----------------------------------------------------------------------------------------------------|D#
|-(222)-(222)-(222)-(222)-(222)-(222)-(222)-(222)-(222)-(222)-(222)-(222)-----------------------------|A#
|-(222)-(222)-(222)-(222)-(222)-(222)-(222)-(222)-(222)-(222)-(222)-(222)-5-3-2-----------------------|F
|-(000)-(000)-(000)-(000)-(000)-(000)-(000)-(000)-(000)-(000)-(000)-(000)-------3-5-0-*3--------------|C

|-----------------------------------------------------------------------------------------------------|C
|-----------------------------------------------------------------------------------------------------|G
|-----------------------------------------------------------------------------------------------------|D#
|-(222)-(222)-(222)-(222)-(222)-(222)-(222)-(222)-(222)-(222)-(222)-(222)-----------------------------|A#
|-(222)-(222)-(222)-(222)-(222)-(222)-(222)-(222)-(222)-(222)-(222)-(222)-10---7---12-10-9------------|F
|-(000)-(000)-(000)-(000)-(000)-(000)-(000)-(000)-(000)-(000)-(000)-(000)---(0)-(0)--------10---------|C

|-----------------------------------------------------------------------------------------------------|C
|-----------------------------------------------------------------------------------------------------|G
|-----------------------------------------------------------------------------------------------------|D#
|-(222)-(222)-(222)-(222)-(222)-(222)-(222)-(222)-(222)-(222)-(222)-(222)-----------------------------|A#
|-(222)-(222)-(222)-(222)-(222)-(222)-(222)-(222)-(222)-(222)-(222)-(222)-5-3-2-----------------------|F
|-(000)-(000)-(000)-(000)-(000)-(000)-(000)-(000)-(000)-(000)-(000)-(000)-------3-5-3-2---------------|C



Lead Guitar plays..

|-----------------------------------------------------------------------------------------------------|C
|-----------------------------------------------------------------------------------------------------|G
|-----------------------------------------------------------------------------------------------------|D#
|-------------------------------------------------------------------------9---------------------------|A#
|---------10-7-9-------------12-9-10-----10-9------------10-7-9---------------12-10-9-12-10-9---------|F
|-(0)-(0)--------(0)-(0)-(0)---------0-7------10-(0)-(0)--------(0)-(0)-(0)-------------------10------|C



Vers1



|-----------------------------------------------------------------------------------------------------|C
|-----------------------------------------------------------------------------------------------------|G
|-----------------------------------------------------------------------------------------------------|D#
|-------------------------------------------------------------------------9---------------------------|A#
|---------10-7-9-------------12-9-10-----10-9------------10-7-9---------------12-10-9-12-10-9---------|F
|-(0)-(0)--------(0)-(0)-(0)---------0-7------10-(0)-(0)--------(0)-(0)-(0)-------------------10------|C

|-----------------------------------------------------------------------------------------------------|C
|-----------------------------------------------------------------------------------------------------|G
|-----------------------------------------------------------------------------------------------------|D#
|-----------------------------------------------------------------------------------------------------|A#
|---------10-7-9-------------12-9-10-----10-9----------3-7-3------------5-9-5-------------------------|F
|-(0)-(0)--------(0)-(0)-(0)---------0-7-------(0)-(0)-------5--(0)-(0)-------5-5-5-5-5---------------|C


|-----------------------------------------------------------------------------------------------------|C
|-----------------------------------------------------------------------------------------------------|G
|-----------------------------------------------------------------------------------------------------|D#
|-----------------------------------------------------------------------------------------------------|A#
|-10-10--10--10-10--10--10-10---10--10-10----\5--5-5--5--5-5--10-10-9-=9------------------------------|F
|-7--7---7---7--7---7---7--7----7---7--7-----\3--3-3--3--3-3------------------------------------------|C


|-----------------------------------------------------------------------------------------------------|C
|-----------------------------------------------------------------------------------------------------|G
|-----------------------------------------------------------------------------------------------------|D#
|-------------------------------------------------------------------------9---------------------------|A#
|---------10-7-9-------------12-9-10-----10-9------------10-7-9---------------12-10-9-12-10-9---------|F
|-(0)-(0)--------(0)-(0)-(0)---------0-7------10-(0)-(0)--------(0)-(0)-(0)-------------------10------|C

|-----------------------------------------------------------------------------------------------------|C
|-----------------------------------------------------------------------------------------------------|G
|-----------------------------------------------------------------------------------------------------|D#
|-----------------------------------------------------------------------------------------------------|A#
|---------10-7-9-------------12-9-10-----10-9----------3-7-3------------5-9-5-------------------------|F
|-(0)-(0)--------(0)-(0)-(0)---------0-7-------(0)-(0)-------5--(0)-(0)-------5-5-5-5-5---------------|C

|-----------------------------------------------------------------------------------------------------|C
|-----------------------------------------------------------------------------------------------------|G
|-----------------------------------------------------------------------------------------------------|D#
|-------------------------------------------------------------------------9---------------------------|A#
|---------10-7-9-------------12-9-10-----10-9------------10-7-9---------------12-10-9-12-10-9---------|F
|-(0)-(0)--------(0)-(0)-(0)---------0-7------10-(0)-(0)--------(0)-(0)-(0)-------------------10------|C

|-----------------------------------------------------------------------------------------------------|C
|-----------------------------------------------------------------------------------------------------|G
|-----------------------------------------------------------------------------------------------------|D#
|-----------------------------------------------------------------------------------------------------|A#
|---------10-7-9-------------12-9-10-----10-9----------3-7-3------------5-9-5-------------------------|F
|-(0)-(0)--------(0)-(0)-(0)---------0-7-------(0)-(0)-------5--(0)-(0)-------5-5-5-5-5---------------|C


Chorus


|-------------------------------------------------------------------------------------------------------------------|C
|-------------------------------------------------------------------------------------------------------------------|G
|----------------------------------------------------------------------11-11-11\9--9-9-9\7--7-7-7\4--4-4-4/7--7-7---|D#
|-2-2--------4--5-5--(5)(5)-5--(5)(5)-5---5-(5)(5)--2-2--------4--5-5--x--x--x-\x--x-x-x\x--x-x-x\x--x-x-x/x--x-x---|A#
|-2-2-(2)(2)-2--3-3--(3)(3)-3--(3)(3)-3---2-(2)(2)--2-2-(2)(2)-2--3-3--9--9--9-\7--7-7-7\5--5-5-5\2--2-2-2/5--5-5---|F
|-0-0-(0)(0)----------------------------------------0-0-(0)(0)------------------------------------------------------|C



Moshpart



|------------------------------------------------------------------------------------------------------------------------------|C
|------------------------------------------------------------------------------------------------------------------------------|G
|------------------------------------------------------------------------------------------------------------------------------|D#
|------------------------------------------------------------------------------------------------------------------------------|A#
|-(2)--(2)-(2)-(2)-(2)-(2)-(2)-(2)-(2)---(2)--(2)-(2)-(2)-(2)-(2)-(2)-(2)-(2)---(2)--(2)-(2)-(2)-(2)-(2)-(2)-(2)-(2)-14-12-10-9|F
|-(0)--(0)-(0)-(0)-(0)-(0)-(0)-(0)-(0)---(0)--(0)-(0)-(0)-(0)-(0)-(0)-(0)-(0)---(0)--(0)-(0)-(0)-(0)-(0)-(0)-(0)-(0)-----------|C

|------------------------------------------------------------------------------------------------------------------------------|C
|------------------------------------------------------------------------------------------------------------------------------|G
|------------------------------------------------------------------------------------------------------------------------------|D#
|------------------------------------------------------------------------------------------------------------------------------|A#
|-(2)--(2)-(2)-(2)-(2)-(2)-(2)-(2)-(2)---(2)--(2)-(2)-(2)-(2)-(2)-(2)-(2)-(2)---(2)--(2)-(2)-(2)-(2)-(2)-(2)-(2)-(2)-14-12-10-9|F
|-(0)--(0)-(0)-(0)-(0)-(0)-(0)-(0)-(0)---(0)--(0)-(0)-(0)-(0)-(0)-(0)-(0)-(0)---(0)--(0)-(0)-(0)-(0)-(0)-(0)-(0)-(0)-----------|C



Chorus



|-------------------------------------------------------------------------------------------------------------------|C
|-------------------------------------------------------------------------------------------------------------------|G
|-------------------------------------------------------------------------------------------------------------------|D#
|------------4--5-5--(5)(5)-5--(5)(5)-5---5-(5)(5)------------------------------------------------------------------|A#
|---(2)--(2)-2--3-3--(3)(3)-3--(3)(3)-3---2-(2)(2)------------------------------------------------------------------|F
|---(0)--(0)--------------------------------------------------------------------------------------------------------|C

|-------------------------------------------------------------------------------------------------------------------|C
|-------------------------------------------------------------------------------------------------------------------|G
|----------------------------------------------------------------------11-11-11\9--9-9-9\7--7-7-7\4--4-4-4/7--7-7---|D#
|-2-2--------4--5-5--(5)(5)-5--(5)(5)-5---5-(5)(5)--2-2--------4--5-5--x--x--x-\x--x-x-x\x--x-x-x\x--x-x-x/x--x-x---|A#
|-2-2-(2)(2)-2--3-3--(3)(3)-3--(3)(3)-3---2-(2)(2)--2-2-(2)(2)-2--3-3--9--9--9-\7--7-7-7\5--5-5-5\2--2-2-2/5--5-5---|F
|-0-0-(0)(0)----------------------------------------0-0-(0)(0)------------------------------------------------------|C

|-------------------------------------------------------------------------------------------------------------------|C
|-------------------------------------------------------------------------------------------------------------------|G
|-------------------------------------------------------------------------------------------------------------------|D#
|------------4--5-5--(5)(5)-5--(5)(5)-5---5-(5)(5)------------------------------------------------------------------|A#
|---(2)--(2)-2--3-3--(3)(3)-3--(3)(3)-3---2-(2)(2)------------------------------------------------------------------|F
|---(0)--(0)--------------------------------------------------------------------------------------------------------|C

|-------------------------------------------------------------------------------------------------------------------|C
|-------------------------------------------------------------------------------------------------------------------|G
|----------------------------------------------------------------------11-11-11\9--9-9-9\7--7-7-7\4--4-4-4/7--7-7---|D#
|------------4--5-5--(5)(5)-5--(5)(5)-5---5-(5)(5)--2-2--------4--5-5--x--x--x-\x--x-x-x\x--x-x-x\x--x-x-x/x--x-x---|A#
|---(2)--(2)-2--3-3--(3)(3)-3--(3)(3)-3---2-(2)(2)--2-2-(2)(2)-2--3-3--9--9--9-\7--7-7-7\5--5-5-5\2--2-2-2/5--5-5---|F
|---(0)--(0)----------------------------------------0-0-(0)(0)------------------------------------------------------|C



Vers 2



|-----------------------------------------------------------------------------------------------------|C
|-----------------------------------------------------------------------------------------------------|G
|-----------------------------------------------------------------------------------------------------|D#
|-------------------------------------------------------------------------9---------------------------|A#
|---------10-7-9-------------12-9-10-----10-9------------10-7-9---------------12-10-9-12-10-9---------|F
|-(0)-(0)--------(0)-(0)-(0)---------0-7------10-(0)-(0)--------(0)-(0)-(0)-------------------10------|C

|-----------------------------------------------------------------------------------------------------|C
|-----------------------------------------------------------------------------------------------------|G
|-----------------------------------------------------------------------------------------------------|D#
|-----------------------------------------------------------------------------------------------------|A#
|---------10-7-9-------------12-9-10-----10-9----------3-7-3------------5-9-5-------------------------|F
|-(0)-(0)--------(0)-(0)-(0)---------0-7-------(0)-(0)-------5--(0)-(0)-------5-5-5-5-5---------------|C

|-----------------------------------------------------------------------------------------------------|C
|-----------------------------------------------------------------------------------------------------|G
|-----------------------------------------------------------------------------------------------------|D#
|-------------------------------------------------------------------------9---------------------------|A#
|---------10-7-9-------------12-9-10-----10-9------------10-7-9---------------12-10-9-12-10-9---------|F
|-(0)-(0)--------(0)-(0)-(0)---------0-7------10-(0)-(0)--------(0)-(0)-(0)-------------------10------|C

|-----------------------------------------------------------------------------------------------------|C
|-----------------------------------------------------------------------------------------------------|G
|-----------------------------------------------------------------------------------------------------|D#
|-----------------------------------------------------------------------------------------------------|A#
|---------10-7-9-------------12-9-10-----10-9----------3-7-3------------5-9---------9h10p9h109h10p9h10|F
|-(0)-(0)--------(0)-(0)-(0)---------0-7-------(0)-(0)-------5--(0)-(0)-----(0)-(0)-------------------|C

|-----------------------------------------------------------------------------------------------------|C
|-----------------------------------------------------------------------------------------------------|G
|-----------------------------------------------------------------------------------------------------|D#
|-------------------------------------------------------------------------9---------------------------|A#
|---------10-7-9-------------12-9-10-----10-9------------10-7-9---------------12-10-9-12-10-9---------|F
|-(0)-(0)--------(0)-(0)-(0)---------0-7------10-(0)-(0)--------(0)-(0)-(0)-------------------10------|C

|-----------------------------------------------------------------------------------------------------|C
|-----------------------------------------------------------------------------------------------------|G
|-----------------------------------------------------------------------------------------------------|D#
|-----------------------------------------------------------------------------------------------------|A#
|---------10-7-9-------------12-9-10-----10-9----------3-7-3------------5-9-5-------------------------|F
|-(0)-(0)--------(0)-(0)-(0)---------0-7-------(0)-(0)-------5--(0)-(0)-------5-5-5-5-5---------------|C



Outro



|------------------------------------H-E-L-L---O-F---A---S---L---I---D---E----------------------------|C
|------------------------------------H-E-L-L---O-F---A---S---L---I---D---E----------------------------|G
|------------------------------------H-E-L-L---O-F---A---S---L---I---D---E----------------------------|D#
|-2=---------------------------------H-E-L-L---O-F---A---S---L---I---D---E----------------------------|A#
|-2=---------------------------------H-E-L-L---O-F---A---S---L---I---D---E----------------------------|F
|-0=---------------------------------H-E-L-L---O-F---A---S---L---I---D---E----------------------------|C

|-----------------------------------------------------------------------------------------------------|C
|-----------------------------------------------------------------------------------------------------|G
|-----------------------------------------------------------------------------------------------------|D#
|-----------------------------------------------------------------------------------------------------|A#
|------------------7-----------------------10----------7h8--------------------------------------------|F
|-(0)(0)(0)0-(0)(0)-(x)8-(x)5---(0)(0)(0)0---(0)-7-(0)------------------------------------------------|C

|-----------------------------------------------------------------------------------------------------|C
|-----------------------------------------------------------------------------------------------------|G
|-----------------------------------------------------------------------------------------------------|D#
|-----------------------------------------------------------------------------------------------------|A#
|------------------7-------------------7-------------9------------------------------------------------|F
|-(0)(0)(0)0-(0)(0)-(x)8-(x)5----0-5-8---8-5-0-7-10---10-7-------------------------------------------|C

|-----------------------------------------------------------------------------------------------------|C
|-----------------------------------------------------------------------------------------------------|G
|------------------------------------------------------5-10-------------------------------------------|D#
|------------------------------------------------------x-x--------------------------------------------|A#
|------------------7-----------------------10----------7-8--------------------------------------------|F
|-(0)(0)(0)0-(0)(0)-(x)8-(x)5---(0)(0)(0)0---(0)-7-(0)------------------------------------------------|C

|-----------------------------------------------------------------------------------------------------|C
|-----------------------------------------------------------------------------------------------------|G
|-----------------------------------------------------------------------------------------------------|D#
|-----------------------------------------------------------------------------------------------------|A#
|------------------7-------------------7------2h5---*3------------------------------------------------|F
|-(0)(0)(0)0-(0)(0)-(x)8-(x)5----0-5-8---8-(0)---(0)--------------------------------------------------|C

|-----------------------------------------------------------------------------------------------------|C
|-----------------------------------------------------------------------------------------------------|G
|------------------------------------------------------5-10-------------------------------------------|D#
|------------------------------------------------------x-x--------------------------------------------|A#
|------------------7-----------------------10----------7-8--------------------------------------------|F
|-(0)(0)(0)0-(0)(0)-(x)8-(x)5---(0)(0)(0)0---(0)-7-(0)------------------------------------------------|C

|-----------------------------------------------------------------------------------------------------|C
|-----------------------------------------------------------------------------------------------------|G
|-----------------------------------------------------------------------------------------------------|D#
|-----------------------------------------------------------------------------------------------------|A#
|------------------7-------------------7-------------9------------------------------------------------|F
|-(0)(0)(0)0-(0)(0)-(x)8-(x)5----0-5-8---8-5--0-7-10---10-7-------------------------------------------|C

|-----------------------------------------------------------------------------------------------------------------------------------|C
|-----------------------------------------------------------------------------------------------------------------------------------|G
|-----------------------------------------------------------------------------------------------------------------------------------|D#
|-(2)(2)(2)(2)(2)(2)-(2)-(2)-(2)--(2)(2)(2)(2)(2)(2)-(2)-(2)-(2)---(2)(2)(2)(2)(2)(2)-(2)-(2)-(2)--(2)(2)(2)(2)(2)(2)-(2)-(2)-(2)---|A#
|-(2)(2)(2)(2)(2)(2)-(2)-(2)-(2)--(2)(2)(2)(2)(2)(2)-(2)-(2)-(2)---(2)(2)(2)(2)(2)(2)-(2)-(2)-(2)--(2)(2)(2)(2)(2)(2)-(2)-(2)-(2)---|F
|-(0)(0)(0)(0)(0)(0)-(0)-(0)-(0)--(0)(0)(0)(0)(0)(0)-(0)-(0)-(0)---(0)(0)(0)(0)(0)(0)-(0)-(0)-(0)--(0)(0)(0)(0)(0)(0)-(0)-(0)-(0)---|C

|-----------------------------------------------------------------------------------------------------------------------------------|C
|-----------------------------------------------------------------------------------------------------------------------------------|G
|-----------------------------------------------------------------------------------------------------------------------------------|D#
|-(2)(2)(2)(2)(2)(2)-(2)-(2)-(2)--(2)(2)(2)(2)(2)(2)-(2)-(2)-(2)---(2)(2)(2)(2)(2)(2)-(2)-(2)-(2)--(2)(2)(2)(2)(2)(2)-(2)-(2)-(2)---|A#
|-(2)(2)(2)(2)(2)(2)-(2)-(2)-(2)--(2)(2)(2)(2)(2)(2)-(2)-(2)-(2)---(2)(2)(2)(2)(2)(2)-(2)-(2)-(2)--(2)(2)(2)(2)(2)(2)-(2)-(2)-(2)---|F
|-(0)(0)(0)(0)(0)(0)-(0)-(0)-(0)--(0)(0)(0)(0)(0)(0)-(0)-(0)-(0)---(0)(0)(0)(0)(0)(0)-(0)-(0)-(0)--(0)(0)(0)(0)(0)(0)-(0)-(0)-(0)---|C












|-----------------------------------------------------------------------------------------------------|C
|-----------------------------------------------------------------------------------------------------|G
|-----------------------------------------------------------------------------------------------------|D#
|-----------------------------------------------------------------------------------------------------|A#
|-----------------------------------------------------------------------------------------------------|F
|-----------------------------------------------------------------------------------------------------|C
comments
We did not receive enough feedback on this tab! Please rate:
print report bad tab
1 2 3 4 5
I want to post or [tab]
guest
You may want to rate the tab now too:
select rating
Please do not post tabs as comments. Select "correction" instead!