Oops, an error
Loading. Please wait.

Everglow Tab

by Mae
7,202 views 3 this week
no commentswrite comment
1 2 3 4 5
excellent!
x 5
add to favorites launch autoscroll
font size
0
reset
Autoscroll
+/-
esc
set tempo
stop
Contributor
Difficulty
intermediate
WARNING: You are trying to view
                                    content from Ultimate-Guitar.com
                                    in an unauthorized application,
                                    which is prohibited.

                                    Please use an official Ultimate
                                    Guitar Tabs application for iPhone,
                                    iPad or Android to access legitimate
                                    chords, guitar, bass, and drum tabs
                                    from Ultimate-Guitar.com database.

                                    Type "ultimate guitar tabs" in Apple
                                    App Store's or Android Market's
                                    search to find the application.
-------------------------------------------------------------------------------
                             The Everglow - MAE
-------------------------------------------------------------------------------
Tabbed by: Liam Linley
Email: Liam_linley@yahoo.com

Tuning: Standard E A D G B E

                                  Intro
  PM.........................................................................
e|---------------------------------------------------------------------------|
B|---------------------------------------------------------------------------|
G|-10-10-8-8-8--5-6--8-8-8--6-6-8-8-6-6---1-1--3-3--1-3-1-3--1-1-3-3-1-1-3-3-|
D|-6--6--6-6-6--6-6--6-6-6--6-6-6-6-6-6---3-3--3-3--3-3-3-3--3-3-3-3-3-3-3-3-|
A|---------------------------------------------------------------------------|
E|---------------------------------------------------------------------------|

  PM.........................................................................
e|---------------------------------------------------------------------------|
B|------6----6---------6-------6--------6------6----------6------6-----------|
G|------6----6---------6-------6--------6------6----------6------6-----------|
D|----------------------------------4-4---4-4-------4-4-4----6-6---6---------|
A|-6-6---6-6---6-6-6-6---6-6-6---6---------------6---------------------------|
E|---------------------------------------------------------------------------|

         Verse 1

e|---------------------|
B|---------------------|
G|-6-----11--8--11--13-|
D|-6--8--11--8--11--13-|
A|-4--8--9---6--9---11-|
E|----6----------------|

             Bridge

e|----------------------------------|
B|----------------------------------|
G|-8-8--8-8--8-8--13-13-13-13-13-13-|
D|-8-8--6-6--8-8--13-13-13-13-13-13-|
A|-6-6-------6-6--11-11-11-11-11-11-|
E|----------------------------------|

                                  Chorus 1

e|---------------------------------------------------------------------------|
B|---------------------------------------------------------------------------|
G|-11-11-11-11-11-11-11-11--13-13-13-13-13-13-13-13--10-10-10-10-10-10-10-10-|
D|-11-11-11-11-11-11-11-11--13-13-13-13-13-13-13-13--10-10-10-10-10-10-10-10-|
A|-9--9--9--9--9--9--9--9---11-11-11-11-11-11-11-11--8--8--8--8--8--8--8--8--|
E|---------------------------------------------------------------------------|

e|---------------------------------------------------------------------------|
B|---------------------------------------------------------------------------|
G|-11-11-11-11-11-11-11-11--11-11-11-11-11-11-11-11--13-13-13-13-13-13-13-13-|
D|-11-11-11-11-11-11-11-11--11-11-11-11-11-11-11-11--13-13-13-13-13-13-13-13-|
A|-9--9--9--9--9--9--9--9---9--9--9--9--9--9--9--9---11-11-11-11-11-11-11-11-|
E|---------------------------------------------------------------------------|

e|------------|
B|------------|
G|-10--12--11-|
D|-8---10--11-|
A|---------9--|
E|------------|

                   Verse 2

e|-------------------------------------------|
B|-------------------------------------------|
G|-6-----11--8--11--13---6-----11--8--11--13-|
D|-6--8--11--8--11--13---6--8--11--8--11--13-|
A|-4--8--9---6--9---11---4--8--9---6--9---11-|
E|----6---------------------6----------------|

               Bridge

e|----------------------------------|
B|----------------------------------|
G|-8-8--8-8--8-8--13-13-13-13-13-13-|
D|-8-8--6-6--8-8--13-13-13-13-13-13-|
A|-6-6-------6-6--11-11-11-11-11-11-|
E|----------------------------------|

                                  Chorus 2

e|---------------------------------------------------------------------------|
B|---------------------------------------------------------------------------|
G|-11-11-11-11-11-11-11-11--13-13-13-13-13-13-13-13--10-10-10-10-10-10-10-10-|
D|-11-11-11-11-11-11-11-11--13-13-13-13-13-13-13-13--10-10-10-10-10-10-10-10-|
A|-9--9--9--9--9--9--9--9---11-11-11-11-11-11-11-11--8--8--8--8--8--8--8--8--|
E|---------------------------------------------------------------------------|

e|---------------------------------------------------------------------------|
B|---------------------------------------------------------------------------|
G|-11-11-11-11-11-11-11-11--11-11-11-11-11-11-11-11--13-13-13-13-13-13-13-13-|
D|-11-11-11-11-11-11-11-11--11-11-11-11-11-11-11-11--13-13-13-13-13-13-13-13-|
A|-9--9--9--9--9--9--9--9---9--9--9--9--9--9--9--9---11-11-11-11-11-11-11-11-|
E|---------------------------------------------------------------------------|

e|---------------------------------------------------------------------------|
B|---------------------------------------------------------------------------|
G|-10-10-10-10-10-10-10-10---------------------11-11-11-11-11-11-11-11-------|
D|-10-10-10-10-10-10-10-10--8-8-8-8--6-6-6-6---11-11-11-11-11-11-11-11-------|
A|-8--8--8--8--8--8--8--8---8-8-8-8--6-6-6-6---9--9--9--9--9--9--9--9--------|
E|--------------------------6-6-6-6--4-4-4-4---------------------------------|

e|---------------------------------------------------------------------------|
B|---------------------------------------------------------------------------|
G|-13-13-13-13-13-13-13-13--10-10-10-10-10-10-10-10--11-11-11-11-11-11-11-11-|
D|-13-13-13-13-13-13-13-13--10-10-10-10-10-10-10-10--11-11-11-11-11-11-11-11-|
A|-11-11-11-11-11-11-11-11--8--8--8--8--8--8--8--8---9--9--9--9--9--9--9--9--|
E|---------------------------------------------------------------------------|

e|---------------------------------------------------------------------------|
B|---------------------------------------------------------------------------|
G|-11-11-11-11-11-11-11-11--13-13-13-13-13-13-13-13---13------10--13---------|
D|-11-11-11-11-11-11-11-11--13-13-13-13-13-13-13-13---11--13--8---11---------|
A|-9--9--9--9--9--9--9--9---11-11-11-11-11-11-11-11-------11-----------------|
E|---------------------------------------------------------------------------|

e|---------------------------------------------------------------------------|
B|---------------------------------------------------------------------------|
G|-11-11-11-11-11-11-11-11--8-8-8-8-8-8-8-8----------------------------------|
D|-11-11-11-11-11-11-11-11--8-8-8-8-8-8-8-8--8-8-8-8-8-8-8-8--6-6-6-6-6-6-6--|
A|-9--9--9--9--9--9--9--9---6-6-6-6-6-6-6-6--8-8-8-8-8-8-8-8--6-6-6-6-6-6-6--|
E|-------------------------------------------6-6-6-6-6-6-6-6--4-4-4-4-4-4-4--|

e|---------------------------------------------------------------------------|
B|---------------------------------------------------------------------------|
G|-11-11-11-11-11-11-11-11--8-8-8-8-8-8-8-8----------------------------------|
D|-11-11-11-11-11-11-11-11--8-8-8-8-8-8-8-8--8-8-8-8-8-8-8-8--6-6-6-6-6-6-6--|
A|-9--9--9--9--9--9--9--9---6-6-6-6-6-6-6-6--8-8-8-8-8-8-8-8--6-6-6-6-6-6-6--|
E|-------------------------------------------6-6-6-6-6-6-6-6--4-4-4-4-4-4-4--|

e|-------------|
B|-------------|
G|-6--Let Ring-|
D|-6--Let Ring-|
A|-4--Let Ring-|
E|-------------|

                                  Bridge 2
  PM.........................................................................
e|---------------------------------------------------------------------------|
B|---------------------------------------------------------------------------|
G|---------------------------------------------------------------------------|
D|-8-8-8-8-8-8-8-8--10-10-10-10-10-10-10-10--11-11-11-11-11-11-11-11---------|
A|-6-6-6-6-6-6-6-6--8--8--8--8--8--8--8--8---9--9--9--9--9--9--9--9----------|
E|---------------------------------------------------------------------------|
  PM.......................
e|-------------------------|
B|-------------------------|
G|-------------------------|
D|-13-13-13-13-13-13-13-13-|
A|-11-11-11-11-11-11-11-11-|
E|-------------------------|

                                  Chorus 3

e|---------------------------------------------------------------------------|
B|---------------------------------------------------------------------------|
G|-11-11-11-11-11-11-11-11--13-13-13-13-13-13-13-13--10-10-10-10-10-10-10-10-|
D|-11-11-11-11-11-11-11-11--13-13-13-13-13-13-13-13--10-10-10-10-10-10-10-10-|
A|-9--9--9--9--9--9--9--9---11-11-11-11-11-11-11-11--8--8--8--8--8--8--8--8--|
E|---------------------------------------------------------------------------|

e|---------------------------------------------------------------------------|
B|---------------------------------------------------------------------------|
G|-11-11-11-11-11-11-11-11--11-11-11-11-11-11-11-11--13-13-13-13-13-13-13-13-|
D|-11-11-11-11-11-11-11-11--11-11-11-11-11-11-11-11--13-13-13-13-13-13-13-13-|
A|-9--9--9--9--9--9--9--9---9--9--9--9--9--9--9--9---11-11-11-11-11-11-11-11-|
E|---------------------------------------------------------------------------|

e|-------------------------------------------|
B|-------------------------------------------|
G|-10-10-10-10-10-10-10-10-------------------|
D|-10-10-10-10-10-10-10-10--8-8-8-8--6-6-6-6-|
A|-8--8--8--8--8--8--8--8---8-8-8-8--6-6-6-6-|
E|--------------------------6-6-6-6--4-4-4-4-|

e|---------------------------------------------------------------------------|
B|---------------------------------------------------------------------------|
G|-11-11-11-11-11-11-11-11--13-13-13-13-13-13-13-13--10-10-10-10-10-10-10-10-|
D|-11-11-11-11-11-11-11-11--13-13-13-13-13-13-13-13--10-10-10-10-10-10-10-10-|
A|-9--9--9--9--9--9--9--9---11-11-11-11-11-11-11-11--8--8--8--8--8--8--8--8--|
E|---------------------------------------------------------------------------|

e|---------------------------------------------------------------------------|
B|---------------------------------------------------------------------------|
G|-11-11-11-11-11-11-11-11--11-11-11-11-11-11-11-11--13-13-13-13-13-13-13-13-|
D|-11-11-11-11-11-11-11-11--11-11-11-11-11-11-11-11--13-13-13-13-13-13-13-13-|
A|-9--9--9--9--9--9--9--9---9--9--9--9--9--9--9--9---11-11-11-11-11-11-11-11-|
E|---------------------------------------------------------------------------|

e|-------------------------------------------|
B|-------------------------------------------|
G|-10-10-10-10-10-10-10-10-------------------|
D|-10-10-10-10-10-10-10-10--8-8-8-8--6-6-6-6-|
A|-8--8--8--8--8--8--8--8---8-8-8-8--6-6-6-6-|
E|--------------------------6-6-6-6--4-4-4-4-|

e|---------------------------------------------------------------------------|
B|---------------------------------------------------------------------------|
G|-11-11-11-11-11-11-11-11--13-13-13-13-13-13-13-13--10-10-10-10-10-10-10-10-|
D|-11-11-11-11-11-11-11-11--13-13-13-13-13-13-13-13--10-10-10-10-10-10-10-10-|
A|-9--9--9--9--9--9--9--9---11-11-11-11-11-11-11-11--8--8--8--8--8--8--8--8--|
E|---------------------------------------------------------------------------|

e|---------------------------------------------------------------------------|
B|---------------------------------------------------------------------------|
G|-11-11-11-11-11-11-11-11--11-11-11-11-11-11-11-11--13-13-13-13-13-13-13-13-|
D|-11-11-11-11-11-11-11-11--11-11-11-11-11-11-11-11--13-13-13-13-13-13-13-13-|
A|-9--9--9--9--9--9--9--9---9--9--9--9--9--9--9--9---11-11-11-11-11-11-11-11-|
E|---------------------------------------------------------------------------|

e|----------------------|
B|---------14--Let Ring-|
G|-10--13--11--Let Ring-|
D|-8---11---------------|
A|----------------------|
E|----------------------|


| /  slide up
| \  slide down
| h  hammer-on
| p  pull-off
| ~  vibrato
| +  harmonic
| x  Mute note
| pm Palm Mute
===============================================================================
comments
print report bad tab
I want to post or [tab]
guest
You may want to rate the tab now too:
select rating
Please do not post tabs as comments. Select "correction" instead!