Oops, an error
Loading. Please wait.

Suspension Acoustic Tab

by Mae
ver2
ver2

Whole song

More versions @911Tabs.com
208 views 6 this week
no commentswrite comment
1 2 3 4 5
please rate
Autoscroll
+/-
esc
set tempo
stop
Contributor
Difficulty
Tuning
intermediate
D# G# C# F# A# D#
WARNING: You are trying to view
                                    content from Ultimate-Guitar.com
                                    in an unauthorized application,
                                    which is prohibited.

                                    Please use an official Ultimate
                                    Guitar Tabs application for iPhone,
                                    iPad or Android to access legitimate
                                    chords, guitar, bass, and drum tabs
                                    from Ultimate-Guitar.com database.

                                    Type "ultimate guitar tabs" in Apple
                                    App Store's or Android Market's
                                    search to find the application.
Suspension by Mae
Half Step Down Tuning

This tab's based on Mae's acoustic performance at Park Ave. CD's in Orlando, FL.

Chords:
   E - 079900/022100    C#m - 9x9900/x46600
   A - 577600/x02200    Eb* - x688xx
   B - 799800/x24400    F#m - 244xxx 
   *s - slide
   *h - hammer

Intro - E----
        E C#m B E
Lead (intro):
|----------------------------------------|
|----------12------------------10p9------|
|---9-11p9----9-11s13---9-11p9------11p9-|
|-9-------------------9------------------|
|----------------------------------------|
|----------------------------------------|


Verse:
E
Lately I'm alright
And lately I'm not scared
               C#m
I've figured out
                     B
That what you do to me feels like
                    A
I'm floating on air

I don't need to know right now
           C#m       B   A
All I know is I believe
In the very thing that got us here
        C#m        B   C#m Eb*
And now I can't leave
Lead (verse):
|-----------------------------x-x--|
|--------------7h9------------x-x--|
|-8-6------9-8------8-6-------6-4--| 2x
|-----6h9---------------6h9---6-4--|
|-----------------------------4-2--|
|-----------------------------x-x--|

Chorus:
E         A                      C#m          
Say anything, but say what you mean
           B                     A B C#m Eb*
'cause I'm caught in suspension
Lead (chorus):
|-x------x-------x------x------x-------x------x------x-|
|-x------x-------x------x------x-------x------x------x-|
|-9------11------8------9------11------8------6------4-|
|-x------x-------x------x------x-------x------x------x-|
|-7------9-------6------7------9-------6------4------2-|
|-x------x-------x------x------x-------x------x------x-|
Lead (post-chorus):
|-0h2p0---4p0-----5p0-----7p0-----|
|-------0-----4p0-----4p0-----7s9-|
|---------------------------------|
|---------------------------------|
|---------------------------------|
|---------------------------------|

Verse:
E
Now,
                      A
I'm wanting this for sure
                          C#m
And I'll beg for nothing more
                        B
I'll plan all day and drive all night
                            A
You'll love what's in store
I can't seem to stop this now
       C#m         B
Even if it's not so clear
And I'll take what I can get
  C#m        B        *mute all strumming*
If you want me here (If you want me here)
Lead (verse):
|------------7-----------------|
|-7-9----7-9---9-7-9-----7-9---|
|-----9--------------9-------8-|
|------9---------------9-------|
|------------------------------|
|------------------------------|

|-----------------------------x-x--|
|--------------7h9------------x-x--|
|-8-6------9-8------8-6-------6-4--| 2x
|-----6h9---------------6h9---6-4--|
|-----------------------------4-2--|
|-----------------------------x-x--|

Chorus: 
E        A                        C#m            
Say anything, but say what you mean.
            B
When you whisper you want this
A                       B F#m
Your eyes tell the same
E                A
We are gaining speed
                C#m
I can barely breathe
             B                  A B C#m Eb* 2x
'cause I'm caught in suspension
Lead(chorus):
|-x------x-------x------x------x-------x------x------x------x------x--x-|
|-x------x-------x------x------x-------x------x------x------x------x--x-|
|-9------11------8------9------11------8------6------4------14-----4--x-| 
|-x------x-------x------x------x-------x------x------x------x------4--4-|
|-7------9-------6------7------9-------6------4------2------12-----2--4-|
|-x------x-------x------x------x-------x------x------x------x------x--2-|

|-x------x-------x------x------x-------x------x------x------|
|-x------x-------x------x------x-------x------x------x------|
|-9------11------8------9------11------8------6------4------| 
|-x------x-------x------x------x-------x------x------x------|
|-7------9-------6------7------9-------6------4------2------|
|-x------x-------x------x------x-------x------x------x------|
Lead (post-chorus)
|-0h2p0---4p0-----5p0-----7p0-----|
|-------0-----4p0-----4p0-----5s4-|
|---------------------------------|
|---------------------------------|
|---------------------------------|
|---------------------------------|

|-0h2p0---4p0-----5p0-----7p0-----|
|-------0-----4p0-----4p0-----7s9-|
|---------------------------------|
|---------------------------------|
|---------------------------------|
|---------------------------------|

Bridge:
B                                  A
It's enough for me to get excited
                                   C#m    B    A
It's enough for me to feel...woooooah ooooh oh oh oh
Lead (bridge):
|-x---x---x---x---x---x--|
|-x---x---x---x---x---x--|
|-8---9---8---13--11--9--| 
|-x---x---x---x---x---x--|
|-6---7---6---11--9---7--|
|-x---x---x---x---x---x--|

Instrumental: E B C#m B A C#m B

|-x---x---x---x-|-x---x---x--|-x---x---x---x-|-x---x---x-|
|-x---x---x---x-|-x---x---x--|-x---x---x---x-|-x---x---x-|
|-11--13--9---4-|-11--13--16-|-11--13--9---4-|-11--13--8-|
|-x---x---x---x-|-x---x---x--|-x---x---x---x-|-x---x---x-|
|-9---11--7---2-|-9---11--14-|-9---11--7---2-|-9---11--6-|
|-x---x---x---x-|-x---x---x--|-x---x---x---x-|-x---x---x-|

|-x---x---x---x---x--|
|-x---x---x---x---x--|
|-14--13--16--18--11-|
|-x---x---x---x---x--|
|-12--11--14--16--9--|
|-x---x---x---x---x--|


Chorus:
E        A                        C#m            
Say anything, but say what you mean.
            B
When you whisper you want this
A                       
Your eyes tell the same

E                A
We are gaining speed (suspension)
                C#m
I can barely breathe (Oh, I can barely breathe)
             B                  
'cause I'm caught in suspension (Suspension)
     B       F#m
I'm caught in suspension
E         A
Say anything (suspension)
                  C#m
But say what you mean (Oh, please say what you mean)
       B
I'm caught in suspension (suspension)
     B       F#m
I'm caught in suspension
E                 A
We are gaining speed (suspension)
                C#m
I can barely breathe (Oh, I can barely breathe)
     B                   A B C#m Eb* 2x A 
I'm caught in suspension 
Lead (chorus)
|-x------x-------x------x------x-------x------x------x------x------x--x-|
|-x------x-------x------x------x-------x------x------x------x------x--x-|
|-9------11------8------9------11------8------6------4------14-----4--x-| 
|-x------x-------x------x------x-------x------x------x------x------4--4-|
|-7------9-------6------7------9-------6------4------2------12-----2--4-|
|-x------x-------x------x------x-------x------x------x------x------x--2-|

|-12-11-----------------------------|     |-0h2p0---4p0-----5p0-----7p0-----|
|-------12-9h12-------------10p9----|     |-------0-----4p0-----4p0-----7s9-|
|-----------------9-11p9-------11p9-| 3x  |---------------------------------|
|---------------9-------------------|     |---------------------------------|
|-----------------------------------|     |---------------------------------|
|-----------------------------------|     |---------------------------------|

|-12-11-----------------------------|     
|-------12-9h12-------------10p9----|     
|-----------------9-11p9-------11p9-| 3x  
|---------------9-------------------|     
|-----------------------------------|     
|-----------------------------------|

Lead (post-chorus):
|-0h2p0---4p0-----5p0-----7p0-----|
|-------0-----4p0-----4p0-----5s4-|
|---------------------------------|
|---------------------------------|
|---------------------------------|
|---------------------------------|

|-0h2p0---4p0-----5p0-----7p0------|
|-------0-----4p0-----4p0-----5s4-3|
|----------------------------------|
|----------------------------------|
|----------------------------------|
|----------------------------------|
comments
We did not receive enough feedback on this tab! Please rate:
print report bad tab
1 2 3 4 5
I want to post or [tab]
guest
You may want to rate the tab now too:
select rating
Please do not post tabs as comments. Select "correction" instead!