Oops, an error
Loading. Please wait.

Light Pours Out Of Me Tab

ver2
ver2

Whole song

More versions @911Tabs.com
2,849 views 3 this week
no commentswrite comment
1 2 3 4 5
excellent!
x 2
Autoscroll
+/-
esc
set tempo
stop
Contributor
Difficulty
intermediate
WARNING: You are trying to view
                                    content from Ultimate-Guitar.com
                                    in an unauthorized application,
                                    which is prohibited.

                                    Please use an official Ultimate
                                    Guitar Tabs application for iPhone,
                                    iPad or Android to access legitimate
                                    chords, guitar, bass, and drum tabs
                                    from Ultimate-Guitar.com database.

                                    Type "ultimate guitar tabs" in Apple
                                    App Store's or Android Market's
                                    search to find the application.
The Light Pours Out Of Me by Magazine (Tab).

Very brief key:

s = Slide
b = Bend (first number = fretted note, 2nd number = note to bend to)
~ = Vibrato

Introduction.

   1   +   2   +   3   +   4   +   1   +   2   +   3   +   4   +

e----------------------------------------------------------------------|
B----------------------------------------------------------------------|
G----------------------------------------------------------------------|
D----------------------------------------------------------------------|
A----------------------------------------------------------------------|
E—---------0---4---5---0---2-s-7---------------------------------------|

   1   +   2   +   3   +   4   +   1   +   2   +   3   +   4   +

e----------------------------------------------------------------------|
B----------------------------------------------------------------------|
G----------------------------------------------------------------------|
D----------------------------------------------------------------------|
A----------------------------------------------------------------------|
E—---------0---4---5---0---2-s-7---------------------------------------|

   5   +   6   +   7   +   1   +   2   +   3   +   4   +

e----------------------------------------------------------------------|
B----------------------------------------------------------------------|
G----------------------------------------------------------------------|
D----------------------------------------------------------------------|
A----------------------------------------------------------------------|
E—---------0---4---5---0—-10--------------------------10---------------|

   1   +   2   +   3   +   4   +   1   +   2   +   3   +   4   +

e----------------------------------------------------------------------|
B----------------------------------------------------------------------|
G----------------------------------------------------------------------|
D----------------------------------------------------------------------|
A----------------------------------------------------------------------|
E—-9---------------------------9---7-----------------------------------|

   1   +   2   +   3   +   4   +   1   +   2   +   3   +   4   +

e----------------------------------------------------------------------|
B----------------------------------------------------------------------|
G----------------------------------------------------------------------|
D----------------------------------------------------------------------|
A----------------------------------------------------------------------|
E—-----------------------------0--10--------------------------10-------|

   1   +   2   +   3   +   4   +   1   +   2   +   3   +   4   +

e----------------------------------------------------------------------|
B----------------------------------------------------------------------|
G----------------------------------------------------------------------|
D----------------------------------------------------------------------|
A----------------------------------------------------------------------|
E—-9---------------------------9---7-----------------------------------|

End of Introduction.

   1   +   2   +   3   +   4   +   1   +   2   +   3   +   4   +

e------------------------------------------------------------------|
B------------------------------------------------------------------|
G------------------------------------------------------------------|  x3
D------------------------------------------------------------------|
A------------------------------------------------------------------|
E—---------0---4---5---0---2-s-7-----------------------------------|
                                           Time flies… (etc.)

4th time:

   1   +   2   +   3   +   4   +   1   +   2   +   3   +   4   +

e----------------------------------------------------------------------|
B----------------------------------------------------------------------|
G----------------------------------------------------------------------|
D----------------------------------------------------------------------|
A----------------------------------------------------------------------|
E—---------0---4---5---0---2-s-7---------------------------------------|
                                               Up and down the walls.

                           *
   5   +   6   +   7   +   1   +   2   +   3   +   4   +   1   +

e----------------------0-0-0-------0---0-------0---0-------------------|
B----------------------1-1-1-------1---1-------1---1---x-5-5-----------|
G----------------------2-2-2-------2---2-------2---2---x-5-5-----------|
D----------------------2-2-2-------2---2-------2---2---x-5-5-----------|
A----------------------0-0-0-------0---0-------0---0---x-3-3-----------|
E—---------------------------------------------------------------------|
                                   The light… (etc.)


   2   +   3   +   4   +   1   +   2   +   3   +   4   +

e----------------------------------------------------------------------|
B--5---5-------5---5---x-9-9-----------9---9-----------9---------------|
G--5---5-------5---5---x-9-9-----------9---9-----------9---------------|
D--5---5-------5---5---x-9-9-----------9---9-----------9---------------|
A--3---3-------3---3---x-7-7-----------7---7-----------7---------------|
E----------------------------------------------------------------------|

1st time:

   1   +   2   +   3   +   4   +

e------------------------------x-0----|
B--9-----------9---9-------9---x-1----|
G--9-----------9---9-------9---x-2----|  (Repeat from * x1)
D--9-----------9---9-------9---x-2----|
A--7-----------7---7-------7---x-0----|
E-------------------------------------|


2nd time:

   1   +   2   +   3   +   4   +   1   +   2   +   3   +   4   +

e----------------------------------------------------------------------|
B--9-------------------------------------------------------------------|
G--9-------------------------------------------------------------------|
D--9-------------------------------------------------------------------|
A--7-------------------------------------------------------------------|
E—---------0---4---5---0---2-s-7---------------------------------------|

   1   +   2   +   3   +   4   +   1   +   2   +   3   +   4   +

e----------------------------------------------------------------------|
B----------------------------------------------------------------------|
G----------------------------------------------------------------------|
D----------------------------------------------------------------------|
A----------------------------------------------------------------------|
E—---------0---4---5---0---2-s-7---------------------------------------|

   5   +   6   +   7   +   1   +   2   +   3   +   4   +

e----------------------------------------------------------------------|
B----------------------------------------------------------------------|
G----------------------------------------------------------------------|
D----------------------------------------------------------------------|
A----------------------------------------------------------------------|
E—---------0---4---5---0—-10--------------------------10---------------|

   1   +   2   +   3   +   4   +   1   +   2   +   3   +   4   +

e----------------------------------------------------------------------|
B----------------------------------------------------------------------|
G----------------------------------------------------------------------|
D----------------------------------------------------------------------|
A----------------------------------------------------------------------|
E—-9---------------------------9---7-----------------------------------|

   1   +   2   +   3   +   4   +   1   +   2   +   3   +   4   +

e----------------------------------------------------------------------|
B----------------------------------------------------------------------|
G----------------------------------------------------------------------|
D----------------------------------------------------------------------|
A----------------------------------------------------------------------|
E—-----------------------------0--10--------------------------10-------|

   1   +   2   +   3   +   4   +   1   +   2   +   3   +   4   +

e----------------------------------------------------------------------|
B----------------------------------------------------------------------|
G----------------------------------------------------------------------|
D----------------------------------------------------------------------|
A----------------------------------------------------------------------|
E—-9---------------------------9---7-----------------------------------|

Then, the verse & chorus are repeated as above, but with different lyrics in the verse. 
a new guitar part kicks in after the 3rd chorus (it’s announced by a drum roll!).
                                   *
   1   +   2   +   3   +   4   +   1   +   2   +   3   +   4   +

e----------------------------------------------------------------------|
B-----------------10-------9------12------12--12------12--12-----------|
G-----------------12b14----11b13--14b16-------14b16-------14b16--------|
D----------------------------------------------------------------------|
A----------------------------------------------------------------------|
E—---------------------------------------------------------------------|

1st, 2nd. & 3rd times:

   1   +   2   +   3   +   4   +

e---------------------------------------|
B-12--12----------10-------9------------|
G-----14b16-------12b14----11b13--------|  (Repeat from * x3)
D---------------------------------------|
A---------------------------------------|
E—--------------------------------------|

4th time:
                                   *
   1   +   2   +   3   +   4   +   1   +   2   +   3   +   4   +

e----------------------------------------------------------------------|
B-12--12-----------3-------2-------5-------5---5-------5---5-----------|
G-----14b16--------5b7-----4b6-----7b9---------7b9---------7b9---------|
D----------------------------------------------------------------------|
A----------------------------------------------------------------------|
E—---------------------------------------------------------------------|

1st, 2nd, & 3rd times:

   1   +   2   +   3   +   4   +

e---------------------------------------|
B--5---5-----------3-------2------------|
G------7b9---------5b7-----4b6----------|  (Repeat from * x3)
D---------------------------------------|
A---------------------------------------|
E—--------------------------------------|

4th time:

   1   +   2   +   3   +   4   +   1   +   2   +   3   +   4   +

e----------------------------------------------------------------------|
B----------------------------------------------------------------------|
G----------------------------------------------------------------------|
D----------------------------------------------------------------------|
A----------------------------------------------------------------------|
E—---------0---4---5---0---2-s-7---------------------------------------|

   1   +   2   +   3   +   4   +   1   +   2   +   3   +   4   +

e----------------------------------------------------------------------|
B----------------------------------------------------------------------|
G----------------------------------------------------------------------|
D----------------------------------------------------------------------|
A----------------------------------------------------------------------|
E—---------0---4---5---0---2-s-7---------------------------------------|

   5   +   6   +   7   +   1   +   2   +   3   +   4   +

e----------------------------------------------------------------------|
B----------------------------------------------------------------------|
G----------------------------------------------------------------------|
D----------------------------------------------------------------------|
A----------------------------------------------------------------------|
E—---------0---4---5---0—-10--------------------------10---------------|

   1   +   2   +   3   +   4   +   1   +   2   +   3   +   4   +

e----------------------------------------------------------------------|
B----------------------------------------------------------------------|
G----------------------------------------------------------------------|
D----------------------------------------------------------------------|
A----------------------------------------------------------------------|
E—-9---------------------------9---7-----------------------------------|

   1   +   2   +   3   +   4   +   1   +   2   +   3   +   4   +

e----------------------------------------------------------------------|
B----------------------------------------------------------------------|
G----------------------------------------------------------------------|
D----------------------------------------------------------------------|
A----------------------------------------------------------------------|
E—-----------------------------0--10--------------------------10-------|

   1   +   2   +   3   +   4   +   1   +   2   +   3   +   4   +

e----------------------------------------------------------------------|
B----------------------------------------------------------------------|
G----------------------------------------------------------------------|
D----------------------------------------------------------------------|
A----------------------------------------------------------------------|
E—-9---------------------------9---7-----------------------------------|

Then, there is another verse, and another chorus, followed by…

                                   *
   1   +   2   +   3   +   4   +   1   +   2   +   3   +   4   +
                                      ~~~         ~~~         ~~~
e----------------------------------------------------------------------|
B-----------------10-------9------12------12--12------12--12-----------|
G-----------------12b14----11b13--14b16-------14b16-------14b16--------|
D----------------------------------------------------------------------|
A----------------------------------------------------------------------|
E—---------------------------------------------------------------------|

1st, 2nd. & 3rd times:

   1   +   2   +   3   +   4   +
          ~~~
e---------------------------------------|
B-12--12----------10-------9------------|
G-----14b16-------12b14----11b13--------|  (Repeat from * x3)
D---------------------------------------|
A---------------------------------------|
E—--------------------------------------|

4th time:
                                   *
   1   +   2   +   3   +   4   +   1   +   2   +   3   +   4   +
          ~~~                        ~~~         ~~~         ~~~
e----------------------------------------------------------------------|
B-12--12-----------3-------2-------5-------5---5-------5---5-----------|
G-----14b16--------5b7-----4b6-----7b9---------7b9---------7b9---------|
D----------------------------------------------------------------------|
A----------------------------------------------------------------------|
E—---------------------------------------------------------------------|

1st & 2nd times:

   1   +   2   +   3   +   4   +
         ~~~
e---------------------------------------|
B--5---5-----------3-------2------------|
G------7b9---------5b7-----4b6----------|  (Repeat from * x1)
D---------------------------------------|
A---------------------------------------|
E—--------------------------------------|

   1   +   2   +   3   +   4   +   1   +   2   +   3   +   4   +
     ~~~         ~~~         ~~~         ~~~
e----------------------------------------------------------------------|
B--5-------5---5-------5---5-------5---5-----------3-------2-----------|
G—-7b9---------7b9---------7b9---------7b9---------5b7-----4b6---------|
D----------------------------------------------------------------------|
A----------------------------------------------------------------------|
E—---------------------------------------------------------------------|

   1   +   2   +   3   +   4   +

e---------------------------------------|
B—-5------------------------------------|
G—-7b9----------------------------------|
D---------------------------------------|
A---------------------------------------|
E—--------------------------------------|

The End!

Ps John McGeoch does vary the strumming in the chorus and instrumental part slightly, so 
no need to follow the tabbed rhythms exactly… Go nuts!


Any questions, e-mail me at:

wilifanevans@googlemail.com
comments
We did not receive enough feedback on this tab! Please rate:
print report bad tab
1 2 3 4 5
I want to post or [tab]
guest
You may want to rate the tab now too:
select rating
Please do not post tabs as comments. Select "correction" instead!