Oops, an error
Loading. Please wait.

El Seor De Los Gramillos Tab

1,385 views 1 this week
no commentswrite comment
1 2 3 4 5
excellent!
x 1
Autoscroll
+/-
esc
set tempo
stop
Contributor
WARNING: You are trying to view
                                    content from Ultimate-Guitar.com
                                    in an unauthorized application,
                                    which is prohibited.

                                    Please use an official Ultimate
                                    Guitar Tabs application for iPhone,
                                    iPad or Android to access legitimate
                                    chords, guitar, bass, and drum tabs
                                    from Ultimate-Guitar.com database.

                                    Type "ultimate guitar tabs" in Apple
                                    App Store's or Android Market's
                                    search to find the application.
Empieza con el bajo (intro)
                   10x
G|-------------------|
D|-------------------|
A|------3---3-5-6----|
E|-5--5---5----------|

a la quinta y octava vez (00:06 y 00:10) entra la guitarra con
e|------|
B|------|
G|------|
D|-7----|
A|-7----|
E|-5----|

despues que termine el bajo sus diez veces
sigue la guitarra con el
violin juntos 4 veces y en la tercera vez
ntra la guitarra(riff1) asi
 (00:15)
e|---------------------------------------------------|
B|---------------------------------------------------|
G|---------------------------------------------------|
D|---------------------------------------------------|
A|-------3---3--5--6-------3----3--5--6---------3----|
E|-5--5----5----------5--5---5------------5--5----5--|
 |                                                   |
e|-------8---8-10-11-------8----8-10-11---------8----|
B|-10-10--10---------10-10---10----------10-10----10-|
G|---------------------------------------------------|
D|---------------------------------------------------|
A|---------------------------------------------------|
E|---------------------------------------------------|
 |guitarra(riff1)Entra en la 3ra repeticion (00:27)  |
e|-5~-----------------7~------------------8~---------|
B|---------------------------------------------------|
G|---------------------------------------------------|
D|---------------------------------------------------|
A|---------------------------------------------------|
E|---------------------------------------------------|

e|---------------------------------|
B|---------------------------------|
G|---------------------------------|
D|---------------------------------|
A|3-5--6--3--6--5-3--6--5-3--6-----|
E|---------------------------------|
 |                                 |
e|8-10-11-8-11-10-8-11-10-8-11-----|
B|---------------------------------|
G|---------------------------------|
D|---------------------------------|
A|---------------------------------|
E|---------------------------------|
 |guitarra(riff1)continuaciĆ³n      |
e|--------7~-----------------------|
B|---------------------------------|
G|---------------------------------|
D|---------------------------------|
A|---------------------------------|
E|---------------------------------|

 (00:39)                  4x
e|-------------------------|
B|-------------------------|
G|-------------------------|
D|-7-----7-----7-----------|
A|-7-----7-----7-----3-5-6-|
E|-5-5-5-5-5-5-5-5-5-------|

 (00:51)                         3x
e|--------------------------------|
B|--------------------------------|
G|--------------------------------|
D|-7------------------------------|
A|-7----------------------3-5-6---|
E|-5--5-5-5-5-5-5-5-5-5-5---------|

 (01:00)
e|-------------------------------------------|
B|-------------------------------------------|
G|-------------------------------------------|
D|-7----------------------7--9--10-----9-----|
A|-7----------------------7--9--10-------10--|
E|-5--5-5-5-5-5-5-5-5-5-5-5--7---8-8-8-------|

 (01:05)
e|--------------------------------------------------|
B|--------------------------------------------------|
G|--------------------------------------------------|
D|-9-------------7---------------7------------------|
A|-9-------------7----3---3-5-6--7----3---3-5-6-----|
E|-7--7-7-7-7-7--5--5---5--------5--5---5-----------|

 (01:09)
e|------------------------------------------------------------|
B|------------------------------------------------------------|
G|------------------------------------------------------------|
D|-10-----9-----9-------------7---------------7---------------|
A|-10-------10--9-------------7----3---3-5-6--7----3---3-5-6--|
E|--8-8-8-------7--7-7-7-7-7--5--5---5--------5--5---5--------|

 (01:15)
e|---------------------------------------------------------------------|
B|---------------------------------------------------------------------|
G|---------------------------------------------------------------------|
D|-10------------9---------------10------------12----------------------|
A|-10------------9---------------10------------12----------------------|
E|--8-8-8-8-8-8--7-7-7-7-7-7-7-7--8-8-8-8-8-8--10-10-10-10-10-10-10-10-|

 (01:21)
e|----------------------------------------------------|
B|----------------------------------------------------|
G|---------------------------------9-9-9-9-9-9-9-9-9--|
D|-10------------9-----------------9-9-9-9-9-9-9-9-9--|
A|-10------------9-----------------7-7-7-7-7-7-7-7-7--|
E|--8-8-8-8-8-8--7-7-7-7-7-7-7-7----------------------|

(guitarra y violin juntos 2 veces
y ya no se toca guitarra(riff1)

(01:27)
e|---------------------------------------------------|
B|---------------------------------------------------|
G|---------------------------------------------------|
D|---------------------------------------------------|
A|-------3---3--5--6-------3----3--5--6---------3----|
E|-5--5----5----------5--5---5------------5--5----5--|
 |                                                   |
e|-------8---8-10-11-------8----8-10-11---------8----|
B|-10-10--10---------10-10---10----------10-10----10-|
G|---------------------------------------------------|
D|---------------------------------------------------|
A|---------------------------------------------------|
E|---------------------------------------------------|


e|---------------------------------|
B|---------------------------------|
G|---------------------------------|
D|---------------------------------|
A|3-5--6--3--6--5-3--6--5-3--6-----|
E|---------------------------------|
 |                                 |
e|8-10-11-8-11-10-8-11-10-8-11-----|
B|---------------------------------|
G|---------------------------------|
D|---------------------------------|
A|---------------------------------|
E|---------------------------------|


 (01:39)                  4x
e|-------------------------|
B|-------------------------|
G|-------------------------|
D|-7-----7-----7-----------|
A|-7-----7-----7-----3-5-6-|
E|-5-5-5-5-5-5-5-5-5-------|

 (01:51)                         3x
e|--------------------------------|
B|--------------------------------|
G|--------------------------------|
D|-7------------------------------|
A|-7----------------------3-5-6---|
E|-5--5-5-5-5-5-5-5-5-5-5---------|

 (02:00)
e|-------------------------------------------|
B|-------------------------------------------|
G|-------------------------------------------|
D|-7----------------------7--9--10-----9-----|
A|-7----------------------7--9--10-------10--|
E|-5--5-5-5-5-5-5-5-5-5-5-5--7---8-8-8-------|

 (02:05)
e|--------------------------------------------------|
B|--------------------------------------------------|
G|--------------------------------------------------|
D|-9-------------7---------------7------------------|
A|-9-------------7----3---3-5-6--7----3---3-5-6-----|
E|-7--7-7-7-7-7--5--5---5--------5--5---5-----------|

 (02:09)
e|------------------------------------------------------------|
B|------------------------------------------------------------|
G|------------------------------------------------------------|
D|-10-----9-----9-------------7---------------7---------------|
A|-10-------10--9-------------7----3---3-5-6--7----3---3-5-6--|
E|--8-8-8-------7--7-7-7-7-7--5--5---5--------5--5---5--------|

 (02:15)
e|---------------------------------------------------------------------|
B|---------------------------------------------------------------------|
G|---------------------------------------------------------------------|
D|-10------------9---------------10------------12----------------------|
A|-10------------9---------------10------------12----------------------|
E|--8-8-8-8-8-8--7-7-7-7-7-7-7-7--8-8-8-8-8-8--10-10-10-10-10-10-10-10-|

 (02:21)
e|----------------------------------------------------|
B|----------------------------------------------------|
G|---------------------------------9-9-9-9-9-9-9-9-9--|
D|-10------------9-----------------9-9-9-9-9-9-9-9-9--|
A|-10------------9-----------------7-7-7-7-7-7-7-7-7--|
E|--8-8-8-8-8-8--7-7-7-7-7-7-7-7----------------------|

ahora entra el bajo con la bateria (02:25)
e|-------------------|
B|-------------------|
G|-------------------|
D|-------------------|
A|-------------------|
E|--5-5-5-5-5-5-5-5--|

despues el violin (02:29)
e|--------------10-12--12-10--------------------10-12-10----10------|
B|-10--10-12-13--------------13-12--------12-13----------13----13-12|
G|---------------------------------12--12---------------------------|
D|------------------------------------------------------------------|
A|------------------------------------------------------------------|
E|------------------------------------------------------------------|

 (02:32)
e|--------------10-12--12-10--------------------------|
B|-10--10-12-13--------------13-12-----12--13--15-----|
G|---------------------------------12-----------------|
D|----------------------------------------------------|
A|----------------------------------------------------|
E|----------------------------------------------------|

 (02:36)
e|--------------10-12--12-10--------------------10-12-10----10------|
B|-10--10-12-13--------------13-12--------12-13----------13----13-12|
G|---------------------------------12--12---------------------------|
D|------------------------------------------------------------------|
A|------------------------------------------------------------------|
E|------------------------------------------------------------------|

 (02:39)
e|--------------10-12--12-10--------------------------|
B|-10--10-12-13--------------13-12-----12--13--15-----|
G|---------------------------------12-----------------|
D|----------------------------------------------------|
A|----------------------------------------------------|
E|----------------------------------------------------|

aqui entra la guitarra con el violin (02:42)
e|--------------15-17--17-15--------------------15-17-15----15------|
B|-15--15-17-18--------------18-17--------17-18----------18----18-17|
G|---------------------------------17--17---------------------------|
D|------------------------------------------------------------------|
A|------------------------------------------------------------------|
E|------------------------------------------------------------------|
 |                                                                  |
e|------------------------------------------------------------------|
B|------------------------------------------------------------------|
G|-7---------------------------------5------------------------------|
D|-7----------------7----------------5----------------5-------------|
A|-5----5-5-5-5-----7----------------3----3-3-3-3-----5-------------|
E|------------------5----5-5-5-5----------------------3----3-3-3-3--|

 (02:46)
e|--------------15-17--17-15--------------------------|
B|-15--15-17-18--------------18-17----17--18--20------|
G|---------------------------------17-----------------|
D|----------------------------------------------------|
A|----------------------------------------------------|
E|----------------------------------------------------|
 |                                                    |
e|----------------------------------------------------|
B|----------------------------------------------------|
G|-7--------------------------------5--9--10---12-----|
D|-7----------------7---------------5--9--10---12-----|
A|-5----5-5-5-5-----7---------------3--7---8---10-----|
E|------------------5----5-5-5-5----------------------|

 (02:49)
e|--------------15-17--17-15--------------------15-17-15----15------|
B|-15--15-17-18--------------18-17--------17-18----------18----18-17|
G|---------------------------------17--17---------------------------|
D|------------------------------------------------------------------|
A|------------------------------------------------------------------|
E|------------------------------------------------------------------|
 |                                                                  |
e|------------------------------------------------------------------|
B|------------------------------------------------------------------|
G|-7---------------------------------5------------------------------|
D|-7----------------7----------------5----------------5-------------|
A|-5----5-5-5-5-----7----------------3----3-3-3-3-----5-------------|
E|------------------5----5-5-5-5----------------------3----3-3-3-3--|

 (02:53)
e|--------------15-17--17-15--------------------------|
B|-15--15-17-18--------------18-17----17--18--20------|
G|---------------------------------17-----------------|
D|----------------------------------------------------|
A|----------------------------------------------------|
E|----------------------------------------------------|
 |                                                    |
e|----------------------------------------------------|
B|----------------------------------------------------|
G|-7--------------------------------5--9--10---12-----|
D|-7----------------7---------------5--9--10---12-----|
A|-5----5-5-5-5-----7---------------3--7---8---10-----|
E|------------------5----5-5-5-5----------------------|

 (02:56)
e|--------------10-12--12-10--------------------10-12-10----10------|
B|-10--10-12-13--------------13-12--------12-13----------13----13-12|
G|---------------------------------12--12---------------------------|
D|------------------------------------------------------------------|
A|------------------------------------------------------------------|
E|------------------------------------------------------------------|
 |                                                                  |
e|------------------------------------------------------------------|
B|------------------------------------------------------------------|
G|------------------9---------------------------------7-------------|
D|-7----------------9----------------5----------------7-------------|
A|-7----------------7----7-7-7-7-----5----------------5----5-5-5-5-5|
E|-5----5-5-5-5----------------------3----3-3-3-3-------------------|

 (03:00)
e|--------------10-12--12-10--------------------------|
B|-10--10-12-13--------------13-12-----12--13--15-----|
G|---------------------------------12-----------------|
D|----------------------------------------------------|
A|----------------------------------------------------|
E|----------------------------------------------------|
 |                                                    |
e|----------------------------------------------------|
B|----------------------------------------------------|
G|------------------9-------------------4--5--7-------|
D|-7----------------9---------------5---4--5--7-------|
A|-7----------------7----7-7-7-7----5---2--3--5-------|
E|-5----5-5-5-5---------------------3-----------------|

 (03:03)
e|--------------10-12--12-10--------------------10-12-10----10------|
B|-10--10-12-13--------------13-12--------12-13----------13----13-12|
G|---------------------------------12--12---------------------------|
D|------------------------------------------------------------------|
A|------------------------------------------------------------------|
E|------------------------------------------------------------------|
 |                                                                  |
e|------------------------------------------------------------------|
B|------------------------------------------------------------------|
G|------------------9---------------------------------7-------------|
D|-7----------------9----------------5----------------7-------------|
A|-7----------------7----7-7-7-7-----5----------------5----5-5-5-5-5|
E|-5----5-5-5-5----------------------3----3-3-3-3-------------------|

 (03:06)
e|--------------10-12--12-10--------------------------|
B|-10--10-12-13--------------13-12-----12--13--15-----|
G|---------------------------------12-----------------|
D|----------------------------------------------------|
A|----------------------------------------------------|
E|----------------------------------------------------|
 |                                                    |
e|----------------------------------------------------|
B|----------------------------------------------------|
G|------------------9-------------------4--5--7-------|
D|-7----------------9---------------5---4--5--7-------|
A|-7----------------7----7-7-7-7----5---2--3--5-------|
E|-5----5-5-5-5---------------------3-----------------|


solo de guitarra (03:10)
e|--------------------13----------------------|
B|-15~--15~--13-15-17----17-15-13-15-17-15~---|
G|--------------------------------------------|
D|--------------------------------------------|
A|--------------------------------------------|
E|--------------------------------------------|
 |                                            |
e|--------------------------------------------|
B|--------------------------------------------|
G|-7---------5--------------------------------|
D|-7----7----5---------5----------------------|
A|-555557----3-3-3-3-3-5----------------------|
E|------55555----------3-3-3-3-3--------------|


e|-17-15-13-15-13-12-13-12----------------------|
B|-------------------------15-13-15-17-17b18r17-|
G|----------------------------------------------|
D|----------------------------------------------|
A|----------------------------------------------|
E|----------------------------------------------|
 |                                              |
e|----------------------------------------------|
B|----------------------------------------------|
G|-7------------------------------5-------------|
D|-7-----------7------------------5-------------|
A|-5-5-5-5-5---7------------------3-3-3-3-3-----|
E|-------------5-5-5-5-5------------------------|



 (03:15)
e|----------------------------------------10------------------------|
B|-15-13-15~----12h13-12----12~--10-12-13----13-12-13-12-10-12-10/8~|
G|-----------------------14-----------------------------------------|
D|------------------------------------------------------------------|
A|------------------------------------------------------------------|
E|------------------------------------------------------------------|
 |                                                                  |
e|------------------------------------------------------------------|
B|------------------------------------------------------------------|
G|--------------7-------------------5-------------------------------|
D|--------------7---------7---------5-------------5-----------------|
A|-3------------5-5-5-5-5-7---------3-3-3-3-3-----5-----------------|
E|-1-1-1-1----------------5-5-5-5-5---------------3-3-3-3-3---------|

 (03:19) va rapido
e|-----------------------------------------------------|
B|-10--13-12-10----------------------------------------|
G|--------------12-10----------------------------------|
D|---------------------14-12-10------------------------|
A|------------------------------14-12-10---------------|
E|---------------------------------------13-12-10-12-13|
 |                                                     |
e|-----------------------------------------------------|
B|-----------------------------------------------------|
G|-7-------------------------------------5-------------|
D|-7-------------------7-----------------5-------------|
A|-5--5--5--5--5-------7-----------------3--3--3--3--3-|
E|---------------------5--5--5--5--5-------------------|

e|------------------------------------|
B|------------------------------------|
G|------------------10h12-10-9--9h10~-|
D|---------10-12-14-------------------|
A|10-12-14----------------------------|
E|------------------------------------|
 |                                    |
e|------------------------------------|
B|------------------------------------|
G|------------------------------------|
D|----3-------------------------------|
A|----3-------------------------------|
E|----1--1--1--1--1-------------------|

aqui el violin y la guitarra tocan lo mismo
y la segunda guitarra los acordes (03:23)
e|--------------13-15--15-13--------------------13-15-13----13------|
B|-13--13-15-17--------------17-15--------15-17----------17----17-15|
G|---------------------------------16--16---------------------------|
D|------------------------------------------------------------------|
A|------------------------------------------------------------------|
E|------------------------------------------------------------------|
 |                                                                  |
e|------------------------------------------------------------------|
B|------------------------------------------------------------------|
G|------------------9---------------------------------7-------------|
D|-7----------------9----------------5----------------7-------------|
A|-7----------------7----7-7-7-7-----5----------------5----5-5-5-5-5|
E|-5----5-5-5-5----------------------3----3-3-3-3-------------------|

 (03:26)
e|--------------13-15--15-13--------------------------|
B|-13--13-15-17--------------17-15----15--17--18------|
G|---------------------------------16-----------------|
D|----------------------------------------------------|
A|----------------------------------------------------|
E|----------------------------------------------------|
 |                                                    |
e|----------------------------------------------------|
B|----------------------------------------------------|
G|------------------9---------------------------------|
D|-7----------------9---------------5-----------5-----|
A|-7----------------7----7-7-7-7----5-----------5-----|
E|-5----5-5-5-5---------------------3-3-3-3-3---3-3333|

 (03:29)
e|--------------13-15--15-13--------------------13-15-13----13------|
B|-13--13-15-17--------------17-15--------15-17----------17----17-15|
G|---------------------------------16--16---------------------------|
D|------------------------------------------------------------------|
A|------------------------------------------------------------------|
E|------------------------------------------------------------------|
 |                                                                  |
e|------------------------------------------------------------------|
B|------------------------------------------------------------------|
G|------------------9----------------------------------7------------|
D|--7----7----7-----9---------------5-----5-----5------7------------|
A|--7----7----7-----7---------------5-----5-----5------5------------|
E|--5----5----5---------------------3-----3-----3-------------------|

 (03:33)
e|--------------13-15--15-13--------------------------|
B|-13--13-15-17--------------17-15----15--17--15------|
G|---------------------------------16-----------------|
D|----------------------------------------------------|
A|----------------------------------------------------|
E|----------------------------------------------------|
 |                                                    |
e|----------------------------------------------------|
B|----------------------------------------------------|
G|-----------------9-------------------4--5--4--------|
D|-7----7-----7----9----------------5--4--5--4--------|
A|-7----7-----7----7----------------5--2--3--2--------|
E|-5----5-----5---------------------3-----------------|

todo esto se toca con palm mute
(en la tercera vez entra la 2da guitarra tocando lo mismo) (03:37) 3x
e|------------------------------------------------------------------|
B|------------------------------------------------------------------|
G|------------------------------------------------------------------|
D|------------------------------------------------------------------|
A|------------------------------------------------------------------|
E|-5-5-5-3-5-5-5-3-5-5-5-3-5-5-7-7-8-8-8-7-8-8-8-7-8-8-8-7-8-10-8-7-|

 (03:55)
e|----------------------------------------------------------------------|
B|----------------------------------------------------------------------|
G|----------------------------------------------------------------------|
D|--------------------------------------------------------7-9--10----9--|
A|--------------------------------------------------------7-9--10-----10|
E|-5-5-5-3-5-5-5-3-5-5-5-3-5-5-7-7-8-8-8-7-8-8-8-7-8-8-8--5-7---8-8-8---|

 (04:02)
e|--------------------------------------------------|
B|--------------------------------------------------|
G|--------------------------------------------------|
D|-9-------------7---------------7------------------|
A|-9-------------7----3---3-5-6--7----3---3-5-6-----|
E|-7--7-7-7-7-7--5--5---5--------5--5---5-----------|

 (04:07)
e|------------------------------------------------------------|
B|------------------------------------------------------------|
G|------------------------------------------------------------|
D|-10-----9-----9-------------7---------------7---------------|
A|-10-------10--9-------------7----3---3-5-6--7----3---3-5-6--|
E|--8-8-8-------7--7-7-7-7-7--5--5---5--------5--5---5--------|

 (04:13)
e|--------------------------------------------------------------------|
B|--------------------------------------------------------------------|
G|--------------------------------------------------------------------|
D|-10------------9---------------10------------12---------------------|
A|-10------------9---------------10------------12---------------------|
E|--8-8-8-8-8-8--7-7-7-7-7-7-7-7--8-8-8-8-8-8--10-10-10-10-10-10-10-10|

 (04:19)
e|--------------------------------------------------------------------|
B|--------------------------------------------------------------------|
G|---------------------------------9-9-9-9-9-9------------------------|
D|-10------------9-----------------9-9-9-9-9-9----7--9--10-----9------|
A|-10------------9-----------------7-7-7-7-7-7----7--9--10-------10---|
E|--8-8-8-8-8-8--7-7-7-7-7-7-7-7------------------5--7---8-8-8--------|

 (04:26)
e|--------------------------------------------------|
B|--------------------------------------------------|
G|--------------------------------------------------|
D|-9-------------7---------------7------------------|
A|-9-------------7----3---3-5-6--7----3---3-5-6-----|
E|-7--7-7-7-7-7--5--5---5--------5--5---5-----------|

 (04:30)
e|------------------------------------------------------------|
B|------------------------------------------------------------|
G|------------------------------------------------------------|
D|-10-----9-----9-------------7---------------7---------------|
A|-10-------10--9-------------7----3---3-5-6--7----3---3-5-6--|
E|--8-8-8-------7--7-7-7-7-7--5--5---5--------5--5---5--------|

 (04:36)
e|--------------------------------------------------------------------|
B|--------------------------------------------------------------------|
G|--------------------------------------------------------------------|
D|-10------------9---------------10------------12---------------------|
A|-10------------9---------------10------------12---------------------|
E|--8-8-8-8-8-8--7-7-7-7-7-7-7-7--8-8-8-8-8-8--10-10-10-10-10-10-10-10|

 (04:42)
e|----------------------------------------------------|
B|----------------------------------------------------|
G|---------------------------------9-9-9-9-9-9-9-9-9--|
D|-10------------9-----------------9-9-9-9-9-9-9-9-9--|
A|-10------------9-----------------7-7-7-7-7-7-7-7-7--|
E|--8-8-8-8-8-8--7-7-7-7-7-7-7-7----------------------|

terminacion atras de esto esta el bajo con el intro
 (04:48)         (04:51)         (04:54)
e|-------------------------------------|
B|-------------------------------------|
G|-------------------------------------|
D|-7--------------7---------------7----|
A|-7--------------7---------------7----|
E|-5--------------5---------------5----|

 (04:59) termina
comments
We did not receive enough feedback on this tab! Please rate:
print report bad tab
1 2 3 4 5
I want to post or [tab]
guest
You may want to rate the tab now too:
select rating
Please do not post tabs as comments. Select "correction" instead!