Oops, an error
Loading. Please wait.

A Meeting Of The Spirits Tab

11,126 views 33 this week
no commentswrite comment
1 2 3 4 5
excellent!
x 5
Autoscroll
+/-
esc
set tempo
stop
Contributor
WARNING: You are trying to view
                                    content from Ultimate-Guitar.com
                                    in an unauthorized application,
                                    which is prohibited.

                                    Please use an official Ultimate
                                    Guitar Tabs application for iPhone,
                                    iPad or Android to access legitimate
                                    chords, guitar, bass, and drum tabs
                                    from Ultimate-Guitar.com database.

                                    Type "ultimate guitar tabs" in Apple
                                    App Store's or Android Market's
                                    search to find the application.
*i take no credit for this people just need to see it*  
MEETING OF THE SPIRITS
           As recorded by John McLaughlin and The Mahavishnu Orchestra
                 (From the 1973 Album THE INNER MOUNTING FLAME)

Words by -N/A-

Music by John McLaughlin
Arranged by John McLaughlin
Transcribed by Christopher D. Cuppan

       Fm/maj7+5           F#m/maj7+5              C#7+9              Cmaj7+9/B
      x x 3 1 2 0          x x 4 2 3 1          x 4 3 4 5 4          7 7 5 5 4 x

       Gmaj13+5             Fmaj7+5/E           F#maj7+5/F             A11sus2
      3 3 2 4 4 2          x 7 x 6 6 5          x 8 x 7 7 6          x 0 5 4 3 x

        G11sus2            Em6add9/F#            F#7sus4/G            Dm6add9/A
      3 x x 2 1 1          2 x 4 0 2 0          3 x 4 4 2 0          7 0 0 x 6 0

       D6sus2/A
      7 0 0 x x 0

Gtr I (E A D G B E) - 'John McLaughlin Guitar (6 & 12)'
Gtr II (E A D G B E) - 'Jerry Goodman Violin'
Gtr III (E A D G B E) - 'Jan Hammer Keyboard - Grand Staff (upper)'

 Introduction
  Rubato (Freely) Q=100
  Fm/maj7+5          F#m/maj7+5         C#7+9
 6/4
  Gtr I
  W        +Q.   E   W        +Q.   E   W        +Q.   E
|-0--------(0)-----|-1--------(1)-----|-4--------(4)------|
|-2--------(2)-----|-3--------(3)-----|-5--------(5)------|
|-1--------(1)-----|-2--------(2)-----|-4--------(4)------|
|-3--------(3)-----|-4--------(4)-----|-3--------(3)------|
|------------------|------------------|-4--------(4)------|
|------------------|------------------|-------------------|


  Cmaj7+9/B       Gmaj13+5          Fmaj7+5/E F#maj7+5/F
 6/4
  W.                W.                H.        H.
|---------------|---2-------------|---5---------7-----|
|-4-------------|---4-------------|---6---------8-----|
|-5-------------|---4-------------|---5---------7-----|
|-5-------------|---2-------------|-------------------|
|-7-------------|---3-------------|---7---------8-----|
|-7-------------|---3-------------|-------------------|
|
| Gtrs I, II
|                   TP                TP        TP
| W                 W.                H.        H.
|---------------|-----------------|-----------/10-----|
|---------------|-----------------|-/10---------------|
|---------------|-/11-------------|-------------------|
|---------------|-----------------|-------------------|
|---------------|-----------------|-------------------|
|---------------|-----------------|-------------------|


                       A11sus2              G11sus2
 6/4
                                             >
  +W         +Q.   E    W.                   W.
|-(7)--------(7)-----|--------------------|--1---------------||
|-(8)--------(8)-----|--3-----------------|--1---------------||
|-(7)--------(7)-----|--4-----------------|--2---------------||
|--------------------|--5-----------------|------------------||
|-(8)--------(8)-----|--0-----------------|------------------||
|--------------------|--------------------|--3---------------||
|
|                                            >
|  TP                   TP   TP  TP          TP         TP
|  W.                   Q    Q   W           W          H
|-10-----------------|-10---10S=22--------|-22---------22----||
|--------------------|--------------------|------------------||
|--------------------|--------------------|------------------||
|--------------------|--------------------|------------------||
|--------------------|--------------------|------------------||
|--------------------|--------------------|------------------||


 Phrygian Chant
  Moderate Fusion Rock Q=176
  Em6add9/F#                F#7sus4/G
 6/4
  Gtr I
  <
  E E E E E E E E E E E E   E E E E E E E E E E E E
|---------0---------0-----|---------0---------0-----|
|-----2---------2---------|-----2---------2---------|
|-------0---------0-------|-------4---------4-------|
|---4---------4-----------|---4---------4-----------|
|-------------------------|-------------------------|
|-2---------2---------2-0-|-3---------3---------3-0-|


    Em6add9/F#                F#7sus4/G
   6/4
    E E E E E E E E E E E E   E E E E E E E E E E E E  5x
||----------0---------0-----|---------0---------0------||
||o-----2---------2---------|-----2---------2---------o||
||--------0---------0-------|-------4---------4--------||
||----4---------4-----------|---4---------4------------||
||o-------------------------|-------------------------o||
||--2---------2---------2-0-|-3---------3---------3-0--||


    Em6add9/F#                      F#7sus4/G
   6/4
     E E E E  E  E E E  E   E E E    E  E E E  E  E E E  E  E E E   3x
||------------0-------------0-----|------------0------------0-------||
||o------2-----------2------------|-------2-----------2------------o||
||---------0------------0---------|---------4------------4----------||
||-----4-----------4--------------|-----4-----------4---------------||
||o-------------------------------|--------------------------------o||
||---2-----------2------------2-0-|--3------------3-----------3-0---||
|
|   Gtr II
|          ~~~~~~    ~~~~~~     ~~~~~~~~    ~~~~~~    ~~~~~~
|    E E E E +E  E E E +E   E E E   +E  E E E +E  E E E +E  E E E   3x
||-------------------5-(5)--------|---------------------------------||
||o-/7-5---8-(8)-7-5-------/8-7-8-|-(8)-7-5-7-(7)-5---5-(5)--------o||
||-------7-----------2-(2)--------|-----------------7-------7-6-4\--||
||--/4-2---5-(5)-4-2-------/5-4-5-|-(5)-4-2-4-(4)-2---2-(2)---------||
||o------5------------------------|-----------------5-------5-4-2\-o||
||--------------------------------|---------------------------------||


  Em6add9/F#                      F#7sus4/G
 6/4
   E E E E  E  E E E  E   E E E    E  E E E  E  E E E  E  E E   E
|-----------0-------------0-----|------------0------------0--------||
|------2-----------2------------|-------2-----------2--------------||
|--------0------------0---------|---------4------------4-----------||
|----4-----------4--------------|-----4-----------4----------------||
|-------------------------------|----------------------------------||
|--2-----------2------------2-0-|--3------------3-----------3---0--||
|
| Gtr II
|        ~~~~~~    ~~~~~~     ~~~~~~~~    ~~~~~~    ~~~~~~
|  E E E E +E  E E E +E   E E E   +E  E E E +E  E E E +E  E E   E
|------------------5-(5)--------|----------------------------------||
|-/7-5---8-(8)-7-5-------/8-7-8-|-(8)-7-5-7-(7)-5---5-(5)----------||
|------7-----------2-(2)--------|-----------------7-------7-6---4\-||
|-/4-2---5-(5)-4-2-------/5-4-5-|-(5)-4-2-4-(4)-2---2-(2)----------||
|------5------------------------|-----------------5-------5-4---2\-||
|-------------------------------|----------------------------------||
|
| Gtr I
|  W                               W                   Q.       E
|-------------------------------|----------------------------------||
|-------------------------------|----------------------------------||
|-------------------------------|-----------------------------/14--||
|-------------------------------|----------------------------------||
|-------------------------------|----------------------------------||
|-------------------------------|----------------------------------||


 Theme 1
  Em6add9/F#                            F#7sus4/G
 6/4
  Gtr I
                                  ~~~~~~~~~~~~~~~~~~~~~~~~~~~~~~~~
   E  E  E  E  Q     E  E  E   E  Q      +W                   +H
|-------------------------------------|----------------------------------|
|-14-17-17-14-17----14-17-----14-17---|-(17)-----------------(17)--------|
|-------------------------------------|----------------------------------|
|-------------------------------------|----------------------------------|
|-------------------------------------|----------------------------------|
|-------------------------------------|----------------------------------|
|
|           ~~~~~~      ~~~~~~      ~~~~~~~~~    ~~~~~~    ~~~~~~~
|  E  E  E  E +E  E  E  E +E   E  E E    +E  E E E +E  E E E  +E  E E E
|-----------------------5-(5)---------|----------------------------------|
|-/7--5-----8-(8)-7--5--------/8--7-8-|--(8)-7-5-7-(7)-5---5--(5)--------|
|--------7--------------2-(2)---------|------------------7--------7-6-4\-|
|-/4--2-----5-(5)-4--2--------/5--4-5-|--(5)-4-2-4-(4)-2---2--(2)--------|
|--------5----------------------------|------------------5--------5-4-2\-|
|-------------------------------------|----------------------------------|


  Em6add9/F#
   E  E  E  E  Q     E  E  E   E  Q
|-----------------------------------------|
|-14-17-17-14-17----14-17-----14-17b19----|
|-----------------------------------------|
|-----------------------------------------|
|-----------------------------------------|
|-----------------------------------------|
|
|           ~~~~~~      ~~~~~~         ~
|  E  E  E  E +E  E  E  E +E   E  E    E
|-----------------------5-(5)-------------|
|-/7--5-----8-(8)-7--5--------/8--7----8--|
|--------7--------------2-(2)-------------|
|-/4--2-----5-(5)-4--2--------/5--4----5--|
|--------5--------------------------------|
|-----------------------------------------|


  F#7sus4/G                        Em6add9/F#
 6/4
   ~~~~~~~~~~~~~~~~~~~~~~~                                         ~~~~~
   W                  +H            E  E  E  E  Q     E  E  E   E  Q
|--------------------------------|-------------------------------------|
|-17-----------------(17)--------|-14-17-17-14-17----14-17-----14-17---|
|--------------------------------|-------------------------------------|
|--------------------------------|-------------------------------------|
|--------------------------------|-------------------------------------|
|--------------------------------|-------------------------------------|
|
|  ~~    ~~~~~~    ~~~~~~~                   ~~~~~~      ~~~~~~      ~~~
|  E E E E +E  E E E  +E  E E E     E  E  E  E +E  E  E  E +E   E  E E
|--------------------------------|-----------------------5-(5)---------|
|--8-7-5-7-(7)-5---5--(5)--------|-/7--5-----8-(8)-7--5--------/8--7-8-|
|----------------7--------7-6-4\-|--------7--------------2-(2)---------|
|--5-4-2-4-(4)-2---2--(2)--------|-/4--2-----5-(5)-4--2--------/5--4-5-|
|----------------5--------5-4-2\-|--------5----------------------------|
|--------------------------------|-------------------------------------|


  F#7sus4/G
 ~~~~~~~~~~~~~~~~~~~~~~~~~~~
   +W                   +H
|-----------------------------------|
|-(17)-----------------(17)---------|
|-----------------------------------|
|-----------------------------------|
|-----------------------------------|
|-----------------------------------|
|
|~~~~~~    ~~~~~~    ~~~~~~~
|  +E  E E E +E  E E E  +E  E E E
|-----------------------------------|
|--(8)-7-5-7-(7)-5---5--(5)---------|
|------------------7--------7-6-4\--|
|--(5)-4-2-4-(4)-2---2--(2)---------|
|------------------5--------5-4-2\--|
|-----------------------------------|


  Em6add9/F#
 6/4
                                  ~~~~~~~~~
   E  E  E  E  Q     E  E  E   E  Q
|--------------------------------17b19====|
|-14-17-17-14-17----14-17-----14----------|
|-----------------------------------------|
|-----------------------------------------|
|-----------------------------------------|
|-----------------------------------------|
|
|           ~~~~~~      ~~~~~~          ~~~
|  E  E  E  E +E  E  E  E +E   E  E     E
|-----------------------5-(5)-------------|
|-/7--5-----8-(8)-7--5--------/8--7-----8-|
|--------7--------------2-(2)-------------|
|-/4--2-----5-(5)-4--2--------/5--4-----5-|
|--------5--------------------------------|
|-----------------------------------------|


  F#7sus4/G
 ~~~~~~
   +H.              +H            Q
|-(17)-------------(17)r\--------------||
|--------------------------------------||
|--------------------------------------||
|--------------------------------------||
|--------------------------------------||
|--------------------------------------||
|
|~~~~~~    ~~~~~~         ~~~~~~
|  +E  E E E +E  E   E    E +E  E E E
|--------------------------------------||
|--(8)-7-5-7-(7)-5--------5-(5)--------||
|--------------------7----------7-6-4\-||
|--(5)-4-2-4-(4)-2--------2-(2)--------||
|--------------------5----------5-4-2\-||
|--------------------------------------||


 Guitar Solo 1
  Em6add9/F#
 6/4
   ~~~~~~~~~~~~~~~
   H           Q     S  S  S  S  S   E.    S  S  S  S
|-----------------------------------------------------|
|-17b19-------17----17----------14--17----------14-17-|
|----------------------14-15-16--------------14-------|
|-----------------------------------------------------|
|-----------------------------------------------------|
|-----------------------------------------------------|
|
|           ~~~~~~         ~~~~~~~~~             ~~~~~~
|  E    E E E +E  E  E     E    +E       E E     E
|--------------------------5----(5)-------------------|
|-/7----5---8-(8)-7--5------------------/8-7-----8----|
|---------7----------------2----(2)-------------------|
|-/4----2---5-(5)-4--2------------------/5-4-----5----|
|---------5-------------------------------------------|
|-----------------------------------------------------|


  F#7sus4/G
   ~~~~~                     ~~
   H           Q    Q.       Q.
|------------------------------------|
|-17b19------------------------------|
|------------------------------------|
|-------------------7--------9-------|
|-------------------5--------7-------|
|-------------------5--------7-------|
|
|~~~~~~~    ~~~~~~     ~~~~~~
| +E    E E E +E  E E  E +E  E  E E
|------------------------------------|
|-(8)---7-5-7-(7)-5----5-(5)---------|
|-------------------7--------7--6-4\-|
|-(5)---4-2-4-(4)-2----2-(2)---------|
|-------------------5--------5--4-2\-|
|------------------------------------|


  Em6add9/F#                        F#7sus4/G
 6/4
                              ~~
   E Q.      Q    E Q.        Q      E   E  E  E  E   E E  E  E   E  E  E
|-------------------5S=======12---|--9--12-12------------------------------|
|-----------------7---------------|-----------10-12--12--------------------|
|--7-9\---------------------------|---------------------9-11-11------------|
|--7-9\---------------------------|------------------------------12-14-14--|
|--5-7\---------------------------|----------------------------------------|
|---------------------------------|----------------------------------------|
|
|         ~~~~~~    ~~~~~~      ~~~~~~~~       ~~~~~~      ~~~~~~
|  E E  E E +E  E E E +E   E  E E   +E   E  E  E +E   E E  E +E   E  E  E
|-------------------5-(5)---------|----------------------------------------|
|-/7-5----8-(8)-7-5-------/8--7-8-|-(8)--7--5--7-(7)--5----5-(5)-----------|
|-------7-----------2-(2)---------|---------------------7---------7--6--4\-|
|-/4-2----5-(5)-4-2-------/5--4-5-|-(5)--4--2--4-(4)--2----2-(2)-----------|
|-------5-------------------------|---------------------5---------5--4--2\-|
|---------------------------------|----------------------------------------|


  Em6add9/F#
 6/4
                            ~~~
   E  E  E  E  E   E  E  E  H
|-------------------------------------|
|-------------------------------------|
|-------------------------------------|
|-------------------------------------|
|-12-14-14----------------------------|
|----------12-14--14-17-19-17---------|
|
|           ~~~~~~       ~~~~~~     ~~~
|  E  E  E  E +E   E  E  E +E   E E E
|------------------------5-(5)--------|
|-/7--5-----8-(8)--7--5--------/8-7-8-|
|--------7---------------2-(2)--------|
|-/4--2-----5-(5)--4--2--------/5-4-5-|
|--------5----------------------------|
|-------------------------------------|


  F#7sus4/G
                                                           TP
   S   S  S  S  S  S  S  S  S   Q          S  S  S  S   S  Q        E
|------------------------------------------------------15-17b19====17r-|
|--------------------------------------------15-17-19------------------|
|------------------------------14tr16-----18---------------------------|
|--------------------14-16-17------------------------------------------|
|-----------14-16-17---------------------------------------------------|
|-14--15-17------------------------------------------------------------|
|
|~~~~~                ~~~~~~~~~               ~~~~~~~~~
| +E      E     E     E    +E         E E     E    +E      E     E  E
|----------------------------------------------------------------------|
|-(8)-----7-----5-----7----(7)--------5-------5----(5)-----------------|
|---------------------------------------7------------------7-----6--4\-|
|-(5)-----4-----2-----4----(4)--------2-------2----(2)-----------------|
|---------------------------------------5------------------5-----4--2\-|
|----------------------------------------------------------------------|


  Em6add9/F#
 6/4
   TP           TP           TP           TP           TP        ~~~~
   |---3----|   |---3----|   |---3----|   |---3----|   |----3----|
   Q        E   Q        E   Q        E   Q        E   Q         H
|-17------(17)-17------(17)-17------(17)-17------(17)-17-------(17)-----|
|-17b19r===17--17b20r===17--17b21r===17--17b20r===17--17b19r====17------|
|-----------------------------------------------------------------------|
|-----------------------------------------------------------------------|
|-----------------------------------------------------------------------|
|-----------------------------------------------------------------------|
|
|                    ~~~~~~~~~~~~~~            ~~~~~~~~~~~~~~         ~~~
|  E    E       E    E      +E    E       E    E      +E     E      E E
|----------------------------------------------5------(5)---------------|
|-/7----5------------8------(8)---7-------5-----------------/8------7-8-|
|---------------7------------------------------2------(2)---------------|
|-/4----2------------5------(5)---4-------2-----------------/5------4-5-|
|---------------5-------------------------------------------------------|
|-----------------------------------------------------------------------|


  F#7sus4/G
   S       S  S  S  S  S  S       S  S   S  S  S  S       S  S  S  S   S  S       S  S  S  S   S
|------------------------------------------------------------------------------------------------|
|-17b17.5-15-------------17b17.5-15--------------17b17.5-15--------------17b17.5-15--------------|
|------------18-16-14-16------------18--16-14-16------------18-16-14--16------------18-16-14--16-|
|------------------------------------------------------------------------------------------------|
|------------------------------------------------------------------------------------------------|
|------------------------------------------------------------------------------------------------|
|
|~~~~~~~~~                ~~~~~~~~~~~~~~                     ~~~~~~~~~
| +E          E     E     E         +E      E     E          E    +E      E          E     E
|------------------------------------------------------------------------------------------------|
|-(8)---------7-----5-----7---------(7)-----5----------------5----(5)----------------------------|
|-------------------------------------------------7-----------------------7----------6-----4\----|
|-(5)---------4-----2-----4---------(4)-----2----------------2----(2)----------------------------|
|-------------------------------------------------5-----------------------5----------4-----2\----|
|------------------------------------------------------------------------------------------------|


  Em6add9/F#
 6/4
   S       S  S  S  S  S  S  S  S   S  S  S  S  E.    H
|---------------------------------------------------------------|
|-17b17.5-15----------------------------------------------------|
|------------18-16-14-------------------------------------------|
|---------------------17-16-14-----------------------16\--------|
|------------------------------17--16-14-------------16\--------|
|----------------------------------------17-15-14----14\--------|
|
|                         ~~~~~~~~~                ~~~~~~     ~~~
|  E          E     E     E    +E      E     E     E +E   E E E
|--------------------------------------------------5-(5)--------|
|-/7----------5-----------8----(8)-----7-----5-----------/8-7-8-|
|-------------------7------------------------------2-(2)--------|
|-/4----------2-----------5----(5)-----4-----2-----------/5-4-5-|
|-------------------5-------------------------------------------|
|---------------------------------------------------------------|


  F#7sus4/G
        ~~
   Q    H         S S S S  S  S S S S S S  S
|---------------------------------------------|
|---------------------------------------------|
|-------------------------------------3-4--6--|
|--9\---4-----------------------2-4-5---------|
|--9\---4---------------2--4--5---------------|
|--7\---2S========0-2-5-----------------------|
|
|~~~~~    ~~~~~~      ~~~~~~~~
| +E  E E E +E  E E   E   +E    E   E   E
|---------------------------------------------|
|-(8)-7-5-7-(7)-5-----5---(5)-----------------|
|-----------------7-------------7---6---4\----|
|-(5)-4-2-4-(4)-2-----2---(2)-----------------|
|-----------------5-------------5---4---2\----|
|---------------------------------------------|


     Em6add9/F#
 6/4
   S S S  S S S  S S  S  S  S  S S  S       S  S  S  S  S S S  S S S
|--------------------------------7-10b10.5---------------------------|
|-----------------------------10-----------10----------------------7-|
|---------------------7--9-11-----------------11--9--7-----------9---|
|------------------9------------------------------------9-7-9-12-----|
|-----------7-9-12---------------------------------------------------|
|--6-7-9-10----------------------------------------------------------|
|
|                ~~~~~~~~                   ~~~~~~~~~            ~~~~~
|  E   E    E    E   +E     E    E          E    +E     E   E    E
|-------------------------------------------5----(5)-----------------|
|-/7---5---------8---(8)----7----5---------------------/8---7----8---|
|-----------7-------------------------------2----(2)-----------------|
|-/4---2---------5---(5)----4----2---------------------/5---4----5---|
|-----------5--------------------------------------------------------|
|--------------------------------------------------------------------|


  F#7sus4/G
                                                     TP
   S       S S S S S S  S  S  S S  S       S  S S S  H
|-------------------------------7-10b10.5----------------------|
|-10b10.5---------------------7-----------10-------------------|
|---------11-9-7-----------9-----------------11-9-7------------|
|----------------9-7-9-12----------------------------9\--------|
|----------------------------------------------------9\--------|
|----------------------------------------------------7\--------|
|
|~~~~~~~~~           ~~~~~~~~~                  ~~~~~~~~
| +E         E   E   E    +E    E          E    E   +E  E E E
|--------------------------------------------------------------|
|-(8)--------7---5---7----(7)---5---------------5---(5)--------|
|------------------------------------------7------------7-6-4\-|
|-(5)--------4---2---4----(4)---2---------------2---(2)--------|
|------------------------------------------5------------5-4-2\-|
|--------------------------------------------------------------|


  Em6add9/F#
 6/4
   ~~~
             |---3----|  |---3---|  |----3----|
   H         e   e    e  e  e    e  E   E     E  S     S  s       S
|-----------------------------------------------------17-14b14.5----|
|-----------------------------------------------17b19------------17-|
|-------------------------------------------------------------------|
|--5/-------16--16---16-16-16---16-16--16----16---------------------|
|--5/-------14--14---14-14-14---14-14--14----14---------------------|
|-----------15--15---15-15-15---15-15--15----15---------------------|
|
|         ~~~~~~              ~~~~~~~~~                   ~~~~~~~~~~~
|  E  E E E +E     E     E    E    +E      E     E        E
|-----------------------------5----(5)------------------------------|
|-/7--5---8-(8)----7-----5----------------/8-----7--------8---------|
|-------7---------------------2----(2)------------------------------|
|-/4--2---5-(5)----4-----2----------------/5-----4--------5---------|
|-------5-----------------------------------------------------------|
|-------------------------------------------------------------------|


  F#7sus4/G
   S   S  S     S  s       S  S  S  S     S  s       S  S  S  S     S  s       S  S  S  S     S  s       S
|--------------17-14b14.5----------------17-14b14.5----------------17-14b14.5----------------17-14b14.5----|
|--------17b19------------17-------17b19------------17-------17b19------------17-------17b19------------17-|
|-18--16---------------------18-16---------------------18-16---------------------18-16---------------------|
|----------------------------------------------------------------------------------------------------------|
|----------------------------------------------------------------------------------------------------------|
|----------------------------------------------------------------------------------------------------------|
|
|~~~~~                        ~~~~~~~~~~~                     ~~~~~~~~~~~~~~~~
| +E      E        E          E    +E        E          E     E       +E          E     E        E
|----------------------------------------------------------------------------------------------------------|
|-(8)-----7--------5----------7----(7)-------5----------------5-------(5)----------------------------------|
|-------------------------------------------------------7-------------------------7-----6--------4\--------|
|-(5)-----4--------2----------4----(4)-------2----------------2-------(2)----------------------------------|
|-------------------------------------------------------5-------------------------5-----4--------2\--------|
|----------------------------------------------------------------------------------------------------------|


  Em6add9/F#
 6/4
   S  S  S     S  s       S  S  S  S     S  s       S  S  S  S     S  s       S  S  S  S     S  s       S
|-------------17-14b14.5----------------17-14b14.5----------------17-14b14.5----------------17-14b14.5----|
|-------17b19------------17-------17b19------------17-------17b19------------17-------17b19------------17-|
|-18-16---------------------18-16---------------------18-16---------------------18-16---------------------|
|---------------------------------------------------------------------------------------------------------|
|---------------------------------------------------------------------------------------------------------|
|---------------------------------------------------------------------------------------------------------|
|
|                            ~~~~~~~~~~~                     ~~~~~~~~~~~~~~~~                   ~~~~~~~~~~~
|  E     E        E          E    +E        E          E     E       +E          E     E        E
|------------------------------------------------------------5-------(5)----------------------------------|
|-/7-----5-------------------8----(8)-------7----------5------------------------/8-----7--------8---------|
|-----------------7------------------------------------------2-------(2)----------------------------------|
|-/4-----2-------------------5----(5)-------4----------2------------------------/5-----4--------5---------|
|-----------------5---------------------------------------------------------------------------------------|
|---------------------------------------------------------------------------------------------------------|


  F#7sus4/G
             ~~~~~~~~~~~~~~~~~~~~~~~~~~~
   S   S  E  Q.          Q.        H
|-----------14----------14--------14------------||
|-14--12-14S17b19-------17b19-----17b19---------||
|-----------------------------------------------||
|-----------------------------------------------||
|-----------------------------------------------||
|-----------------------------------------------||
|
|~~~~~            ~~~~~~        ~~~~~~~~
| +E      E  E    E +E   E    E E +E    E E E
|-----------------------------------------------||
|-(8)-----7--5----7-(7)--5------5-(5)-----------||
|-----------------------------7---------7-6-4\--||
|-(5)-----4--2----4-(4)--2------2-(2)-----------||
|-----------------------------5---------5-4-2\--||
|-----------------------------------------------||


 Theme 1
  Em6add9/F#                            F#7sus4/G
 6/4
                                  ~~~~~~~~~~~~~~~~~~~~~~~~~~~~~~~~
   E  E  E  E  Q     E  Q      E  Q      +W                   +H
|-------------------------------------|----------------------------------|
|-14-17-17-14-17----14-17-----14-17---|-(17)-----------------(17)--------|
|-------------------------------------|----------------------------------|
|-------------------------------------|----------------------------------|
|-------------------------------------|----------------------------------|
|-------------------------------------|----------------------------------|
|
|           ~~~~~~      ~~~~~~      ~~~~~~~~~    ~~~~~~    ~~~~~~~
|  E  E  E  E +E  E  E  E +E   E  E E    +E  E E E +E  E E E  +E  E E E
|-----------------------5-(5)---------|----------------------------------|
|-/7--5-----8-(8)-7--5--------/8--7-8-|--(8)-7-5-7-(7)-5---5--(5)--------|
|--------7--------------2-(2)---------|------------------7--------7-6-4\-|
|-/4--2-----5-(5)-4--2--------/5--4-5-|--(5)-4-2-4-(4)-2---2--(2)--------|
|--------5----------------------------|------------------5--------5-4-2\-|
|-------------------------------------|----------------------------------|


  Em6add9/F#
   E  E  E  E  Q     E  Q      E  E     E
|---------------------------------------------|
|-14-17-17-14-17----14-17-----14-17b19-17b19--|
|---------------------------------------------|
|---------------------------------------------|
|---------------------------------------------|
|---------------------------------------------|
|
|           ~~~~~~      ~~~~~~          ~~~~~
|  E  E  E  E +E  E  E  E +E   E  E     E
|-----------------------5-(5)-----------------|
|-/7--5-----8-(8)-7--5--------/8--7-----8-----|
|--------7--------------2-(2)-----------------|
|-/4--2-----5-(5)-4--2--------/5--4-----5-----|
|--------5------------------------------------|
|---------------------------------------------|


  F#7sus4/G                        Em6add9/F#
 6/4
   ~~~~~~~~~~~~~~~~~~~~~~~                                         ~~~~~~~~
   W                  +H            E  E  E  E  Q     E  Q      E  Q
|--------------------------------|----------------------------------------|
|-17-----------------(17)--------|-14-17-17-14-17----14-17-----14-17b19r==|
|--------------------------------|----------------------------------------|
|--------------------------------|----------------------------------------|
|--------------------------------|----------------------------------------|
|--------------------------------|----------------------------------------|
|
|  ~~    ~~~~~~    ~~~~~~~                   ~~~~~~      ~~~~~~         ~~~
|  E E E E +E  E E E  +E  E E E     E  E  E  E +E  E  E  E +E   E  E    E
|--------------------------------|-----------------------5-(5)------------|
|--8-7-5-7-(7)-5---5--(5)--------|-/7--5-----8-(8)-7--5--------/8--7----8-|
|----------------7--------7-6-4\-|--------7--------------2-(2)------------|
|--5-4-2-4-(4)-2---2--(2)--------|-/4--2-----5-(5)-4--2--------/5--4----5-|
|----------------5--------5-4-2\-|--------5-------------------------------|
|--------------------------------|----------------------------------------|


  F#7sus4/G
 ~~~~~~~~~~~~~~~~~~~~~~~~~~~
   +W                   +H
|-----------------------------------|
|-(17)-----------------(17)---------|
|-----------------------------------|
|-----------------------------------|
|-----------------------------------|
|-----------------------------------|
|
|~~~~~~    ~~~~~~    ~~~~~~~
|  +E  E E E +E  E E E  +E  E E E
|-----------------------------------|
|--(8)-7-5-7-(7)-5---5--(5)---------|
|------------------7--------7-6-4\--|
|--(5)-4-2-4-(4)-2---2--(2)---------|
|------------------5--------5-4-2\--|
|-----------------------------------|


  Em6add9/F#
 6/4
                                  ~~~~~~~~~
   E  E  E  E  Q     E  Q      E  Q
|--------------------------------17b19====|
|-14-17-17-14-17----14-17-----14----------|
|-----------------------------------------|
|-----------------------------------------|
|-----------------------------------------|
|-----------------------------------------|
|
|           ~~~~~~      ~~~~~~          ~~~
|  E  E  E  E +E  E  E  E +E   E  E     E
|-----------------------5-(5)-------------|
|-/7--5-----8-(8)-7--5--------/8--7-----8-|
|--------7--------------2-(2)-------------|
|-/4--2-----5-(5)-4--2--------/5--4-----5-|
|--------5--------------------------------|
|-----------------------------------------|


                                       Interlude
  F#7sus4/G                             Em6add9/F#
 ~~~~~~                                              ~~            ~~
   +W                   +H               E  E  E  E  Q   E  Q   E  Q
|-(17)-----------------(17)r\--------||--------------------------------|
|------------------------------------||-14-17-17-14-17--14-17--14-17---|
|------------------------------------||--------------------------------|
|------------------------------------||--------------------------------|
|------------------------------------||--------------------------------|
|------------------------------------||--------------------------------|
|
|~~~~~~    ~~~~~~    ~~~~~~~~~                       ~~            ~~
|  +E  E E E +E  E E E  +E    E E E      E  E  E  E  Q   E  Q   E  Q
|------------------------------------||----12-12----12-----12-----12---|
|--(8)-7-5-7-(7)-5---5--(5)----------||-14-------14-----14-----14------|
|------------------7----------7-6-4\-||-----9--9-----9------9------9---|
|--(5)-4-2-4-(4)-2---2--(2)----------||-11-------11-----11-----11------|
|------------------5----------5-4-2\-||--------------------------------|
|------------------------------------||--------------------------------|


  F#7sus4/G                          Em6add9/F#
 6/4
    ~~~~~~~~~~~           ~~~~~~~      ~~~~~~
   +H       Q    E  E  E  E  +E  E   E E +E  E E E E E E E E E
|----------------------------------|-------------------2-----3-|
|-(17)-----17----------------------|-------------5-3-2---5-3---|
|----------------------------------|---7-(7)-6-4---------------|
|------------------------11-(11)-9-|-7-------------------------|
|---------------14-12-10-----------|---------------------------|
|----------------------------------|---------------------------|
|
|   ~~~~~~~~~~~           ~~~~~~~      ~~~~~~
|  +H      +Q    E  E  E  E  +E  E   E E +E  E E E E E E E E E
|-(12)----(12)---------------------|-------------------2-----3-|
|----------------------------------|-------------5-3-2---5-3---|
|----------------------------------|---7-(7)-6-4-------------0-|
|----------------9--7--5-11-(11)-9-|-7-----------2-0---4-2-0---|
|----------------------------------|---5-(5)-4-2-----4---------|
|----------------7--5--3--9--(9)-7-|-5-------------------------|


                                         Slower Q=90
  F#7sus4/G                              Dm6add9/A
 6/4
                                                        ~~~~~~~~~~
      |-3-| |-3-| |-3-|  |-3-|  |-3--|
  E E E E E E E E E E E  E E E  E  E E    Q    Q    Q   H     +E   E
|-2---5-3-2-7-5-3-9-7-5-10-9-7-12-10-9-|-14---12---10----------------|
|---5----------------------------------|---------------10----(10)----|
|--------------------------------------|--------------------------12-|
|--------------------------------------|-----------------------------|
|--------------------------------------|-----------------------------|
|--------------------------------------|-----------------------------|
|
|                                         ~~~~~~~~~~~~~~~~~~~~~~~~~~~
|     |-3-| |-3-| |-3-|  |-3-|  |-3--|
| E E E E E E E E E E E  E E E  E  E E    Q    Q    Q   H     +E   E
|-2---5-3-2-7-5-3-9-7-5-10-9-7-12-10-9-|-14---12---10----------------|
|---5----------------------------------|---------------10----(10)----|
|-----2-0---4-2-0-6-4-2--7-6-4--9--7-6-|-11----9----7-------------12-|
|-4-2-----4----------------------------|----------------7-----(7)----|
|--------------------------------------|--------------------------10-|
|--------------------------------------|-----------------------------|
|
| Gtr III
| W                                       E E  E E  W
|--------------------------------------|------------0----------------|
|--------------------------------------|---------6-------------------|
|--------------------------------------|-----------------------------|
|--------------------------------------|-------0---------------------|
|--------------------------------------|--0--------------------------|
|--------------------------------------|----7------------------------|


                                  H.=H
  D6sus2/A                          Dm6add9/A
 6/4
                  ~~~~~~~~~~              ~~~~~~~~~~~~~~~~~~~~~~~
   Q    Q.        H     +E   E  E    Q    H        +H        +Q
|------10-------------------14----|------17-------(17)------(17)--||
|----------------12----(12)----15-|-17----------------------------||
|-11------------------------------|-------------------------------||
|---------------------------------|-------------------------------||
|---------------------------------|-------------------------------||
|---------------------------------|-------------------------------||
|
|                                    >
|                 ~~~~~~~~~~              ~~~~~~~~~~~~~~~~~~~~~~~
|  Q    Q.        H     +E   E  E    Q    H        +H        +Q
|------10-------------------14----|------17-------(17)------(17)--||
|----------------12----(12)----15-|-17----------------------------||
|-11----7-------------------11----|------14-------(14)------(14)--||
|-----------------9-----(9)----12-|-14----------------------------||
|--9------------------------------|-------------------------------||
|---------------------------------|-------------------------------||
|
|  E E  E  E +W                      E E  E E E E   E  E H
|----------0-(0)------------------|-----------0-------------------||
|---------------------------------|---------6---6-----------------||
|---------------------------------|-------------------------------||
|-------0-------------------------|-------0---------0-------------||
|--0------------------------------|--0-------------------0--------||
|----7----------------------------|----7---------------7----------||


 Keyboards Solo
  Moderate Fusion Rock Q=176
  Em6add9/F#
   E  E E   E  E  E  E  E   E   E  E  E
|--------------0----------------0--------|
|-------2---------------2----------------|
|-----------0---------------0------------|
|-----4--------------4-------------------|
|----------------------------------------|
|--2--------------2----------------2--0--|
|
|  Q.      +Q     Q.       +Q      E  E
|----------------------------------------|
|----------------------------------------|
|----------------------------------------|
|-16------(16)---16-------(16)----16-14--|
|----------------------------------------|
|-14------(14)---14-------(14)----14-12--|
|
|  E  E E   E  E  E  E  E   E   E  E  E
|--------------5--7--9-10---9--12-14-12--|
|--5--7-8---7----------------------------|
|----------------------------------------|
|----------------------------------------|
|----------------------------------------|
|----------------------------------------|


  F#7sus4/G
 6/4
   E  E  E   E   E  E    E   E   E   E  E  E
|----------------0-------------------0-------|
|--------2-------------------2---------------|
|------------4-------------------4-----------|
|-----4------------------4-------------------|
|--------------------------------------------|
|--3----------------3-------------------3--0-|
|
|  Q.       +Q      Q.          +Q      E  E
|--------------------------------------------|
|--------------------------------------------|
|-12-------(12)----12----------(12)----12----|
|-----------------------------------------14-|
|-10-------(10)----10----------(10)----10----|
|-----------------------------------------12-|
|
|  Q     E   E   E  E   +E   E   E   E  E  E
|-------15--14--12-10--(10)-17--15--14-------|
|-14-----------------------------------15-17-|
|--------------------------------------------|
|--------------------------------------------|
|--------------------------------------------|
|--------------------------------------------|


  Em6add9/F#                               F#7sus4/G
   E  E  E   E   E  E   E E   E  E  E  E    E  E  E   E   E  E    E   E   E  E  E  E
|----------------0---------------0-------|----------------0------------------0--------||
|--------2----------------2--------------|--------2-------------------2---------------||
|------------0----------------0----------|------------4-------------------4-----------||
|-----4-----------------4----------------|-----4------------------4-------------------||
|----------------------------------------|--------------------------------------------||
|--2----------------2---------------2--0-|--3----------------3------------------3--0--||
|
|  Q.       +Q      Q.       +Q     E  E    Q.       +Q      Q.          +Q     E  E
|----------------------------------------|--------------------------------------------||
|----------------------------------------|--------------------------------------------||
|----------------------------------------|-12-------(12)----12----------(12)---12-----||
|-16-------(16)----16-------(16)---16-14-|----------------------------------------14--||
|----------------------------------------|-10-------(10)----10----------(10)---10-----||
|-14-------(14)----14-------(14)---14-12-|----------------------------------------12--||
|
|  Q     E   E   Q      Q     Q     Q       Q     E   E   E  E   +E   E   H
|----------------------------------------|--------------------------------------------||
|---------------14-----------------------|--------------------------------------------||
|-18----18--18--14-----16----14----------|--------------------------------------------||
|-16----17--16---------16----17----------|-17----17--16--17-19--(19)-19---------------||
|----------------------------------------|-16----16------17-19--(19)-----22-----------||
|----------------------------------------|---------------------------22--21-----------||


 Theme 2
  Em6add9/F#
 6/4
  Gtr I
                           |--3--|  |--3--|
   E  E  E  E E  Q   S  S  E  E  E  E  E  E
|-14-12----17-------------------------------|
|-------14------19--17-15-------------------|
|-------------------------16-14-------------|
|-------------------------------16-14-------|
|-------------------------------------16-14-|
|-------------------------------------------|
|
| Gtr II
|                          |--3--|  |--3--|
|  E  E  E  E E  Q   S  S  E  E  E  E  E  E
|-14-12----17-------------------------------|
|-------14------19--17-15-------------------|
|-11--9----14-------------16-14-------------|
|-------11------16--14-12-------16-14-11--9-|
|-------------------------14-12-------------|
|-------------------------------14-12--9--7-|


  F#7sus4/G
              ~~         ~~~~~~
   +E   E  E  E  +E  E E E +E  E E E
|-------------------------------------|
|----------------------------------5--|
|------------------------7-(7)-6-4----|
|------------11-(11)-9-7--------------|
|-(14)-12-10--------------------------|
|-------------------------------------|
|
|             ~~         ~~~~~~
|   E   E  E  E  +E  E E E +E  E E E
|-------------------------------------|
|----------------------------------5--|
|------------------------7-(7)-5-4----|
|---9---7--5-11-(11)-9-7-----------2--|
|------------------------5-(5)-3-2----|
|---7---5--3--9--(9)-7-5--------------|


  Em6add9/F#                    F#7sus2/G
 6/4
                  |-3-| |-3-|   |-3-|  |-3-|  |-3--|
  E E E E E E E E E E E E E E   E E E  E E E  E  E E  E  E  E  E E  E
|-----2-----3-2---5-3-2-7-5-3-|-9-7-5-10-9-7-12-10-9-14-12----17---14-|
|-3-2---5-3-----5-------------|----------------------------14---------|
|-----------------------------|---------------------------------------|
|-----------------------------|---------------------------------------|
|-----------------------------|---------------------------------------|
|-----------------------------|---------------------------------------|
|
|                 |-3-| |-3-|   |-3-|  |-3-|  |-3--|
| E E E E E E E E E E E E E E   E E E  E E E  E  E E  E  E  E  E E  E
|-----2-----3-2---5-3-2-7-5-3-|-9-7-5-10-9-7-12-10-9-14-12----17------|
|-3-2---5-3-----5-------------|----------------------------14------19-|
|-----------0-----2-0---4-2-0-|-6-4-2--7-6-4--9--7-6-11--9----14------|
|-0---4-2-0---4-2-----4-------|----------------------------11------16-|
|---4-------------------------|---------------------------------------|
|-----------------------------|---------------------------------------|


  Em6add9/F#
 6/4
                                           ~~~~~~~
              |--3--|  |--3--|
   +E   S  S  E  E  E  E  E  E  +E   E  E  E  +E  E
|-(14)-12-------------------------------------------|
|---------14----------------------------------------|
|------------16-14----------------------------------|
|------------------16-14------------------11-(11)-9-|
|------------------------16-14-(14)-12-10-----------|
|---------------------------------------------------|
|
|                                          ~~~~~~~
|             |--3--|  |--3--|
|  +E   S  S  E  E  E  E  E  E  +E   E  E  E  +E  E
|---------------------------------------------------|
|-(19)-17-------------------------------------------|
|---------18-16-14----------------------------------|
|-(16)-14----------16-14-11--9--(9)--7--5-11-(11)-9-|
|---------16-14-12----------------------------------|
|------------------14-12--9--7--(7)--5--3--9--(9)-7-|


  F#7sus4/G
    ~~~~~~
  E E +E  E E E E E E E E E
|-------------------2-----3--|
|-------------5-3-2---5-3----|
|---7-(7)-6-4----------------|
|-7--------------------------|
|----------------------------|
|----------------------------|
|
|   ~~~~~~
| E E +E  E E E E E E E E E
|-------------------2-----3--|
|-------------5-3-2---5-3----|
|---7-(7)-6-4-------------0--|
|-7-----------2-0---4-2-0----|
|---5-(5)-4-2-----4----------|
|-5--------------------------|


  Em6add9/F#
 6/4
      |-3-| |-3-| |-3-|  |-3-|  |-3--|
  E E E E E E E E E E E  E E E  E  E E
|-2---5-3-2-7-5-3-9-7-5-10-9-7-12-10-9-|
|---5----------------------------------|
|--------------------------------------|
|--------------------------------------|
|--------------------------------------|
|--------------------------------------|
|
|     |-3-| |-3-| |-3-|  |-3-|  |-3--|
| E E E E E E E E E E E  E E E  E  E E
|-2---5-3-2-7-5-3-9-7-5-10-9-7-12-10-9-|
|---5----------------------------------|
|-----2-0---4-2-0-6-4-2--7-6-4--9--7-6-|
|-4-2-----4----------------------------|
|--------------------------------------|
|--------------------------------------|


  F#7sus4/G
 6/4
                               |--3--|  |--3--|
   E  E  E  E E  E  +E   S  S  E  E  E  E  E  E
|-14-12----17-----------------------------------|
|-------14------19-(19)-17----------------------|
|--------------------------18-16-14-------------|
|-----------------------------------16-14-------|
|-----------------------------------------16-14-|
|-----------------------------------------------|
|
|                              |--3--|  |--3--|
|  E  E  E  E E  E  +E   S  S  E  E  E  E  E  E
|-14-12----17-----------------------------------|
|-------14------19-(19)-17----------------------|
|-11--9----14--------------18-16-14-------------|
|-------11------16-(16)-14----------16-14-11--9-|
|--------------------------16-14-12-------------|
|-----------------------------------14-12--9--7-|


  Em6add9/F#
   +E   E  E  Q  E  E  Q   E E E
|---------------------------------|
|---------------------------------|
|------------------------------9--|
|------------11--9----12--11-9----|
|-(14)-12-10-------10-------------|
|---------------------------------|
|
|  +E   E  E  Q  E  E  Q   E E E
|---------------------------------|
|---------------------------------|
|------------------------------9--|
|--(9)--7--5-11--9--5-12--11-9----|
|------------------------------7--|
|--(7)--5--3--9--7--3-10---9-7----|


  F#7sus4/G                     Em6add9/F#
 6/4
                  |-3-| |-3-|   |-3-|  |-3-|  |-3--|
  E E E E E E E E E E E E E E   E E E  E E E  E  E E  E  E  E  E E  E
|-----------3-2---5-3-2-7-5-3-|-9-7-5-10-9-7-12-10-9-14-12----17------|
|-----7-5-3-----5-------------|----------------------------14------19-|
|-7-6-------------------------|---------------------------------------|
|-----------------------------|---------------------------------------|
|-----------------------------|---------------------------------------|
|-----------------------------|---------------------------------------|
|
|                 |-3-| |-3-|   |-3-|  |-3-|  |-3--|
| E E E E E E E E E E E E E E   E E E  E E E  E  E E  E  E  E  E E  E
|-----------3-2---5-3-2-7-5-3-|-9-7-5-10-9-7-12-10-9-14-12----17------|
|-----7-5-3-----5-------------|----------------------------14------19-|
|-7-6-------0-----2-0---4-2-0-|-6-4-2--7-6-4--9--7-6-11--9----14------|
|-----4-2-0---4-2-----4-------|----------------------------11------16-|
|-5-4-------------------------|---------------------------------------|
|-----------------------------|---------------------------------------|


  F#7sus4/G
 6/4
                                           ~~~~~~~
              |--3--|  |--3--|
   +E   S  S  E  E  E  E  E  E  +E   E  E  E  +E  E
|---------------------------------------------------|
|-(19)-17-------------------------------------------|
|---------18-16-14----------------------------------|
|------------------16-14------------------11-(11)-9-|
|------------------------16-14-(14)-12-10-----------|
|---------------------------------------------------|
|
|                                          ~~~~~~~
|             |--3--|  |--3--|
|   E   S  S  E  E  E  E  E  E  +E   E  E  E  +E  E
|---------------------------------------------------|
|--18--17-------------------------------------------|
|---------18-16-14----------------------------------|
|--15--14----------16-14-11--9--(9)--7--5-11-(11)-9-|
|---------16-14-12----------------------------------|
|------------------14-12--9--7--(7)--5--3--9--(9)-7-|


  Em6add9/F#
    ~~~~~~
  E E +E  E E E E E E E E E
|-------------------2-----3--|
|-------------5-3-2---5-3----|
|---7-(7)-6-4----------------|
|-7--------------------------|
|----------------------------|
|----------------------------|
|
|   ~~~~~~
| E E +E  E E E E E E E E E
|-------------------2-----3--|
|-------------5-3-2---5-3----|
|---7-(7)-6-4-------------0--|
|-7-----------2-0---4-2-0----|
|---5-(5)-4-2-----4----------|
|-5--------------------------|


  F#7sus4/G                              Em6add9/F#
 6/4
  Gtr I
                                          ~~~~~~~~~~~~~~~
      |-3-| |-3-| |-3-|  |-3-|  |-3--|
  E E E E E E E E E E E  E E E  E  E E    W          +H
|-2---5-3-2-7-5-3-9-7-5-10-9-7-12-10-9-|-14---------(14)----|
|---5----------------------------------|--------------------|
|--------------------------------------|--------------------|
|--------------------------------------|--------------------|
|--------------------------------------|--------------------|
|--------------------------------------|--------------------|
|
| Gtr II
|                                         ~~~
|     |-3-| |-3-| |-3-|  |-3-|  |-3--|
| E E E E E E E E E E E  E E E  E  E E    W.
|-2---5-3-2-7-5-3-9-7-5-10-9-7-12-10-9-|-14-----------------|
|---5----------------------------------|--------------------|
|-----2-0---4-2-0-6-4-2--7-6-4--9--7-6-|-11-----------------|
|-4-2-----4----------------------------|--------------------|
|--------------------------------------|--------------------|
|--------------------------------------|--------------------|


                          Theme 1
  F#7sus4/G                Em6add9/F#
 6/4
    ~~~~
   +W          +Q.   E      E E E E  E  E E E  E   E E E
|-(14)--------(14)-----||------------0-------------0-----|
|----------------------||o------2-----------2------------|
|----------------------||---------0------------0---------|
|----------------------||-----4-----------4--------------|
|----------------------||o-------------------------------|
|----------------------||---2-----------2------------2-0-|
|
|   ~~~~                          ~~~~~~    ~~~~~~     ~~~
|  +W          +Q.   E      E E E E +E  E E E +E   E E E
|-(14)--------(14)-----||-------------------5-(5)--------|
|----------------------||o-/7-5---8-(8)-7-5-------/8-7-8-|
|-(11)--------(11)-----||-------7-----------2-(2)--------|
|----------------------||--/4-2---5-(5)-4-2-------/5-4-5-|
|----------------------||o------5------------------------|
|----------------------||--------------------------------|


  F#7sus4/G
   E  E E E  E  E E E  E  E E E    3x
|------------0------------0--------||
|-------2-----------2-------------o||
|---------4------------4-----------||
|-----4-----------4----------------||
|---------------------------------o||
|--3------------3-----------3-0----||
|
|~~~~~    ~~~~~~    ~~~~~~
| +E  E E E +E  E E E +E  E E E    3x
|----------------------------------||
|-(8)-7-5-7-(7)-5---5-(5)---------o||
|-----------------7-------7-6-4\---||
|-(5)-4-2-4-(4)-2---2-(2)----------||
|-----------------5-------5-4-2\--o||
|----------------------------------||


  Em6add9/F#                            F#7sus4/G
 6/4
                                  ~~~~~~~~~~~~~~~~~~~~~~~~~~~~~~~~
   E  E  E  E  Q     E  Q      E  Q      +W                   +H
|-------------------------------------|----------------------------------|
|-14-17-17-14-17----14-17-----14-17---|-(17)-----------------(17)--------|
|-------------------------------------|----------------------------------|
|-------------------------------------|----------------------------------|
|-------------------------------------|----------------------------------|
|-------------------------------------|----------------------------------|
|
|           ~~~~~~      ~~~~~~      ~~~~~~~~~    ~~~~~~    ~~~~~~~
|  E  E  E  E +E  E  E  E +E   E  E E    +E  E E E +E  E E E  +E  E E E
|-----------------------5-(5)---------|----------------------------------|
|-/7--5-----8-(8)-7--5--------/8--7-8-|--(8)-7-5-7-(7)-5---5--(5)--------|
|--------7--------------2-(2)---------|------------------7--------7-6-4\-|
|-/4--2-----5-(5)-4--2--------/5--4-5-|--(5)-4-2-4-(4)-2---2--(2)--------|
|--------5----------------------------|------------------5--------5-4-2\-|
|-------------------------------------|----------------------------------|


  Em6add9/F#
   E  E  E  E  Q     E  Q      E  Q
|-----------------------------------------|
|-14-17-17-14-17----14-17-----14-17b19----|
|-----------------------------------------|
|-----------------------------------------|
|-----------------------------------------|
|-----------------------------------------|
|
|           ~~~~~~      ~~~~~~         ~
|  E  E  E  E +E  E  E  E +E   E  E    E
|-----------------------5-(5)-------------|
|-/7--5-----8-(8)-7--5--------/8--7----8--|
|--------7--------------2-(2)-------------|
|-/4--2-----5-(5)-4--2--------/5--4----5--|
|--------5--------------------------------|
|-----------------------------------------|


  F#7sus4/G                         Em6add9/F#
 6/4
   ~~~~~~~~~~~~~~~~~~~~~~~~                                          ~~~~~
   W                   +H            E  E  E  E  Q     E  Q      E   Q
|---------------------------------|--------------------------------------|
|-17------------------(17)--------|-14-17-17-14-17----14-17-----14-/17---|
|---------------------------------|--------------------------------------|
|---------------------------------|--------------------------------------|
|---------------------------------|--------------------------------------|
|---------------------------------|--------------------------------------|
|
|  ~~~    ~~~~~~    ~~~~~~~                   ~~~~~~      ~~~~~~       ~~~
| +E  E E E +E  E E E  +E  E E E     E  E  E  E +E  E  E  E +E   E   E E
|---------------------------------|-----------------------5-(5)----------|
|-(8)-7-5-7-(7)-5---5--(5)--------|-/7--5-----8-(8)-7--5--------/8---7-8-|
|-----------------7--------7-6-4\-|--------7--------------2-(2)----------|
|-(5)-4-2-4-(4)-2---2--(2)--------|-/4--2-----5-(5)-4--2--------/5---4-5-|
|-----------------5--------5-4-2\-|--------5-----------------------------|
|---------------------------------|--------------------------------------|


  F#7sus4/G
 ~~~~~~~~~~~~~~~~~~~~~~~~~~~
    W                   +H
|-----------------------------------|
|-/17------------------(17)---------|
|-----------------------------------|
|-----------------------------------|
|-----------------------------------|
|-----------------------------------|
|
|~~~~~~    ~~~~~~    ~~~~~~~
|  +E  E E E +E  E E E  +E  E E E
|-----------------------------------|
|--(8)-7-5-7-(7)-5---5--(5)---------|
|------------------7--------7-6-4\--|
|--(5)-4-2-4-(4)-2---2--(2)---------|
|------------------5--------5-4-2\--|
|-----------------------------------|


  Em6add9/F#
 6/4
                                  ~~~~~~~~~
   E  E  E  E  Q     E  E  E   E  Q
|--------------------------------17b19====|
|-14-17-17-14-17----14-17-----14----------|
|-----------------------------------------|
|-----------------------------------------|
|-----------------------------------------|
|-----------------------------------------|
|
|           ~~~~~~      ~~~~~~          ~~~
|  E  E  E  E +E  E  E  E +E   E  E     E
|-----------------------5-(5)-------------|
|-/7--5-----8-(8)-7--5--------/8--7-----8-|
|--------7--------------2-(2)-------------|
|-/4--2-----5-(5)-4--2--------/5--4-----5-|
|--------5--------------------------------|
|-----------------------------------------|


  F#7sus4/G
 ~~~~~~
   +H.              +H            Q
|-(17)-------------(17)r\--------------||
|--------------------------------------||
|--------------------------------------||
|--------------------------------------||
|--------------------------------------||
|--------------------------------------||
|
|~~~~~~    ~~~~~~         ~~~~~~
|  +E  E E E +E  E   E    E +E  E E E
|--------------------------------------||
|--(8)-7-5-7-(7)-5--------5-(5)--------||
|--------------------7----------7-6-4\-||
|--(5)-4-2-4-(4)-2--------2-(2)--------||
|--------------------5----------5-4-2\-||
|--------------------------------------||


 Guitar Solo 2
  Em6add9/F#
 6/4
   ~~~~~~~~~~~~~~~                          ~~
   Q.        Q.          S  S  S  S  S   S  Q     E
|---------------------------------------------------|
|-17b19-----17b19--------------------------17---/14-|
|-----------------------14-15-16-14-16--18----------|
|---------------------------------------------------|
|---------------------------------------------------|
|---------------------------------------------------|
|
|            ~~~~~~~~~         ~~~~~~~~~          ~~~
|  E    E E  E    +E  E  E     E    +E      E E   E
|------------------------------5----(5)-------------|
|-/7----5----8----(8)-7--5-----------------/8-7---8-|
|---------7--------------------2----(2)-------------|
|-/4----2----5----(5)-4--2-----------------/5-4---5-|
|---------5-----------------------------------------|
|---------------------------------------------------|


  F#7sus4/G
   ~~~~~~~~~~~~~~~~~~~~~~~~~~~
   Q.        Q.          Q.          S  S  S  S  E
|---------------------------------------------------|
|-17b19-----17b19-------17b19----------------17-14--|
|-----------------------------------14-15-16--------|
|---------------------------------------------------|
|---------------------------------------------------|
|---------------------------------------------------|
|
|~~~~~~~     ~~~~~~~~~        ~~~~~~
|  E    E E  E    +E  E  E    E +E   E     E     E
|---------------------------------------------------|
|--8----7-5--7----(7)-5-------5-(5)-----------------|
|------------------------7-----------7-----6-----4\-|
|--5----4-2--4----(4)-2-------2-(2)-----------------|
|------------------------5-----------5-----4-----2\-|
|---------------------------------------------------|


  Em6add9/F#
 6/4
   ~~~~~~~~~~~~~~~~~~~~~~~~~~~~~~~~~~~~~~~~~~~~~~~~
   Q.        Q.          Q.          E     Q
|-------------------------------------------------|
|-17b19-----17b19-------17b19-------17b19-17b19---|
|-------------------------------------------------|
|-------------------------------------------------|
|-------------------------------------------------|
|-------------------------------------------------|
|
|            ~~~~~~~~~        ~~~~~~            ~~~
|  E    E E  E    +E  E  E    E +E   E     E    E
|-----------------------------5-(5)---------------|
|-/7----5----8----(8)-7--5----------/8-----7----8-|
|---------7-------------------2-(2)---------------|
|-/4----2----5----(5)-4--2----------/5-----4----5-|
|---------5---------------------------------------|
|-------------------------------------------------|


  F#7sus4/G
 ~~~~~~~~~~~~~~~~~
   Q.        Q.          S  S  S  S  S  S  S S S  S  S   S
|-----------------------------------------------------------|
|-17b19-----17b19-------17-14-12------------------------12--|
|--------------------------------14-11--9------9-11-14------|
|-----------------------------------------12-9--------------|
|-----------------------------------------------------------|
|-----------------------------------------------------------|
|
|~~~~~~~     ~~~~~~~~~         ~~~~~~~~~
|  E    E E  E    +E  E  E     E    +E     E   E     E
|-----------------------------------------------------------|
|--8----7-5--7----(7)-5--------5----(5)---------------------|
|------------------------7-----------------7---6-----4\-----|
|--5----4-2--4----(4)-2--------2----(2)---------------------|
|------------------------5-----------------5---4-----2\-----|
|-----------------------------------------------------------|


  Em6add9/F#
 6/4
                                   ~~~~~~~~~~~~~~~~~~
   S  S  S  S S  S S S  S  S S S S H            +E.
|------------------------------------------------------|
|-14-12------------------------------------------------|
|-------14-11-9----------------------------------------|
|---------------12-9-7---------------------------------|
|----------------------10--7-5-------------------------|
|------------------------------9-5-2------------(2)\---|
|
|                  ~~~~~~~~          ~~~~~~          ~~~
|  E     E    E    E   +E    E   E   E +E   E E      E
|------------------------------------5-(5)-------------|
|-/7-----5---------8---(8)---7---5---------/8-7------8-|
|-------------7----------------------2-(2)-------------|
|-/4-----2---------5---(5)---4---2---------/5-4------5-|
|-------------5----------------------------------------|
|------------------------------------------------------|


  F#7sus4/G
  |--3--|
  E E   E Q    S  S S S S S S S  S  S S S S S E
|------------------------------------------------|
|-------------11--9-7----------------------------|
|---------------------9-7-5----------------------|
|---------------------------8-6--4---------------|
|-------4S7-------------------------7-5-3--------|
|-2-5-------------------------------------6-4-2S=|
|
|~~~        ~~~~~~          ~~~~~~~~
| E   E   E E +E    E   E   E   +E    E   E   E
|------------------------------------------------|
|-8---7---5-7-(7)---5-------5---(5)--------------|
|-----------------------7-------------7---6---4\-|
|-5---4---2-4-(4)---2-------2---(2)--------------|
|-----------------------5-------------5---4---2\-|
|------------------------------------------------|


           Em6add9/F#
 6/4
   |--3--|
   E E   E  Q    S   S S  S S S  S S  S  S  S S S S E
|-----------------------------------------------------|
|---------------13--11-9------------------------------|
|------------------------11-9-7-----------------------|
|-------------------------------10-8--6---------------|
|--------7S10----------------------------9--7-5-------|
|--5-9------------------------------------------8-6-4S|
|
|             ~~~~~~             ~~~~~~~~           ~~~
|  E   E    E E +E     E    E    E   +E     E   E   E
|--------------------------------5---(5)--------------|
|-/7---5------8-(8)----7----5--------------/8---7---8-|
|-----------7--------------------2---(2)--------------|
|-/4---2------5-(5)----4----2--------------/5---4---5-|
|-----------5-----------------------------------------|
|-----------------------------------------------------|


  F#7sus4/G
  |---3---|
  E  E    E  Q    S   S  S  S  S S  S  S  S   S S S  S S E
|-------------------------------------------------------------|
|----------------15--13-11------------------------------------|
|--------------------------13-11-9----------------------------|
|----------------------------------12-10--8-------------------|
|--------10-14-------------------------------11-9-7-----------|
|-9-12----------------------------------------------10-8-6S===|
|
|~~~           ~~~~~~               ~~~~~~~~~
| E    E     E E +E      E     E    E    +E     E    E   E
|-------------------------------------------------------------|
|-8----7-----5-7-(7)-----5----------5----(5)------------------|
|------------------------------7----------------7----6---4\---|
|-5----4-----2-4-(4)-----2----------2----(2)------------------|
|------------------------------5----------------5----4---2\---|
|-------------------------------------------------------------|


  Em6add9/F#
 6/4
   |---3---|
   E  E    E  Q    S   S  S  S  S  S  S  S  S   S  S  S  S  S  E
|----------------------------------------------------------------|
|-----------------17--15-13-----------------------------13-15-16S|
|---------------------------15-13-11-----------11-13-15----------|
|------------------------------------14-12p10--------------------|
|---------14-17--------------------------------------------------|
|-12-15----------------------------------------------------------|
|
|               ~~~~~~                ~~~~~~~~~                ~~~
|  E    E     E E +E      E     E     E    +E      E     E     E
|-------------------------------------5----(5)-------------------|
|-/7----5-------8-(8)-----7-----5-----------------/8-----7-----8-|
|-------------7-----------------------2----(2)-------------------|
|-/4----2-------5-(5)-----4-----2-----------------/5-----4-----5-|
|-------------5--------------------------------------------------|
|----------------------------------------------------------------|


  F#7sus4/G
   ~~~~~~~~~~~~~~~~~~~~~~~~~~~               ~~~~~
   Q.        Q.          Q.          E      +Q
|----------------------------------------------------||
|-17b19-----17b19-------17b19-------17pb19r(17)\-----||
|----------------------------------------------------||
|----------------------------------------------------||
|----------------------------------------------------||
|----------------------------------------------------||
|
|~~~~~~~     ~~~~~~~~~        ~~~~~~
| +E    E E  E    +E  E  E    E +E   E       E   E
|----------------------------------------------------||
|-(8)---7-5--7----(7)-5-------5-(5)------------------||
|------------------------7-----------7-------6---4\--||
|-(5)---4-2--4----(4)-2-------2-(2)------------------||
|------------------------5-----------5-------4---2\--||
|----------------------------------------------------||


 Theme 1
  Em6add9/F#                            F#7sus4/G
                                  ~~~~~~~~~~~
   E  E  E  E  Q     E  Q      E  Q      +W                   +H
|-------------------------------------|----------------------------------|
|-14-17-17-14-17----14-17-----14-17---|-(17)-----------------(17)--------|
|-------------------------------------|----------------------------------|
|-------------------------------------|----------------------------------|
|-------------------------------------|----------------------------------|
|-------------------------------------|----------------------------------|
|
|           ~~~~~~      ~~~~~~      ~~~~~~~~~    ~~~~~~    ~~~~~~~
|  E  E  E  E +E  E  E  E +E   E  E E    +E  E E E +E  E E E  +E  E E E
|-----------------------5-(5)---------|----------------------------------|
|-/7--5-----8-(8)-7--5--------/8--7-8-|--(8)-7-5-7-(7)-5---5--(5)--------|
|--------7--------------2-(2)---------|------------------7--------7-6-4\-|
|-/4--2-----5-(5)-4--2--------/5--4-5-|--(5)-4-2-4-(4)-2---2--(2)--------|
|--------5----------------------------|------------------5--------5-4-2\-|
|-------------------------------------|----------------------------------|


  Em6add9/F#
   E  E  E  E  Q     E  Q      E  Q
|----------------------------------------|
|-14-17-17-14-17----14-17-----14-17b19---|
|----------------------------------------|
|----------------------------------------|
|----------------------------------------|
|----------------------------------------|
|
|           ~~~~~~      ~~~~~~         ~
|  E  E  E  E +E  E  E  E +E   E  E    E
|-----------------------5-(5)------------|
|-/7--5-----8-(8)-7--5--------/8--7----8-|
|--------7--------------2-(2)------------|
|-/4--2-----5-(5)-4--2--------/5--4----5-|
|--------5-------------------------------|
|----------------------------------------|


  F#7sus4/G                          Em6add9/F#
 6/4
    ~~~~~~~~~~~~~~~~~~~~~~~~
   +W                   +H            E  E  E  E  Q     E  Q      E  Q
|----------------------------------|-------------------------------------|
|-(17)-----------------(17)--------|-14-17-17-14-17----14-17-----14-17---|
|----------------------------------|-------------------------------------|
|----------------------------------|-------------------------------------|
|----------------------------------|-------------------------------------|
|----------------------------------|-------------------------------------|
|
|   ~~~~   ~~~~~~    ~~~~~~~                   ~~~~~~      ~~~~~~      ~~~
|  +E  E E E +E  E E E  +E  E E E     E  E  E  E +E  E  E  E +E   E  E E
|----------------------------------|-----------------------5-(5)---------|
|--(8)-7-5-7-(7)-5---5--(5)--------|-/7--5-----8-(8)-7--5--------/8--7-8-|
|------------------7--------7-6-4\-|--------7--------------2-(2)---------|
|--(5)-4-2-4-(4)-2---2--(2)--------|-/4--2-----5-(5)-4--2--------/5--4-5-|
|------------------5--------5-4-2\-|--------5----------------------------|
|----------------------------------|-------------------------------------|


  F#7sus4/G
    ~~~~~~~~~~~~~~~~~~~~~~~~
   +W                   +H
|-----------------------------------|
|-(17)-----------------(17)---------|
|-----------------------------------|
|-----------------------------------|
|-----------------------------------|
|-----------------------------------|
|
|~~~~~~    ~~~~~~    ~~~~~~~
|  +E  E E E +E  E E E  +E  E E E
|-----------------------------------|
|--(8)-7-5-7-(7)-5---5--(5)---------|
|------------------7--------7-6-4\--|
|--(5)-4-2-4-(4)-2---2--(2)---------|
|------------------5--------5-4-2\--|
|-----------------------------------|


  Em6add9/F#
 6/4
   E  E  E  E  Q     E  Q      E  Q
|------------------------------------------|
|-14-17-17-14-17----14-17-----14-17pb19====|
|------------------------------------------|
|------------------------------------------|
|------------------------------------------|
|------------------------------------------|
|
|           ~~~~~~      ~~~~~~           ~~~
|  E  E  E  E +E  E  E  E +E   E  E      E
|-----------------------5-(5)--------------|
|-/7--5-----8-(8)-7--5--------/8--7------8-|
|--------7--------------2-(2)--------------|
|-/4--2-----5-(5)-4--2--------/5--4------5-|
|--------5---------------------------------|
|------------------------------------------|


                                     Interlude
  F#7sus4/G                           Em6add9/F#
                         ~~~~                                    ~~
   +W                   +H             E  E  E  E  Q   E  Q   E  Q
|----------------------------------||--------------------------------|
|-(17)r================(17)--------||-14-17-17-14-17--14-17--14-17---|
|----------------------------------||--------------------------------|
|----------------------------------||--------------------------------|
|----------------------------------||--------------------------------|
|----------------------------------||--------------------------------|
|
|~~~~~~~   ~~~~~~    ~~~~~~~                                     ~~
|  +E  E E E +E  E E E  +E  E E E      E  E  E  E  Q   E  Q   E  Q
|----------------------------------||----12-12----12-----12-----12---|
|--(8)-7-5-7-(7)-5---5--(5)--------||-14-------14-----14-----14------|
|------------------7--------7-6-4\-||-----9--9-----9------9------9---|
|--(5)-4-2-4-(4)-2---2--(2)--------||-11-------11-----11-----11------|
|------------------5--------5-4-2\-||--------------------------------|
|----------------------------------||--------------------------------|


  F#7sus4/G                      Em6add9/F#
 6/4
    ~~~~~~~~~~~           ~~         ~~
   +H      +Q    E  E  E  Q  E    E  Q   E E E E E E E E E
|------------------------------|-------------------------3-|
|-(17)----(17)-----------------|-----------------8-7-5-3---|
|------------------------------|-------------9-7-----------|
|------------------------11--9-|----12--11-9---------------|
|---------------14-12-10-------|-12------------------------|
|------------------------------|---------------------------|
|
|   ~~~~~~~~~~~           ~~         ~~
|  +H      +Q    E  E  E  Q  E    E  Q   E E E E E E E E E
|-(12)----(12)-----------------|-----------------3-2-----3-|
|------------------------------|-------------5-3-----5-3---|
|--(9)-----(9)-----------------|-----7---6-4-----0-------0-|
|----------------9--7--5-11--9-|--7----------2-0---4-2-0---|
|------------------------------|-----5---4-2---------------|
|----------------7--5--3--9--7-|--5------------------------|


                                       Slower Q=90
  F#7sus4/G                              Dm6add9/A
 6/4
                                                        ~~~~~~~~~~~~~
      |-3-| |-3-| |-3-|  |-3-|  |-3--|
  E E E E E E E E E E E  E E E  E  E E    Q    Q    Q   H     +E   E
|-2---5-3-2-7-5-3-9-7-5-10-9-7-12-10-9-|-14---12---10----------------|
|---5----------------------------------|---------------10----(10)-10-|
|--------------------------------------|-----------------------------|
|--------------------------------------|-----------------------------|
|--------------------------------------|-----------------------------|
|--------------------------------------|-----------------------------|
|
|                                         ~~~~~~~~~~~~~~~~~~~~~~~~
|     |-3-| |-3-| |-3-|  |-3-|  |-3--|
| E E E E E E E E E E E  E E E  E  E E    Q    Q    Q   H     +E   E
|-2---5-3-2-7-5-3-9-7-5-10-9-7-12-10-9-|-14---12---10----------------|
|---5----------------------------------|---------------10----(10)----|
|-----2-0---3-2-0-6-4-2--7-6-4--9--7-6-|-11----9----7-------------12-|
|-4-2-----4----------------------------|----------------7-----(7)----|
|--------------------------------------|--------------------------10-|
|--------------------------------------|-----------------------------|
|
| Gtr III
| W                                       E E  E E  W
|--------------------------------------|---------0-------------------|
|--------------------------------------|------------6----------------|
|--------------------------------------|-----------------------------|
|--------------------------------------|-------0---------------------|
|--------------------------------------|--0--------------------------|
|--------------------------------------|----7------------------------|


                                    H.=H
  D6sus2/A                          Dm6add9/A
 6/4
                                          ~~~~~~~~~~~~~~~~~~~~~~~
   Q    Q.        H     +E   E  E    Q    H        +H        +Q
|------10-------------------14----|------17-------(17)------(17)--||
|----------------12----(12)----15-|-17----------------------------||
|-11------------------------------|-------------------------------||
|---------------------------------|-------------------------------||
|---------------------------------|-------------------------------||
|---------------------------------|-------------------------------||
|
|                                         >
|                                         ~~~~~~~~~~~~~~~~~~~~~~~
|  Q    Q.        H     +E   E  E    Q    H         H         Q
|------10-------------------14----|------17-------(17)------(17)--||
|----------------12----(12)----15-|-17----------------------------||
|-11----7-------------------11----|------14--------14--------14---||
|-----------------9-----(9)----12-|-14----------------------------||
|--9------------------------------|-------------------------------||
|---------------------------------|-------------------------------||
|
|  E E  E  E +W                      E E  E E E E   E  E H
|----------0-(0)------------------|---------0---0-----------------||
|---------------------------------|-----------6-------------------||
|---------------------------------|-------------------------------||
|-------0-------------------------|-------0---------0-------------||
|--0------------------------------|--0-------------------0--------||
|----7----------------------------|----7---------------7----------||


   Violin Solo and Outro
    Moderate Fusion Rock Q=176
    Em6add9/F#                F#7sus4/G
   6/4
    Gtr I
    E E E E E E E E E E E E   E E E E E E E E E E E E  3x
||----------0---------0-----|---------0---------0------||
||o-----2---------2---------|-----2---------2---------o||
||--------0---------0-------|-------4---------4--------||
||----4---------4-----------|---4---------4------------||
||o-------------------------|-------------------------o||
||--2---------2---------2-0-|-3---------3---------3-0--||


  Em6add9/F#
 6/4
  Gtr I
  E E E E E E E E E E E E
|---------0---------0-----|
|-----2---------2---------|
|-------0---------0-------|
|---4---------4-----------|
|-------------------------|
|-2---------2---------2-0-|
|
| Gtr II
| W
|-------------------------|
|-------------------------|
|-------------------------|
|-------------------------|
|-------------------------|
|-------------------------|


  F#7sus4/G
  E  E E  E     E     E     E     E     E     E     E     E
|---------------0-----------------------------0-----------------|
|------2--------------------------2-----------------------------|
|---------4-----------------------------4-----------------------|
|----4----------------------4-----------------------------------|
|---------------------------------------------------------------|
|-3-------------------3-----------------------------3-----0-----|
|
|         <                          <
| Q.      S  S  S  S  S  S  S  S  S  S  S  S  S  S  S  S  S  S
|---------------------------------------------------------------|
|--------15-19-17-15-19-17-15-19-17-15-19-17-15-19-17-15-19-17--|
|---------------------------------------------------------------|
|---------------------------------------------------------------|
|---------------------------------------------------------------|
|---------------------------------------------------------------|


  Em6add9/F#
 6/4
   E     E     E    E     E     E     E    E     E  E  E  E
|-------------------------0-------------------------0-------|
|--------------2---------------------------2----------------|
|-------------------0----------------------------0----------|
|--------4----------------------------4---------------------|
|-----------------------------------------------------------|
|--2----------------------------2----------------------2--0-|
|
| Gtr II
|                 ~~                                      ~~~
|  S  S  S  S  S  E    S  S  S  S  S  S  E    S  E  E  E  E
|-21-19-21--------------------------------------------------|
|----------22-20-19---17-19-17-19---------------12-10-------|
|---------------------------------19-18-16---14-------11-12-|
|-----------------------------------------------------------|
|-----------------------------------------------------------|
|-----------------------------------------------------------|


  F#7sus4/G
    E  E E  E E E E  E E E E E
|-------------0----------0-----|
|--------2-----------2---------|
|-----------4----------4-------|
|------4----------4------------|
|------------------------------|
|---3-----------3----------3-0-|
|
|~~~~~~           ~~
|  +Q.      E E E Q.     E E E
|-----------------9------9-7---|
|----------------------------8-|
|-(12)-----11-9-7--------------|
|------------------------------|
|------------------------------|
|------------------------------|


  Em6add9/F#
 6/4
  E   E    E    E     E    E     E    E     E    E     E  E
|---------------------0--------------------------0----------|
|----------2--------------------------2---------------------|
|---------------0---------------------------0---------------|
|-----4--------------------------4--------------------------|
|-----------------------------------------------------------|
|-2------------------------2---------------------------2--0-|
|
| |--3---| |---3---|  |---3---|  |---3---|  |---3---|
| E E    E E  E    E  E  E    E  E  E    E  E  E    E  E  E
|-----------------------------------------------------------|
|-7-8---10-8-10---12-10-12---14-12-14---15-14-15---17-19-17-|
|-----------------------------------------------------------|
|-----------------------------------------------------------|
|-----------------------------------------------------------|
|-----------------------------------------------------------|


  F#7sus4/G
   E  E     E  E  E E E   E  E E E  E
|-----------------0------------0------|
|-----------2-------------2-----------|
|--------------4-------------4--------|
|-----4---------------4---------------|
|-------------------------------------|
|--3----------------3------------3--0-|
|
|  E  S  S  E  E  E E S S E  E E E  E
|-15-14-15-14-12-10-9-7-9-7-10-9-7-12-|
|-------------------------------------|
|-------------------------------------|
|-------------------------------------|
|-------------------------------------|
|-------------------------------------|


  Em6add9/F#                         F#7sus4/G
 6/4
   E  E  E  E  E  E  E E E E  E  E    E E E E  E  E  E E E E  E  E
|--------------0-----------0-------|-----------0-----------0-------|
|--------2-------------2-----------|------2------------2-----------|
|-----------0------------0---------|--------4------------4---------|
|-----4--------------4-------------|----4------------4-------------|
|----------------------------------|-------------------------------|
|--2--------------2-----------2--0-|--3-----------3-----------3--0-|
|
|                    ~~               ~~             ~~
|  E  E  E  E  E  E  H        E  E    H        E  E  H        E  E
|----12-12----17-15-14-------14-12-|----------13-12----------15-17-|
|-14-------14----------------------|-14-------------12-------------|
|----------------------------------|-------------------------------|
|----------------------------------|-------------------------------|
|----------------------------------|-------------------------------|
|----------------------------------|-------------------------------|


  Em6add9/F#                         F#7sus4/G
 6/4
   E  E  E  E  E  E  E E E E  E  E    e  E E E E e E E E E E E
|--------------0-----------0-------|-----------0---------0-----*|
|--------2-------------2-----------|-------2---------2---------*|
|-----------0------------0---------|---------4---------4-------*|
|-----4--------------4-------------|-----4---------4-----------*|
|----------------------------------|---------------------------*|
|--2--------------2-----------2--0-|--3----------3---------3-0-*|
|
|                    ~~               ~~~
|  E  E  E  E  E  E  H        E  E    W.
|-19-21-21-19----------------------|-21------------------------*|
|-------------20-22-24-------22-24-|---------------------------*|
|----------------------------------|---------------------------*|
|----------------------------------|---------------------------*|
|----------------------------------|---------------------------*|
|----------------------------------|---------------------------*|


Duration Legend
---------------
W - whole; H - half; Q - quarter; E - 8th; S - 16th; T - 32nd; X - 64th; a - acciaccatura
+ - note tied to previous; . - note dotted; .. - note double dotted
Uncapitalized letters represent notes that are staccato (1/2 duration)
Irregular groupings are notated above the duration line
Duration letters will always appear directly above the note/fret number it represents the
duration for.  Duration letters with no fret number below them represent rests.  Multi-
bar rests are notated in the form Wxn, where n is the number of bars to rest for.  Low
melody durations appear below the staff

Tablature Legend
----------------
 h   - hammer-on
 p   - pull-off
 b   - bend
 pb  - pre-bend
 r   - bend release (if no number after the r, then release immediately)
 /\  - slide into or out of (from/to "nowhere")
 s   - legato slide
 S   - shift slide
<n>  - natural harmonic
[n]  - artificial harmonic
n(n) - tapped harmonic
 ~   - vibrato
 tr  - trill
 T   - tap
 TP  - trem. picking
 PM  - palm muting
\n/  - tremolo bar dip; n = amount to dip
 \n  - tremolo bar down
 n/  - tremolo bar up
/n\  - tremolo bar inverted dip
 =   - hold bend; also acts as connecting device for hammers/pulls
 <>  - volume swell (louder/softer)
 x   - on rhythm slash represents muted slash
 o   - on rhythm slash represents single note slash

Misc Legend
-----------
 |  - bar
||  - double bar
||o - repeat start
o|| - repeat end
*|  - double bar (ending)
 :  - bar (freetime)
 $  - Segno
 &  - Coda
Tempo markers - <E/E./Q/Q./H/H.> = BPM(8/16=s8/s16), where s8 = swing 8ths, s16 = swing 16ths
comments
print report bad tab
I want to post or [tab]
guest
You may want to rate the tab now too:
select rating
Please do not post tabs as comments. Select "correction" instead!