Oops, an error
Loading. Please wait.

Bella Tab

39,736 views 915 this week
2 commentsread comments
1 2 3 4 5
excellent!
x 5
add to favorites launch autoscroll
font size
0
reset
Autoscroll
+/-
esc
set tempo
stop
Contributor
Difficulty
intermediate
WARNING: You are trying to view
                                    content from Ultimate-Guitar.com
                                    in an unauthorized application,
                                    which is prohibited.

                                    Please use an official Ultimate
                                    Guitar Tabs application for iPhone,
                                    iPad or Android to access legitimate
                                    chords, guitar, bass, and drum tabs
                                    from Ultimate-Guitar.com database.

                                    Type "ultimate guitar tabs" in Apple
                                    App Store's or Android Market's
                                    search to find the application.
Bella - Maître Gims

Salut à tous ! Vous trouverez la vidéo explicative
sur ma chaîne youtube( pseudo : ipsaous ).


Voilà ! Amusez-vous bien !! :D

Intro :

    Am        E          Am       E
e|--0---------0----------0--------0------0---|
B|--1---3--1--0----3s5---1--3--1--0---3------|
G|--2---------1----------2--------1----------|
D|--2---------2----------2--------2----------|
A|--0---------2----------0--------2----------|
E|------------0-------------------0----------|

    Dm                            Am
e|--------1--------1--3s5--3--1-----------0---------0--1--3--1--0---|
B|------3---3---------------------------1---1-----------------------|
G|----2-------2-----------------------2-------2---------------------|
D|--0-----------0---------------------------------------------------|
A|--------------------------------0--------------0------------------|
E|------------------------------------------------------------------|

   E                                Am
e|---------0------------0h1p0--------------0------------0-------------|
B|-------0---0--------0--------3---------1---1--------1---1-----------|
G|-----1-------1----1------------------2-------2----2-------2---------|
D|-----------------------------------------------2--------------------|
A|----------------------------------0---------------------------------|
E|--0-------------0---------------------------------------------------|

   Dm                            Am
e|--------1--------5-7-8-7-5-------------0-------0-1-3-1-0------------|
B|------3---3--------------------------1---1--------------------------|
G|----2-------2----------------------2-------2------------------------|
D|--0-----------0-----------------------------------------------------|
A|--------------------------------0------------0----------------------|
E|--------------------------------------------------------------------|
   E                           Am
e|--------0---------0-1-0----------------0------0---------------------|
B|------0---0-----3-------------------1---------1---------------------|
G|----1-------1-----------1-2-------2------2----2---------------------|
D|--------------------------------2-------------2---------------------|
A|------------------------------0---------------0---------------------|
E|--0-----------0-----------------------------------------------------|



Bella, Bella, Bella Bellalalalalalala :D

   Dm                      Am
e|--------0h1------------------------0-------------------------------|
B|------3-----3---3--------------0h1---1---1-------------------------|
G|----2---------2-----2--------2---------2---2-----------------------|
D|--0---------------0--------2---------------------------------------|
A|-------------------------0-----------------------------------------|
E|-------------------------------------------------------------------|

   E                          Am
e|--------------0-------------------------0--------------------------|
B|----------0---------3---------------0h1----1---1-------------------|
G|-----1------1----------1---------2-----------2---2-----------------|
D|---2---2-----------------------2-----------------------------------|
A|-----------------------------0-------------------------------------|
E|-0-----------------------------------------------------------------|


Accords tout le long de la chanson :

Dm - Am - E - Am - A7

Rythmique

Dm : B HBHB HHB BH
Am : B HBHB HHB BH
E : B HBHB HHB BH
Am : B B B BH
A7 : B B B BH


[Refrain x2 : Maître Gims]
Elle répondait au nom de "Bella"
Les gens du coin ne voulaient pas la cher-lâ
Elle faisait trembler tous les villages
Les gens me disaient : "Méfie-toi d'cette fille-là"

[Couplet 1]
C'était un phénomène, elle n'était pas humaine
Le genre de femme qui change le plus grand délinquant en gentleman
Une beauté sans pareille, tout le monde veut s'en emparer
Sans savoir qu'elle les mène en bateau
Hypnotisés, on pouvait tout donner
Elle n'avait qu'à demander, puis aussitôt on démarrait
On cherchait à l'impressionner, à devenir son préféré
Sans savoir qu'elle les mène en bateau
Mais quand je la vois danser le soir
J'aimerais devenir la chaise sur laquelle elle s’assoit
Ou moins que ça, un moins que rien
Juste une pierre sur son chemin

[Refrain x2]

[Couplet 2: Maître Gims]
Oui, c'est un phénomène qui aime hanter nos rêves
Cette femme était nommée "Bella la peau dorée"
Les femmes la haïssaient, toutes la jalousaient
Mais les hommes ne pouvaient que l'aimer
Elle n'était pas d'ici, ni facile, ni difficile
Synonyme de "magnifique", à ses pieds : que des disciples
Qui devenaient vite indécis, tremblants comme des feuilles
Elle te caressait sans même te toucher
Mais quand je la vois danser le soir
J'aimerais devenir la chaise sur laquelle elle s’assoit
Ou moins que ça, un moins que rien
Juste une pierre sur son chemin

[Refrain x2]

[Couplet 3: Maître Gims]
Allez, fais-moi tourner la tête, hé-hé
Tourner la tête, héhé
Rends-moi bête comme mes ieds-p', hé-hé
Bête comme mes ieds-p', héhé
J'suis l'ombre de ton ien-ch', hé-hé
L'ombre de ton ien-ch', héhé
Fais-moi tourner la tête, hé-hé
Tourner la tête, héhé
Fais-moi tourner la tête, hé-hé
Tourner la tête, héhé
Rends-moi bête comme mes ieds-p', hé-hé
Bête comme mes ieds-p', héhé
J'suis l'ombre de ton ien-ch', hé-hé
L'ombre de ton ien-ch', héhé
Fais-moi tourner la tête, hé-hé
Tourner la tête, héhé

[Refrain x4]
2 comments total.
0 reply
kenoado wrote on September 11 2013, 10:07 am

Parfait :)

0 reply
madreb wrote on March 21 2014, 10:12 am

Very good! ;)

I want to post or [tab]
guest
You may want to rate the tab now too:
select rating
Please do not post tabs as comments. Select "correction" instead!