Oops, an error
Loading. Please wait.

Apology Tab

1,114 views 1 this week
no commentswrite comment
1 2 3 4 5
excellent!
x 2
add to favorites launch autoscroll
font size
0
reset
Autoscroll
+/-
esc
set tempo
stop
Contributor
Difficulty
Tuning
novice
D A D G B E
WARNING: You are trying to view
                                    content from Ultimate-Guitar.com
                                    in an unauthorized application,
                                    which is prohibited.

                                    Please use an official Ultimate
                                    Guitar Tabs application for iPhone,
                                    iPad or Android to access legitimate
                                    chords, guitar, bass, and drum tabs
                                    from Ultimate-Guitar.com database.

                                    Type "ultimate guitar tabs" in Apple
                                    App Store's or Android Market's
                                    search to find the application.
Makeshift-Romeo - Apology

Drop D Tuning

b + r = bend and release
>     = catch vibrating string immediatly after picking with thumb (pinch harmonic)


(Intro)
 Guitar 1

E|-----------------|-------------------|-----------------|-----------------|
B|-----------------|-------------------|-----------------|-----------------|
G|-2-2-2-2-22-2-2--|-3--3-3-3--3-3-3-3-|-----------------|-----------------|
D|-0-0-0-0-00-0-0--|-3--3-3-3--3-3-3-3-|-----------------|-7-7-7-7-8-8-8-8-|
A|-0-0-0-0-00-0-0--|-1--1-1-1--0-0-0-0-|-8-8-8-8-8-8-8-8-|-7-7-7-7-8-8-8-8-|
D|-0-0-0-0-00-0-0--|-------------------|-5-5-5-5-5-5-5-5-|-7-7-7-7-8-8-8-8-|
 |                                                                         |
 |Guitar 2                                                                 |
 |                                                      (palm mute........)|
E|----------------------|------- |---------------------|-------------------|
B|----------------------|--------|---------------------|-------------------|
G|----------------------|--------|---------------------|-5-5-5-5-5-5-5-5-5-|               
D|-------------------------------|---------------------|-------------------|
A|----------------------|--------|---------------------|-------------------|
D|----------------------|--------|---------------------|-------------------|


  Guitar 1
E|----------------------|---------------------|------------------|----------|
B|----------------------|---------------------|------------------|----------|
G|-2---2-2-2-2---2-2-2--|-3--3-3-3--3---3-3-3-|------------------|----------|
D|-0---0-0-0-0---0-0-0--|-3--3-3-3--3---3-3-3-|------------------|-7--7-7-7-|
A|-0---0-0-0-0---0-0-0--|-1--1-1-1--0---0-0-0-|-88-8-8-8---8-8-8-|-7--7-7-7-|
D|-0---0-0-0-0---0-0-0--|---------------------|-55-5-5-5---5-5-5-|-7--7-7-7-|
 |                                                               |
 |Guitar 2                                                       |
 |                                                               |
E|----------------------|---------------------|--------10--------|----------|
B|6P3-5P3--- 6P3-5P3----|6P3-5P3----6P3-5P3---|------------10----|----------|
G|-------5H7--------5H7-|-------5H7--------5H7|-5-------------9--|b--+--r---|               
D|----------------------|---------------------|------------------|7->9<-7---|
A|----------------------|---------------------|------------------|----------|
D|----------------------|---------------------|------------------|----------|


  guiter 2 cont.
E|-----------|
A|-----------|
D|-b--+---r--|
G|-7->9<--7--|
D|-----------|
A|-----------|
D|-----------|


(Verse 1)
  
  Guitar 1
  (Palm mute......................................................)
E|--------------------------------|--------------------------------|
B|--------------------------------|--------------------------------|
G|--------------------------------|--------------------------------|
D|--------------------------------|--------------------------------|
A|--------------------------------|--------------------------------|
D|0-0-0-0-0-0-0-0-7-7-7-7-7-7-7-7-|3-3-3-3-3-3-3-3-3-3-3-3-3-3-3-3-|
 |                                |                                |
 |Guitar 2                        |                                |
 |                                |                                |
E|--------------------------------|--------------------------------|
B|--------------------------------|--------------------------------|
G|------------2-2-------------2-2-|------------2-2-------------2---|
D|------------>->------------->->-|------------>->------------->-3-|
A|--------------------------------|------------------------------>--|
D|--------------------------------|--------------------------------| 



  Guitar 1
  (Palm mute......................................................)
E|--------------------------------|--------------------------------|
B|--------------------------------|--------------------------------|
G|--------------------------------|--------------------------------|
D|--------------------------------|--------------------------------|
A|--------------------------------|--------------------------------|
D|0-0-0-0-0-0-0-0-7-7-7-7-7-7-7-7-|3-3-3-3-3-3-3-3-3-3-3-3-3-3-3-3-|
 |                                |                                |
 |Guitar 2                        |                                |
 |                                |                                |
E|--------------------------------|--------------------------------|
B|--------------------------------|-------------------------h------|
G|------------2-2-------------2-2-|------------2-2---------<7>-h---|
D|------------>->------------->->-|------------>->------------<7>-3|
A|--------------------------------|------------------------------->|
D|--------------------------------|--------------------------------|



  Guitar 1
  (Palm mute......................................................)
E|--------------------------------|--------------------------------|
B|--------------------------------|--------------------------------|
G|--------------------------------|--------------------------------|
D|--------------------------------|--------------------------------|
A|--------------------------------|--------------------------------|
D|0-0-0-0-0-0-0-0-7-7-7-7-7-7-7-7-|3-3-3-3-3-3-3-3-3-3-3-3-3-3-3-3-|
 |                                |                                |
 |Guitar 2                        |                                |
 |                                |                                |
E|--------------------------------|--------------------------------|
B|--------------------------------|--------------------------------|
G|------------2-2-------------2-2-|------------2-2-------------2---|
D|------------>->------------->->-|------------>->------------->-3-|
A|--------------------------------|------------------------------>-|
D|--------------------------------|--------------------------------|


  Guitar 1
 (Palm mute......................................................)
E|--------------------------------|--------------------------------|
B|--------------------------------|--------------------------------|
G|--------------------------------|--------------------------------|
D|--------------------------------|--------------------------------|
A|--------------------------------|--------------------------------|
D|10-10-10-10-10-10-10-10-10-10-10|8-8-8-8-8-8-8-8-8-8-8-8-8-8-8-8-|
 |                                |                                |
 |Guitar 2                        |                                |
 |                                |                                |
E|--------------------------------|--------------------------------|
B|--------------------------------|--------------------------------|
G|------------2-2-------------2-2-|--------------------------------|
D|------------>->------------->->-|-------------5-5------------5-3-|
A|--------------------------------|------------->->------------>->-|
D|--------------------------------|--------------------------------|

(Bridge)

  Guitar 1

E|--------------------------------|--------------------------------|
B|--------------------------------|--------------------------------|
G|2-------------------------------|2-------------------------------|
D|0--------------10---------------|0---------------10------8-------|
A|0--------------10---------------|0---------------10------8-------|
D|0--------------10---------------|0---------------10------8-------|
 |                                |                                | 
 |Guitar 2                        |                                | 
 |                                |                                |
E|--------------------------------|--------------------------------|
B|--------------------------------|--------------------------------|
G|2--------------10-------9-------|2--------------10-------9-------|
D|X---------------X-------X-------|X---------------X-------X-------|
A|0---------------8-------7-------|0---------------8-------7-------|
D|0-------------------------------|0-------------------------------|

 
 Guitar 1

E|--------------------------------|--------------------------------|
B|--------------------------------|--------------------------------|
G|2-------------------------------|3--------------5----------------|
D|0--------------10---------------|3--------------5----------------|
A|0--------------10---------------|1--------------3----------------|
D|0--------------10---------------|--------------------------------|
 |                                |                                | 
 |Guitar 2                        |                                | 
 |                                |                                |
E|--------------------------------|--------------------------------|
B|--------------------------------|--------------------------------|
G|2--------------10-------9-------|7-------------- 7---------------|
D|X---------------X-------X-------|x---------------x---------------|
A|0---------------8-------7-------|5---------------9---------------|
D|0-------------------------------|--------------------------------|

  (Chorus)

  Guitar 1 
  
E|--------------------------------|--------------------------------|
B|--------------------------------|--------------------------------|
G|2--------------3----------------|5-------------------------  ----|
D|0--------------3----------------|5----------------7-------8------|
A|0--------------1----------------|3----------------7-------8------|
D|0-------------------------------|-----------------7-------8------|
 |                                |                                | 
 |Guitar 2                        |                                |
E|--------------------------------|--------------------------------|                         

             
B|--------------------------------|--------------------------------|
G|--------------------------------|--------------------------------|
D|7------5-------7--------5-------|7--------5-------8-7-5-3-3-2----|
A|-5-7-8---5--8----5-7-8-----5--8-|---5-7-8----5------------>->-3-5|
D|--------------------------------|----------------------------->->|



   Guitar 1 
  
E|--------------------------------|--------------------------------|
B|--------------------------------|--------------------------------|
G|2--------------3----------------|5-------------------------  ----|
D|0--------------3----------------|5----------------7-------8------|
A|0--------------1----------------|3----------------7-------8------|
D|0-------------------------------|-----------------7-------8------|
 |                                |                                | 
 |Guitar 2                        |                                |
E|--------------------------------|--------------------------------|                         

             
B|--------------------------------|--------------------------------|
G|--------------------------------|--------------------------------|
D|7------5-------7--------5-------|7--------5-------8-7-5-3-3-2----|
A|-5-7-8---5--8----5-7-8-----5--8-|---5-7-8----5------------>->-3-5|
D|--------------------------------|----------------------------->->|


Repeat Verse 

Repeat Bridge

repeat chorus    then:


  Guitar 1

E|--------------------------------|--------------------------------|
B|--------------------------------|--------------------------------|
G|--------------------------------|--------------------------------|
D|--------------------------------|--------------------------------|
A|--------------------------------|--------------------------------|
D|0-0-0-8-0-0-0-7-0-0-0-3-0-0-0---|0-0-0-8-0-0-0-10-0-0-0-7-0-0-0--| 
PM  ...   .....   .....   ......     ...   .....    .....   .....    


  Guitar 1 + 2

E|--------------------------------|
B|--------------------------------|
G|3--------------5----------------|
D|3--------------5----------------|
A|1--------------3----------------|
D|--------------------------------| X2



  Guitar 1
E|----------------------|---------------------|------------------|----------|
B|----------------------|---------------------|------------------|----------|
G|-2---2-2-2-2---2-2-2--|-3--3-3-3--3---3-3-3-|------------------|----------|
D|-0---0-0-0-0---0-0-0--|-3--3-3-3--3---3-3-3-|------------------|-7--7-7-7-|
A|-0---0-0-0-0---0-0-0--|-1--1-1-1--0---0-0-0-|-88-8-8-8---8-8-8-|-7--7-7-7-|
D|-0---0-0-0-0---0-0-0--|---------------------|-55-5-5-5---5-5-5-|-7--7-7-7-|
 |                                                               |
 |Guitar 2                                                       |
 |                                                               |
E|----------------------|---------------------|--------10--------|----------|
B|6P3-5P3--- 6P3-5P3----|6P3-5P3----6P3-5P3---|------------10----|----------|
G|-------5H7--------5H7-|-------5H7--------5H7|-5-------------9--|b--+--r---|               
D|----------------------|---------------------|------------------|7->9<-7---|
A|----------------------|---------------------|------------------|----------|
D|----------------------|---------------------|------------------|----------|





  Then chorus x2

outro just play the verse but the rhythem guitar plays heavier without the palm mutes and 

with more open chords

hope you enjoy



 



comments
We did not receive enough feedback on this tab! Please rate:
1 2 3 4 5
I want to post or [tab]
guest
You may want to rate the tab now too:
select rating
Please do not post tabs as comments. Select "correction" instead!