Oops, an error
Loading. Please wait.

Sentuhan Kidal Tab

4,863 views 12 this week
no commentswrite comment
1 2 3 4 5
please rate
add to favorites launch autoscroll
font size
0
reset
Autoscroll
+/-
esc
set tempo
stop
Contributor
Difficulty
intermediate
WARNING: You are trying to view
                                    content from Ultimate-Guitar.com
                                    in an unauthorized application,
                                    which is prohibited.

                                    Please use an official Ultimate
                                    Guitar Tabs application for iPhone,
                                    iPad or Android to access legitimate
                                    chords, guitar, bass, and drum tabs
                                    from Ultimate-Guitar.com database.

                                    Type "ultimate guitar tabs" in Apple
                                    App Store's or Android Market's
                                    search to find the application.
  Q    H.               H         Q    S  S  S S    H         Q    Q
E||---------------------|---------------------------|----------------------|
B||---------------------|---------------------------|----------------------|
G||-------9~------------|--7~--------4----5h-7p-5-4-|--5~--------7----9----|
D||---------------------|---------------------------|----------------------|
A||---------------------|---------------------------|----------------------|
E||---------------------|---------------------------|----------------------|


   S   S   S  S  H.               Q.      E  Q    Q
-------------------------------|------------------------|
-------------------------------|------------------------|
--10h-12p-10p-9-10~------------|--9~------7--5----5~----|
-------------------------------|------------------------|
-------------------------------|------------------------|
-------------------------------|------------------------|


  Q    E  E  H            E  E  H         Q        H         E  E  E
-----------------------|------------------------|---------------------|
-----------------------|------------------------|---------------------|
--L----7--5--4~--------|--5--7--9~--------7~----|--9~--------5--------|
-----------------------|------------------------|---------------7--7--|
-----------------------|------------------------|---------------------|
-----------------------|------------------------|---------------------|


   E  E  E   Q      E  E   E      Q      S   S   S   S  H
------------------------------|----------------------------------|
-----------------------8--10--|--13~----12h-13p-12p-10-12--------|
------7--9--10~----10---------|----------------------------------|
--/7--------------------------|----------------------------------|
------------------------------|----------------------------------|
------------------------------|----------------------------------|


                                                      \3
   S   S   S   S E   E  E  E   E  E     E  E  Q.      Q.
-------------------------------------|-----------------------|
--12h-13p-12p-10-9-------------------|-----------------------|
--------------------10--9--7---------|-----------------------|
------------------------------10--9--|--7--6--7~------6------|
-------------------------------------|-----------------------|
-------------------------------------|-----------------------|


  W                   Q     H.               H         Q
-------------------|----------------------|------------------|
-------------------|----------------------|------------------|
-------------------|--------9~------------|--7~--------4~----|
--L----------------|--7~------------------|------------------|
-------------------|----------------------|------------------|
-------------------|----------------------|------------------|


  H         Q    Q        S   S   S  S  H.               Q.      E  Q    Q
----------------------|-------------------------------|------------------------|
----------------------|-------------------------------|------------------------|
--5~--------7----9----|--10S-12p-10p-9-10~------------|--9~------7--5----5~----|
----------------------|-------------------------------|------------------------|
----------------------|-------------------------------|------------------------|
----------------------|-------------------------------|------------------------|


  Q    E  E  H            E  E  H         Q       H         E  E  E
-----------------------|-----------------------|----------------------|
-----------------------|-----------------------|----------------------|
--L----7--5--4b--------|--5--7--9~--------7----|--9~--------5---------|
-----------------------|-----------------------|---------------7--7~--|
-----------------------|-----------------------|----------------------|
-----------------------|-----------------------|----------------------|


  E  E  E  E    E   Q      E  E   E      Q      S  S   S   S   S  H
-------------------------------------|-------------------------------------|
------------------------------8--10--|--13~----13-12h-13p-12p-10-12--------|
-----7--9--9s--10--10~----10---------|-------------------------------------|
--7----------------------------------|-------------------------------------|
-------------------------------------|-------------------------------------|
-------------------------------------|-------------------------------------|


   E   S   S   S   S Q     E  S  S S  S     E  S   S  S  E   E  S   S S Q
----------------------------------------|-------------------------------------|
--13--12h-13p-12p-10-9------------------|-------------------------------------|
--------------------------10--9-10-9S-7-|--10--9h-10p-9p-7--------------------|
----------------------------------------|-------------------10--9h-10-9-7~----|
----------------------------------------|-------------------------------------|
----------------------------------------|-------------------------------------|


  T T T T T T T T Q    T  T T  T T  T T  T  Q
--------5-8-5---------------8-12-8---------------|
------5-------5----------10--------10------------|
----5-----------5------9--------------9----------|
--7---------------7---------------------10-------|
-------------------------------------------12----|
-------------------------------------------------|


    Q     Q      E  E  E   E     E   E  E   E   E   E  E   E
------------------------------|-------------------------------|
------------------------------|-------------------------------|
--/10~----L~----10--9--7------|----------------12--10--9------|
--------------------------10--|--9------9--12-------------12--|
------------------------------|-----10------------------------|
------------------------------|-------------------------------|


  S   T  T   T  T   T  T   T  T   T  T T Q     E  E
-----------------------------------------------------|
-----------------------------------------------------|
--9h-10p-9h-10p-9h-10p-9h-10p-9h-10p-9---7~----L--4--|
-----------------------------------------------------|
-----------------------------------------------------|
-----------------------------------------------------|


           |--3--|
  Q     E  S  S  S E  E  E  E     Q     E  E   E  E  E  E
-------------------------------|---------------------------|
-------------------------------|---------------------------|
--5~----L--4h-5p-4----4--5-----|--4~----L-----/7--5--4-----|
-------------------7--------7--|------------------------7--|
-------------------------------|---------------------------|
-------------------------------|---------------------------|


  E  E  E  E  E  E  E   E     Q    Q    Q    Q       Q    Q    E  E  E  E
---------------------------|----------------------|------------------------|
---------------------------|----------------------|------------------------|
--------------4--5--7--10--|--9--------------L----|------------L-----7--9--|
--6--L--6--7---------------|----------------------|---------------7--------|
---------------------------|----------------------|------------------------|
---------------------------|----------------------|------------------------|


   E  E  E  E   E  E  E   E     E   E  E   E   E   T   T   T  E   E
-----------------------------|---------------------------------------|
-----------------------------|---------------------------------------|
--10--L--7--9--10--9--7------|----------------12--10h-12p-10p-9------|
-------------------------10--|--9------9--12---------------------12--|
-----------------------------|-----10--------------------------------|
-----------------------------|---------------------------------------|


  S   T  T   T  T   T  T   T  T   T  T   T T T T  Q    S  S  E
-----------------------------------------------------------------|
-----------------------------------------------------------------|
--9h-10p-9h-10p-9h-10p-9h-10p-9h-10p-9h-10-----------------------|
-------------------------------------------------12------10p-9h--|
-----------------------------------------------------------------|
-----------------------------------------------------------------|


                                             PM
          |-3-|
  Q    E  S S S E  E  E  E     Q    Q     E  E  E  E
----------------------------|-------------------------|
----------------------------|-------------------------|
--5----L--4-5-4----4--5-----|--7----L----/7-----7--9--|
----------------7--------7--|----------------7--------|
----------------------------|-------------------------|
----------------------------|-------------------------|


       PM
   E   E   E   E   E   E   E   E
----------------------------------|
--------------10--13--12--10--13--|
--10------10----------------------|
------10--------------------------|
----------------------------------|
----------------------------------|


   Q     E   S   S   S  E   E   E   E   E   E   E      E   E
-------------------------------------------12--13--|--15--17-----|-----------|
--12----13--12h-13p------------12--13--15----------|-------------|-----------|
--------------------14-13--14----------------------|-------------|-----------|
---------------------------------------------------|-------------|-----------|
---------------------------------------------------|-------------|-----------|
---------------------------------------------------|-------------|-----------|


   H          Q       Q           Q     Q     E   E
------------------------------|----------------------|
--15b--------15pb----15pbr----|--13----15----13--13--|
------------------------------|----------------------|
------------------------------|----------------------|
------------------------------|----------------------|
------------------------------|----------------------|


   E   Q.       E   E  E   E     E   E   E   E   E
------------------------------|----------------------|
--12--12br---------13-----15--|--L--13--13--12--12b--|
----------------9------9------|----------------------|
------------------------------|----------------------|
------------------------------|----------------------|
------------------------------|----------------------|


  E   E  E   Q     E   E   E   Q         Q       Q        E   E   E   E
-------------------------------------|-----------------------------------|
-----13-----15----13--13--12--15b----|--15pb----15pbr----13--15--13--13--|
--9------9---------------------------|-----------------------------------|
-------------------------------------|-----------------------------------|
-------------------------------------|-----------------------------------|
-------------------------------------|-----------------------------------|


   E    E  H         E   E      E   E   E   Q.      Q     S   S
----------------------------|------------------------------------|
--12h--13---------------10--|--12--13--12--12------10----10h-12h-|
-----------9--------/9------|------------------------------------|
----------------------------|------------------------------------|
----------------------------|------------------------------------|
----------------------------|------------------------------------|


   Q     Q     Q          Q     E   E   Q      E   E
---------------------|--------------------------------|
--10-----------------|--/15----13--12--13----/15--13--|
--------12----12b----|--------------------------------|
---------------------|--------------------------------|
---------------------|--------------------------------|
---------------------|--------------------------------|


          \1/       \1/          \1/       \1/        \1/        \1/
    Q     E  E  E   E  E  E      E  E  E   E   E  E   E   E  E   E  E  E
-----------------------------|--------------------------------------------|
--/15----15--L-----13--L-----|--12--L-----10---L-----13---L-----12--L-----|
-----------------------------|--------------------------------------------|
-----------------------------|--------------------------------------------|
-----------------------------|--------------------------------------------|
-----------------------------|--------------------------------------------|


  \1/
  E   E     W
----------------------------------------------|
--9---L--<>10---------------------------------|
----------------------------------------------|
----------------------------------------------|
----------------------------------------------|
----------------------------------------------|


  T T T T T T T T T T T T T T  T T  T T  T  T  T T  T T  T T  T T  T T  T  T
--------------5-8-5-------5-8-12-8--------------------8-12-8---------8-12-17-|
------------5-------5---5----------10--------------10--------10---10---------|
----------5-----------5---------------9----------9--------------9------------|
--------7-------------------------------10----10-----------------------------|
------7------------------------------------12--------------------------------|
--5-8------------------------------------------------------------------------|


   T  T  T  T  T  T  T  T  T  T  T  T  T  T  T  T  T  T  T  T  T  T  T  T  T  T
--12----------------------------12-17-15-13-12-15-13-12-10-13-12-10----12-10----|
-----13----------------------13-------------------------------------13-------13-|
--------14----------------14----------------------------------------------------|
-----------14----------14-------------------------------------------------------|
--------------15-12-15----------------------------------------------------------|
--------------------------------------------------------------------------------|


   T T  T T T  T T  Q     E     Q       S S  S S S  S S S  E   S
-------------------------------------|---------------------------|
-----------------9-10b----L--<>10----|------10-----12-----13--12-|
----------7-9-10---------------------|--9-9----9-9----9-9--------|
--10-9-10----------------------------|---------------------------|
-------------------------------------|---------------------------|
-------------------------------------|---------------------------|


  S S  S S  S S  S S  S S  S S  S   E      E   T   T   S   Q     E   E
---------------------------------------|---------------------------------|
------10---12---13---12---10---12s-15--|--13--12h-13p-12S-10----12--11b--|
--9-9----9----9----9----9----9---------|---------------------------------|
---------------------------------------|---------------------------------|
---------------------------------------|---------------------------------|
---------------------------------------|---------------------------------|


   T  T  T  T  T  T  T  T  T  T  T  T  T  T  T  T  T  T T  T T T  T T T T T  T T
--13-12-10----------13-12-10----------13-12-10-----------------------------------|
-----------13-12-10----------13-12-10----------13-12-10-9------------------------|
----------------------------------------------------------10-9-7---------------8-|
-----------------------------------------------------------------10-9-7-6-7-10---|
---------------------------------------------------------------------------------|
---------------------------------------------------------------------------------|


  T  T  T  T  T  T  T  T  T  T  T  T  E
-------------------------11-14-11--------|
-------10-13-10----10-13----------13-----|
--8-11----------11-------------------14--|
-----------------------------------------|
-----------------------------------------|
-----------------------------------------|


   T T T T T  T T T T T  T T T T  T T T T T T  T T T T T  T T T T T  T
--10-7----------------7-10-7---7-12-7-------7-10-7----------------7-10-|
-------8------------8--------8--------8---8--------8------------8------|
---------7--------7---------------------7------------7--------7--------|
-----------9----9--------------------------------------9----9----------|
-------------10------------------------------------------10------------|
-----------------------------------------------------------------------|


  T T T T T  T T T T  T T T  T T T  T   T  T  T  T  T  T  T   T  T  T  T  T  T
--7-------7-10-7---7-12-7--------7-10S-13-10----------10-13S-16-13-------------1-|
----8---8--------8--------9----9-------------12----12--------------15-16----15---|
------7---------------------10------------------13-----------------------16------|
---------------------------------------------------------------------------------|
---------------------------------------------------------------------------------|
---------------------------------------------------------------------------------|


   E     E   S S S   S  S  S  S  S  S  S  S  S
--19br---L--17---------17----19----20----19----|
-------------------/17----17----17----17----17-|
-----------------------------------------------|
-----------------------------------------------|
-----------------------------------------------|
-----------------------------------------------|


   S  E    E   E      E     E    Q     E       Q        Q
--17------20--------------------20----20b--|--20pbr----------|
-----20b---L--20pbr--18--<>20b---L---------|-----------17----|
-------------------------------------------|-----------------|
-------------------------------------------|-----------------|
-------------------------------------------|-----------------|
-------------------------------------------|-----------------|


   S  S  T  T  T  T  T  T  T  T  T  T  T  T  T  T  T  T  T  T  T  T  T  T  T  T
--20-20-20-20-20-20-20-20-20-20-20-20-20-20-20-20-20-20-20-19-17-16-19-17-16-13-|
--------------------------------------------------------------------------------|
--------------------------------------------------------------------------------|
--------------------------------------------------------------------------------|
--------------------------------------------------------------------------------|
--------------------------------------------------------------------------------|


   T  T  T  T  T  T  T  T  T  T  T  T  T  T  T  T  T T  T T  T T  T T  T T T  T
--16-13-12-10-13-12-10----12-10-------------------------------------------------|
-----------------------13-------13-12-10-12-13-12-10-9-10-9---------9-----------|
------------------------------------------------------------10-9-10---10-9-7----|
-----------------------------------------------------------------------------10-|
--------------------------------------------------------------------------------|
--------------------------------------------------------------------------------|


                                                     \1
  T  T T T T T T T T T T T T T T T T T T T T T T T T Q
----------------------------------------------------------|
----------------------------------------------------------|
--7------5-7-5-7-5-----4-5-4-5-4-----2-4-2-4-2-------2----|
----10-9-----------9-7-----------7-6-----------5-3-5------|
----------------------------------------------------------|
----------------------------------------------------------|


  \1 -/1 \1   \1 -/1 \1   \1 -/1 \1
  S  S   Q    S  S   Q    S  S   Q
--------------------------------------|----|
--------------------------------------|----|
--5--7---5----4--5---4----2--4---2----|----|
--------------------------------------|----|
--------------------------------------|----|
--------------------------------------|----|


   T  T  T  T  T  T  T  T  T  T  T  T  T  T  T  T  T  T  T  T  T  T  T  T  T  T
--------------------10-13-10----------------10-13-10----------------10-15-10----|
-----------------10----------10----------10----------10----------10----------10-|
--------------10----------------10----10----------------10----10----------------|
-----------12----------------------12----------------------12-------------------|
--------12----------------------------------------------------------------------|
--10-13-------------------------------------------------------------------------|


   T T T T T  T T T T T T  T T T T T T  T T T T T T  T T T T T  T  T T T
-----------7-10-7-------7-10-7-------7-12-7-------7-10-7-----------------|
---------8--------8---8--------8---8--------8---8--------8-------------8-|
-------7------------7------------7------------7------------7---------9---|
-----9-------------------------------------------------------9----10-----|
--10-----------------------------------------------------------10--------|
-------------------------------------------------------------------------|


  T  T T T T  T T T T  T T T T  T T T T T  T T T T T T T T  T T T T T T
--8-12-8------------8-12-8--------------7-10-7-----------7-10-7---------|
---------8--------8--------8----------7--------7-------7--------7-------|
-----------9----9------------9------7------------7---7------------7-----|
-------------10----------------10-9----------------9----------------9-7-|
------------------------------------------------------------------------|
------------------------------------------------------------------------|


  T T T T T T T T T T T T T T T T T T T T T T T T T T T T T T T T
------5-8-5-----------5-8-5-----------4-7-4-----------7-4---------|
----5-------5-------5-------5-------6-------6-------6-----6-------|
--5-----------5---5-----------5---7-----------7-4-7---------7-4-7-|
----------------7---------------7---------------------------------|
------------------------------------------------------------------|
------------------------------------------------------------------|


  T T T  T T T  T T  T T T  T T T  T T T  T  T  T  T  T  T  T  T  T  T  T  T  T
----4-7-10-7-------------7-10-7--------7-10-13-10----------------10-13-10-------|
--6----------9---------9--------9----9------------12----------12----------12----|
---------------10-7-10------------10-----------------13-10-13----------------13-|
--------------------------------------------------------------------------------|
--------------------------------------------------------------------------------|
--------------------------------------------------------------------------------|


   T  T  T  T  T  T  T  T  T  T  T  T  T  T  T  T  T  T  T  T  T  T  T  T  T  T
--13-16-13----------13-16-19-16----------16-19-16----------16-17-12-------------|
-----------15----15-------------18----18----------18----18----------12----------|
--------------16-------------------19----------------19----------------13----13-|
--------------------------------------------------------------------------14----|
--------------------------------------------------------------------------------|
--------------------------------------------------------------------------------|


   T  T  T  T  T  T  T  T  T  T  T  T  T  T  T  T
-----------12-16-12----------------12-16-12-------|
--------12----------12----------12----------12----|
-----13----------------13----13----------------13-|
--14----------------------14----------------------|
--------------------------------------------------|
--------------------------------------------------|


   T  T  T  T  T  T  T  T  T  T  T  T  T  T  T  T  T  T  T  T  T  T  T  T  T  T
-----------12-17-12----------------12-17-12----------------12-16-12-------------|
--------12----------12----------12----------12----------12----------12----------|
-----13----------------13----13----------------13----13----------------13----13-|
--14----------------------14----------------------14----------------------14----|
--------------------------------------------------------------------------------|
--------------------------------------------------------------------------------|


   T  T  T
-----------|
-----------|
-----------|
--14-------|
-----14----|
--------12-|


   T  T  T  T  T  T  T  T  T  T  T  T  T  T  T  T  T  T  T  T  T  T  T  T  T
--17-13----------13-17-13----------------------------13-17-13----13-17-13----|
--------15----15----------15----------------------15----------15----------15-|
-----------14----------------14----------------14----------------------------|
--------------------------------15----------15-------------------------------|
-----------------------------------17-12-17----------------------------------|
-----------------------------------------------------------------------------|


   T  T  T  T  T  T  T  T  T  T  T  T  T  T  T  T  T  T  T  T  T  T  T  T  T  T
--------13-17-19-15----------------15-19-15----------------15-20-15----------15-|
-----15-------------15----------15----------15----------15----------15----15----|
--14-------------------16----16----------------16----16----------------16-------|
--------------------------17----------------------17----------------------------|
--------------------------------------------------------------------------------|
--------------------------------------------------------------------------------|


   T  T  T  T  T  T  T  T  T  T  T  T  T  T  T  T  T  T  T  T  T  T  T  T  T  T
--12-15-12----------------------12-15-12----10-13-10----------10-13-10----10-13-|
-----------13----------------13----------13----------12----12----------12-------|
--------------12----------12----------------------------12----------------------|
-----------------14----14-------------------------------------------------------|
--------------------15----------------------------------------------------------|
--------------------------------------------------------------------------------|


  T  T T  T  T  T T T  T T T  T T T  T T T  T  T  T  T  T  T  T  T  T  T  T  T
--8------------10-7----------------------7-10-13-10----------------------------1-|
----10--------------9------------------9------------12----------------------12---|
-------9--------------10-7--------7-10-----------------13-10----------10-13------|
---------10----------------9----9----------------------------12----12------------|
------------12---------------11---------------------------------14---------------|
---------------------------------------------------------------------------------|


   T  T  T  T  T  T  T  T  T  T  T  T  T  T  T  T  T  T  T  T  T  T  T  T  T  T
--13----------------------------13-17-13----------------13-17-13----------------|
-----15----------------------15----------13----------13----------13----------13-|
--------16-13----------13-16----------------14----14----------------14----14----|
--------------15----15-------------------------15----------------------15-------|
-----------------17-------------------------------------------------------------|
--------------------------------------------------------------------------------|


   T  T  T  T  T  T  T  T  T  T  T  T  T  T  T  T  T  T  T  T  T  T  T  T  T  T
-----------12-16-12----------------12-17-12----------------12-16-12-------------|
--------12----------12----------12----------12----------12----------12----------|
-----13----------------13----13----------------13----13----------------13----13-|
--14----------------------14----------------------14----------------------14----|
--------------------------------------------------------------------------------|
--------------------------------------------------------------------------------|


   T  T  T  T  T  T  T  T  T  T  T  T   E           Q    H.
-----------12-16-12----------------12-/17--|-----|--------------------|
--------12----------12----------12---------|-----|--------------------|
-----13----------------13----13------------|-----|-------9------------|
--14----------------------14---------------|-----|--7-----------------|
-------------------------------------------|-----|--------------------|
-------------------------------------------|-----|--------------------|


  H        Q       H.           E  Q        H.            E.    E.
----------------|-----------------------|---------------------------|
----------------|-----------------------|---------------------------|
--7--------4----|--5------------7--9----|--10------------10S---12---|
----------------|-----------------------|---------------------------|
----------------|-----------------------|---------------------------|
----------------|-----------------------|---------------------------|


   Q.      T  E  E  S  E  S  S E   E     E     E  E  E   H        Q
--------------------------------------|-----|--------------------------|
--------------------------------------|-----|--------------------------|
--10------12p-9--7--7S-9--7S-5-7S--4--|--4--|--5--7--7S--9--------7----|
--------------------------------------|-----|--------------------------|
--------------------------------------|-----|--------------------------|
--------------------------------------|-----|--------------------------|


                                                                 \1
  H          E  E  E     E  E  E   Q     E  E   E      Q         Q
----------------------|----------------------------|---------|--------|
----------------------|---------------------8--10--|--13~----|--12----|
--9--------<>5--------|-----7--9--10----10---------|---------|--------|
----------------7--7--|--7-------------------------|---------|--------|
----------------------|----------------------------|---------|--------|
----------------------|----------------------------|---------|--------|


   /1
   Q      Q       Q        Q        Q      Q       Q
--------------------------------|-------------------------|
--13b----13pb----13pbr----12----|--15b----15pb----15pb----|
--------------------------------|-------------------------|
--------------------------------|-------------------------|
--------------------------------|-------------------------|
--------------------------------|-------------------------|


   Q       Q        Q     Q         Q      Q
-------------------------15b----|--15b----15b----||
--15pb----15pbr----13-----------|----------------||
--------------------------------|----------------||
--------------------------------|----------------||
--------------------------------|----------------||
--------------------------------|----------------||
comments
We did not receive enough feedback on this tab! Please rate:
print report bad tab
1 2 3 4 5
I want to post or [tab]
guest
You may want to rate the tab now too:
select rating
Please do not post tabs as comments. Select "correction" instead!