Oops, an error
Loading. Please wait.

Before We Met Tab

765 views 1 this week
no commentswrite comment
1 2 3 4 5
excellent!
x 1
Autoscroll
+/-
esc
set tempo
stop
Contributor
Difficulty
Tuning
novice
D# G# C# F# A# D#
WARNING: You are trying to view
                                    content from Ultimate-Guitar.com
                                    in an unauthorized application,
                                    which is prohibited.

                                    Please use an official Ultimate
                                    Guitar Tabs application for iPhone,
                                    iPad or Android to access legitimate
                                    chords, guitar, bass, and drum tabs
                                    from Ultimate-Guitar.com database.

                                    Type "ultimate guitar tabs" in Apple
                                    App Store's or Android Market's
                                    search to find the application.
Artist    : Man Overboard
Album     : Before We Met: A Collection of Old Songs (2010)

Tabbed by : Boris Paskhaver (bigbadb)
Email     : bp771@nyu.edu


Tuning    : Eb (Half Step Down) - Eb Ab Db Gb Bb Eb
            Tracks 1-5, 7-10

          : Drop Db (Drop D + Half Step Down) - Db Ab Db Gb Bb Eb
            Track 6

Track Listing:

I.    Love Your Friends, Die Laughing
II.   Dreaming
III.  The Real You
IV.   Disconnect
V.    Dude, Are You Kidding Me?
VI.   Arlington Drive
VII.  While You Were Sleeping
VIII. In Orbit
IX.   The Usual Results
X.    Top Eight

**  DEFEND POP PUNK  **

-----------------------------------------------------------------------------
                        I. LOVE YOUR FRIENDS, DIE LAUGHING
-----------------------------------------------------------------------------

Tabbed by : Drew Hemesath

Key: Eb Major

VERSE (0:01)

   (x6)
eb|------0---------------------------------------|
Bb|------0---------------------------------------|
Gb|------1---------------------------------------|
Db|------2---------------------------------------|
Ab|------2---------------------------------------|
Eb|------0---------------------------------------|
  1    night gets old so I'm back again
  2  A fat smoke and a funny joke
  3  I just got the nerve to get in the cage
  4  I just got the nerve to get in the cage
  5
  6

eb|----------------------------------0-----------|
Bb|----------------------------------0-----------|
Gb|----------------------------------2-----------|
Db|-----4----------------------------2-----------|
Ab|-----4----------------------------0-----------|
Eb|-----2----------------------------------------|
  1    day just started 'cause I'm  up with my old 
  2  Sitting like a sponge and   everything soak
  3     bite me now
  4     bite me now
  5
  6

CHORUS (0:36, 1:22)

   (x4)
eb|------0---------------------------------------|
Bb|------0---------------------------------------|
Gb|------1---------------------------------------|
Db|------2---------------------------------------|
Ab|------2---------------------------------------|
Eb|------0---------------------------------------|
  1    love tonight as a result of a fight
  2   a day's worth of bitching goes down
  3  Shut up, shut up, it's my turn to talk
  4  Cause a day's worth of bitching goes down

eb|----------------------------------0--------------------|
Bb|----------------------------------0--------------------|
Gb|----------------------------------2--------------------|
Db|-----4----------------------------2--------------------|
Ab|-----4----------------------------0--------------------|
Eb|-----2-------------------------------------------------|
  1    put your arms around me, the whole world's alright
  2  lay in my bed             and  pick my brain
  3   Don't try to run before you    learn to talk
  4  lay in my bed             and  pick my brain

POSTCHORUS (0:59, 1:46)

   (x3)
eb|--0-----------0-----------------------------------------|
Bb|--0-----------0-----------------------------------------|
Gb|--2-----------1------------4-------------6--------------|
Db|--2-----------2------------4-------------6--------------|
Ab|--0-----------2------------2-------------4--------------|
Eb|--------------0-----------------------------------------|
  1  I left my heart with my phone in my center console
  2  I left my feelings   my wallet and my keys
  3  I feel so stupid,    I came here    anything,

   (x1)
eb|------------0----------0-------------|
Bb|------------0----------0-------------|
Gb|------------2----------1--------4----|
Db|------------2----------2--------4----|
Ab|------------0----------2--------2----|
Eb|-----------------------0-------------|
  1  but I'm finally at ease

END ON (2:10)

eb|--0--|
Bb|--0--|
Gb|--1--|
Db|--2--|
Ab|--2--|
Eb|--0--|



-----------------------------------------------------------------------------
                                II. THE REAL YOU
-----------------------------------------------------------------------------

Key: Eb Major
  
INTRO (0:00):

   (x1)
eb|-------------------------------------|
Bb|-------------------------------------|
Gb|--9-9-9-9-9-9-9-9-9-9-9-9-9-9-9-9-9--|
Db|-------------------------------------|
Ab|-------------------------------------|
Eb|-------------------------------------|
     P.M------------------------------|

VERSE ONE (0:02)

   (x1)
eb|----------------------------------------------------------------------|
Bb|----------------------------------------------------------------------|
Gb|-------------------6--------------------------------------------------|
Db|--7----------------6--  LET RING  --7----------------2----------------|
Ab|--7--  LET RING  --4----------------7--  LET RING  --2--  LET RING  --|
Eb|--5---------------------------------5----------------0----------------|
  1    This fading      should have       Turn off the    slow

   (x1)
eb|--------------------------------|
Bb|--------------------------------|
Gb|--4--4-4-4-4-4-4-4-4-4-4--4--4--|
Db|--4--4-4-4-4-4-4-4-4-4-4--4--4--|
Ab|--2--2-2-2-2-2-2-2-2-2-2--2--2--|
Eb|--------------------------------|
        P.M----------------|

CHORUS ONE (0:23)

   (x1)
eb|--------------------------------------------|
Bb|--------------------------------------------|
Gb|--------------------------------------------|
Db|--2-2--2-2--2-2--2-2----2-2--2-2--2-2--2-2--|
Ab|--2-2--2-2--2-2--2-2----2-2--2-2--2-2--2-2--|
Eb|--0-0--0-0--0-0--0-0----0-0--0-0--0-0--0-0--|
  1   Where were all        needed someone to

   (x1)
eb|--------------------------------------------|
Bb|--------------------------------------------|
Gb|--6-6--6-6--6-6--6-6------------------------|
Db|--6-6--6-6--6-6--6-6----7-7--7-7--7-7--7-7--|
Ab|--4-4--4-4--4-4--4-4----7-7--7-7--7-7--7-7--|
Eb|------------------------5-5--5-5--5-5--5-5--|
  1                               I feel like

POSTCHORUS (0:34)

   (x2)
eb|-------------------------------------------------------------------|
Bb|-------------------------------------------------------------------|
Gb|-------------------4----------------6------------------------------|
Db|--2----------------4--  LET RING  --6--  LET RING----7-7---7-7--7--|
Ab|--2--  LET RING  --2----------------4----------------7-7---7-7--7--|
Eb|--0--------------------------------------------------5-5---5-5--5--|
  1   dying                     here                 I feel like I'm
  2   dying             here   

VERSE TWO (0:45)

   (x1)
eb|----------------------------------------------------------------------|
Bb|----------------------------------------------------------------------|
Gb|-------------------6--------------------------------------------------|
Db|--7----------------6--  LET RING  --7----------------2----------------|
Ab|--7--  LET RING  --4----------------7--  LET RING  --2--  LET RING  --|
Eb|--5---------------------------------5----------------0----------------|
  1    You never        I knew from    Never too late  Trying hard

   (x1)
eb|--------------------------------|
Bb|--------------------------------|
Gb|--4--4-4-4-4-4-4-4-4-4-4--4--4--|
Db|--4--4-4-4-4-4-4-4-4-4-4--4--4--|
Ab|--2--2-2-2-2-2-2-2-2-2-2--2--2--|
Eb|--------------------------------|
        P.M----------------|

CHORUS TWO (1:06)

   (x2)
eb|--------------------------------------------|
Bb|--------------------------------------------|
Gb|--------------------------------------------|
Db|--2-2--2-2--2-2--2-2----2-2--2-2--2-2--2-2--|
Ab|--2-2--2-2--2-2--2-2----2-2--2-2--2-2--2-2--|
Eb|--0-0--0-0--0-0--0-0----0-0--0-0--0-0--0-0--|
  1   Where were all        needed someone to
  2   Where were all        needed someone to

eb|--------------------------------------------|
Bb|--------------------------------------------|
Gb|--6-6--6-6--6-6--6-6------------------------|
Db|--6-6--6-6--6-6--6-6----7-7--7-7--7-7--7-7--|
Ab|--4-4--4-4--4-4--4-4----7-7--7-7--7-7--7-7--|
Eb|------------------------5-5--5-5--5-5--5-5--|
  1   Where were all        needed someone to
  2   Where were all        needed someone to

BRIDGE (1:28)

   (x2)
eb|---------------------------------------------------------------------|
Bb|---------------------------------------------------------------------|
Gb|--6--------------------------------------------------4---------------|
Db|--6--  LET RING  --7----------------2----------------4--  LET RING --|
Ab|--4----------------7--  LET RING  --2--  LET RING  --2---------------|
Eb|-------------------5----------------0--------------------------------|
  1      In       reverie, I see the   real you         real you
  2      Come home   tonight and we    make something   out of my

   (x1)
eb|------------------------------------------------------------------------|
Bb|------------------------------------------------------------------------|
Gb|--6-6-6-6-6-6-6-6------------------------------------4-4-4-4-4-4-4-4----|
Db|--6-6-6-6-6-6-6-6--7-7-7-7-7-7-7-7--2-2-2-2-2-2-2-2--4-4-4-4-4-4-4-4----|
Ab|--4-4-4-4-4-4-4-4--7-7-7-7-7-7-7-7--2-2-2-2-2-2-2-2--2-2-2-2-2-2-2-2----|
Eb|-------------------5-5-5-5-5-5-5-5--0-0-0-0-0-0-0-0---------------------|
  1 Life, in      reverie, I see the      real you

   (x1)
eb|------------------------------------------------------------------------|
Bb|------------------------------------------------------------------------|
Gb|--6-6-6-6-6-6-6-6-----------------------------------4-------------------|
Db|--6-6-6-6-6-6-6-6--7-7-7-7-7-7-7-7--2---------------4--  LET RING--2----|
Ab|--4-4-4-4-4-4-4-4--7-7-7-7-7-7-7-7--2--  LET RING  -2--------------2----|
Eb|-------------------5-5-5-5-5-5-5-5--0------------------------------0----|
     P.M-----------------------------|
  1            Come   home  to       night, maybe I'll find you some where

INTRO RIFF (1:49)

   (x1) As you reach the halfway point, start bending each note up a bit
eb|------------------------------------------------------------------------|
Bb|------------------------------------------------------------------------|
Gb|--9-9-9-9-9-9-9-9-9-9-9-9-9-9-9-9-9-9-9-9-9-9-9-9-9-9-9-9-9-9-9-9-9-9---|
Db|------------------------------------------------------------------------|
Ab|------------------------------------------------------------------------|
Eb|------------------------------------------------------------------------|
     P.M----------------------------------------------------------------|
  1    Where were all the things you stand behind when you need someone

FINAL CHORUS (1:54)
 
   (x1)
eb|--------------------------------------------------------------------|
Bb|--------------------------------------------------------------------|
Gb|--6-6-6-6-6-6-6-6-6-6-6-6-6-6-6-6-----------------------------------|
Db|--6-6-6-6-6-6-6-6-6-6-6-6-6-6-6-6--7-7-7-7-7-7-7-7-7-7-7-7-7-7-7-7--|
Ab|--4-4-4-4-4-4-4-4-4-4-4-4-4-4-4-4--7-7-7-7-7-7-7-7-7-7-7-7-7-7-7-7--|
Eb|-----------------------------------5-5-5-5-5-5-5-5-5-5-5-5-5-5-5-5--|
  1    Where were all the things         needed someone to stand

   (x1)
eb|--------------------------------------------------------------------|
Bb|--------------------------------------------------------------------|
Gb|--------------------------------------------------------------------|
Db|--2-2-2-2-2-2-2-2-2-2-2-2-2-2-2-2-2-2-2-2-2-2-2-2-2-2-2-2-2-2-2-2---|
Ab|--2-2-2-2-2-2-2-2-2-2-2-2-2-2-2-2-2-2-2-2-2-2-2-2-2-2-2-2-2-2-2-2---|
Eb|--0-0-0-0-0-0-0-0-0-0-0-0-0-0-0-0-0-0-0-0-0-0-0-0-0-0-0-0-0-0-0-0---|
  1    Where were all the things you stand behind when you needed

   (x1)
eb|--------------------------------------------------------------------|
Bb|--------------------------------------------------------------------|
Gb|--6-6-6-6-6-6-6-6-6-6-6-6-6-6-6-6-----------------------------------|
Db|--6-6-6-6-6-6-6-6-6-6-6-6-6-6-6-6--7--------------------------------|
Ab|--4-4-4-4-4-4-4-4-4-4-4-4-4-4-4-4--7--  LET RING  ------------------|
Eb|-----------------------------------5--------------------------------|
  1    Where were all the things      need someone, you need someone

END ON (2:10)

eb|-----|
Bb|-----|
Gb|-----|
Db|--2--|
Ab|--2--|
Eb|--0--|



-----------------------------------------------------------------------------
                                III. DREAMING
-----------------------------------------------------------------------------

Key: Ab Major

VERSE ONE (0:01)
  
   (x4) GUITAR ONE
eb|------------------------|
Bb|------------------------|
Gb|-------7-7--9-9--11-11--|
Db|--7-7--7-7--9-9--11-11--|
Ab|--7-7--5-5--7-7---9--9--|
Eb|--5-5-------------------|
  1  Took the same route
  2  Even though I woke
  3  Dreaming of something
  4  Could become my

   (x4) GUITAR TWO **
eb|------------------------|
Bb|------------------------|
Gb|-------7-7--------------|
Db|--7-7--7-7--2-2--4-4----|
Ab|--7-7--5-5--2-2--4-4----|
Eb|--5-5-------0-0--2-2----|

** Guitar Two plays same chords, different position on the neck.
If playing solo, see what sounds better to you.

CHORUS (0:13, 0:54)

   (x2)
eb|----------------------------------------------------------------------|
Bb|----------------------------------------------------------------------|
Gb|------------------------------------7-7-7-7-7-7-7-7--9-9-9-9-9-9-9-9--|
Db|--4-4-4-4-4-4-4-4--7-7-7-7-7-7-7-7--7-7-7-7-7-7-7-7--9-9-9-9-9-9-9-9--|
Ab|--4-4-4-4-4-4-4-4--7-7-7-7-7-7-7-7--5-5-5-5-5-5-5-5--7-7-7-7-7-7-7-7--|
Eb|--2-2-2-2-2-2-2-2--5-5-5-5-5-5-5-5------------------------------------|
  1    She could  be   come my         everything or     whisper in my
  2    ear, across     highway,        highway to        catch you

   (x2)
eb|----------------------------------------------------------------------|
Bb|----------------------------------------------------------------------|
Gb|-------------------7-7-7-7-7-7-7-7-------------------9-9-9-9-9-9-9-9--|
Db|--4-4-4-4-4-4-4-4--7-7-7-7-7-7-7-7--7-7-7-7-7-7-7-7--9-9-9-9-9-9-9-9--|
Ab|--4-4-4-4-4-4-4-4--5-5-5-5-5-5-5-5--7-7-7-7-7-7-7-7--7-7-7-7-7-7-7-7--|
Eb|--2-2-2-2-2-2-2-2-------------------5-5-5-5-5-5-5-5-------------------|
  1    catch you       be all that     I could honest    ly ask 
  2    for                     from    you

VERSE TWO (0:36)
  
   (x6)
eb|------------------------|
Bb|------------------------|
Gb|-------7-7--9-9--11-11--|
Db|--7-7--7-7--9-9--11-11--|
Ab|--7-7--5-5--7-7---9--9--|
Eb|--5-5-------------------|
  1                   And
  2  
  3  Something about the
  4  8:30 and in her
  5  Could be a sign
  6  At me

   (x6) GUITAR TWO
eb|------------------------|
Bb|------------------------|
Gb|-------7-7--------------|
Db|--7-7--7-7--2-2--4-4----|
Ab|--7-7--5-5--2-2--4-2----|
Eb|--5-5-------0-0--2-2----|

BRIDGE (1:18):

   (x1)
eb|----------------------|
Bb|----------------------|
Gb|-------------------7--|
Db|--4----------------7--|
Ab|--4--  LET RING  --5--|
Eb|--2-------------------|

   (x3)
eb|--------------------------------------------------------------------|
Bb|--------------------------------------------------------------------|
Gb|---------------------------------------------------7----------------|
Db|--4-4-4-4-4-4-4-4-4-4-4-4-4-4-4-4-4-4-4-4-4-4-4-4--7--  LET RING  --|
Ab|---------------------------------------------------5----------------|
Eb|--------------------------------------------------------------------|
     P.M--------------------------------------------|
  1
  2  And I don't know how many times that I would     dreaming
  3  The way her hair falls on top of her shoulders   screaming

OUTRO CHORUS (1:43)

   (x4)
eb|----------------------------------------------------------------------|
Bb|----------------------------------------------------------------------|
Gb|-------------------7-7-7-7-7-7-7-7-------------------9-9-9-9-9-9-9-9--|
Db|--4-4-4-4-4-4-4-4--7-7-7-7-7-7-7-7--7-7-7-7-7-7-7-7--9-9-9-9-9-9-9-9--|
Ab|--4-4-4-4-4-4-4-4--5-5-5-5-5-5-5-5--7-7-7-7-7-7-7-7--7-7-7-7-7-7-7-7--|
Eb|--2-2-2-2-2-2-2-2-------------------5-5-5-5-5-5-5-5-------------------|
  1   And I don't     times that I      ask her if I'm   dreaming
  2   The way her      on top of her    makes me feel    screaming
  3   And I don't     times that I      ask her if I'm   dreaming
  4   The way her      on top of her    makes me feel    screaming

END ON (2:07)

eb|-------------------|
Bb|-------------------|
Gb|-------------------|
Db|--7----------------|
Ab|--7--  LET RING  --|
Eb|--5----------------|



-----------------------------------------------------------------------------
                                IV. DISCONNECT
-----------------------------------------------------------------------------

Key: Eb Major

VERSE ONE (0:01)

I drove through Berlin to-

   (x2)
eb|--------------------------------------------------------------|
Bb|--------------------------------------------------------------|
Gb|--------------------------------------------------------------|
Db|--9--9--9--9--9--9----9-9-9-9----9--9--9--9--9--9----9-9-9-9--|
Ab|--7--7--7--7--7--7----7-7-7-7----6--6--6--6--6--6----6-6-6-6--|
Eb|--------------------------------------------------------------|
  1  -night       Straight shot       highway            chest
  2    Walked around                  on a Sunday      for three

eb|--------------------------------------------------------------|
Bb|--------------------------------------------------------------|
Gb|--------------------------------------------------------------|
Db|--6--6--6--6--6--6----6-6-6-6---------------------------------|
Ab|--4--4--4--4--4--4----4-4-4-4----7--7--7--7--7--7----7-7-7-7--|
Eb|---------------------------------5--5--5--5--5--5----5-5-5-5--|
  1   Thought about missing you     meaning of the word futile
  2   hours

PRECHORUS (0:22)

   (x1)
eb|-----------------------------------------------------------------------|
Bb|-----------------------------------------------------------------------|
Gb|------------------------------------------------------9----------------|
Db|--9---------------------------------7-----------------9--  LET RING  --|
Ab|--9--  LET RING  -------------------7--  LET RING  ---7----------------|
Eb|--7---------------------------------5----------------------------------|
  1  Thought about home and how you wouldn't       be  there

   (x1)
eb|-----------------------------------------------------------------------|
Bb|-----------------------------------------------------------------------|
Gb|-----------------------------------------------------------------------|
Db|--9----------------------7----------------------------------9----------|
Ab|--9--  LET RING  --------7--  LET RING  --------------------9----------|
Eb|--7----------------------5------------------7-7-7-7-7-7-7-7-7----------|
                                               P.M------------|
  1  Thought of me and how you just don't       care

CHORUS ONE (0:31)

   (x2)
eb|-----------------------------------------------------------------|
Bb|-----------------------------------------------------------------|
Gb|------------------------------------6--6--6-6-6-6--6-6--6-6-6-6--|
Db|--7--7--7-7-7----9--9-9--9-9-9-9----6--6--6-6-6-6--6-6--6-6-6-6--|
Ab|--7--7--7-7-7----9--9-9--9-9-9-9----4--4--4-4-4-4--4-4--4-4-4-4--|
Eb|--5--5--5-5-5----7--7-7--7-7-7-7---------------------------------|
  1  Swear I saw    reflection in the  rain on the  concrete, you
  2  standing       me and your        lips were on my cheek and

   (x1)
eb|----------------------------------------------------------------------------|
Bb|----------------------------------------------------------------------------|
Gb|------------------------------------9---------9---------6---------6---------|
Db|--7--7--7-7-7----9--9-9--9-9-9-9----9---------9---------6---------6---------|
Ab|--7--7--7-7-7----9--9-9--9-9-9-9----7---------7---------4---------4---------|
Eb|--5--5--5-5-5----7--7-7--7-7-7-7-------0-0-0-----0-0-0-----0-0-0-----0-0-0--|
                                          P.M--|    P.M--|    P.M--|    P.M--|
  1  Swear I feel  dissection of the whole me when you  leave

   (x1)
eb|-------------------------------------------------------------|
Bb|-------------------------------------------------------------|
Gb|------------------------------------6------------------------|
Db|--7--7--7-7-7----9--9-9--9-9-9-9----6--  LET RING  ----------|
Ab|--7--7--7-7-7----9--9-9--9-9-9-9----4------------------------|
Eb|--5--5--5-5-5----7--7-7--7-7-7-7-----------------------------|
  1  Grown to hate  this connection,   connection that I weave

VERSE TWO (0:54)

   (x1)
eb|-------------------------------------------------------------|
Bb|-------------------------------------------------------------|
Gb|-------------------------------------------------------------|
Db|--9--9-9-9-9-9--9-9--9-9-9----9--9--9-9-9-9----9-9--9-9-9-9--|
Ab|--7--7-7-7-7-7--7-7--7-7-7----6--6--6-6-6-6----6-6--6-6-6-6--|
Eb|-------------------------------------------------------------|
  1  I drowned you in alcohol   night

   (x1)
eb|-------------------------------------------------------------|
Bb|-------------------------------------------------------------|
Gb|-------------------------------------------------------------|
Db|--6--6-6-6-6-6--6-6--6-6-6-----------------------------------|
Ab|--4--4-4-4-4-4--4-4--4-4-4----7--7--7-7-7-7----7-7--7-7-7-7--|
Eb|------------------------------5--5--5-5-5-5----5-5--5-5-5-5--|
  1  airholes through my         chest

   (x1)
eb|-------------------------------------------------------------|
Bb|-------------------------------------------------------------|
Gb|-------------------------------------------------------------|
Db|--9--9-9-9-9-9--9-9--9-9-9----9--9--9-9-9-9----9-9--9-9-9-9--|
Ab|--7--7-7-7-7-7--7-7--7-7-7----6--6--6-6-6-6----6-6--6-6-6-6--|
Eb|-------------------------------------------------------------|
  1  hard to maintain             place in my heart and

   (x1)
eb|-------------------------------------------------------------|
Bb|-------------------------------------------------------------|
Gb|-------------------------------------------------------------|
Db|--6--6-6-6-6-6--6-6--6-6-6-----------------------------------|
Ab|--4--4-4-4-4-4--4-4--4-4-4----7--  LET RING  --  PICKSCRAPE -|
Eb|------------------------------5------------------------------|
  1  on               my        mind

CHORUS TWO (1:14)

   (x2)
eb|-----------------------------------------------------------------|
Bb|-----------------------------------------------------------------|
Gb|------------------------------------6--6--6-6-6-6--6-6--6-6-6-6--|
Db|--7--7--7-7-7----9--9-9--9-9-9-9----6--6--6-6-6-6--6-6--6-6-6-6--|
Ab|--7--7--7-7-7----9--9-9--9-9-9-9----4--4--4-4-4-4--4-4--4-4-4-4--|
Eb|--5--5--5-5-5----7--7-7--7-7-7-7---------------------------------|
  1  Swear I saw    reflection in the  rain on the  concrete, you
  2  standing       me and your        lips were on my cheek and

   (x1)
eb|----------------------------------------------------------------------------|
Bb|----------------------------------------------------------------------------|
Gb|------------------------------------9---------9---------6---------6---------|
Db|--7--7--7-7-7----9--9-9--9-9-9-9----9---------9---------6---------6---------|
Ab|--7--7--7-7-7----9--9-9--9-9-9-9----7---------7---------4---------4---------|
Eb|--5--5--5-5-5----7--7-7--7-7-7-7-------0-0-0-----0-0-0-----0-0-0-----0-0-0--|
                                          P.M--|    P.M--|    P.M--|    P.M--|
  1  Swear I feel  dissection of the whole me when you  leave

   (x1)
eb|-----------------------------------|
Bb|-----------------------------------|
Gb|-----------------------------------|
Db|--7--7--7-7-7----9--9-9--9-9-9-9---|
Ab|--7--7--7-7-7----9--9-9--9-9-9-9---|
Eb|--5--5--5-5-5----7--7-7--7-7-7-7---|
  1  Grown to hate  this connection 

BRIDGE - RHYTHM (1:31)

   (x1)
eb|--------------------------------------------------------------------|
Bb|--------------------------------------------------------------------|
Gb|--6-6-6-6-6-6-6-6-6-6-6-6-6-6-6-6-----------------------------------|
Db|--6-6-6-6-6-6-6-6-6-6-6-6-6-6-6-6--7-7-7-7-7-7-7-7-7-7-7-7-7-7-7-7--|
Ab|--4-4-4-4-4-4-4-4-4-4-4-4-4-4-4-4--7-7-7-7-7-7-7-7-7-7-7-7-7-7-7-7--|
Eb|-----------------------------------5-5-5-5-5-5-5-5-5-5-5-5-5-5-5-5--|
  1   -connection that I weave       -thin

   (x1)
eb|--------------------------------------------------------------------|
Bb|--------------------------------------------------------------------|
Gb|--6-6-6-6-6-6-6-6-6-6-6-6-6-6-6-6-----------------------------------|
Db|--6-6-6-6-6-6-6-6-6-6-6-6-6-6-6-6--9-9-9-9-9-9-9-9-9-9-9-9-9-9-9-9--|
Ab|--4-4-4-4-4-4-4-4-4-4-4-4-4-4-4-4--9-9-9-9-9-9-9-9-9-9-9-9-9-9-9-9--|
Eb|-----------------------------------7-7-7-7-7-7-7-7-7-7-7-7-7-7-7-7--|
  1   -connection that I weave       -thin

BRIDGE - LEAD (1:31)

   (x3)                                           (x2) - (1:46) 
eb|----------------------------------------------|---------------------------|
Bb|----------------------------------------------|---------------------------|
Gb|--6-6-6-6--8-8--9-9--14-14-14-13-13-13-13-13--|--11-11-11-11-11-11-11-11--|
Db|--x-x-x-x--x-x--x-x---x--x--x--x--x--x--x--x--|---x--x--x--x--x--x--x--x--|
Ab|--4-4-4-4--6-6--7-7--12-12-12-11-11-11-11-11--|---9--9--9--9--9--9--9--9--|
Eb|----------------------------------------------|---------------------------|

FINAL CHORUS (1:51)

   (x2)
eb|------------------------------------------|
Bb|------------------------------------------|
Gb|-------------------------6-6-6-6-6-6-6-6--|
Db|--7-7-7-7-----9-9-9-9----6-6-6-6-6-6-6-6--|
Ab|--7-7-7-7-----9-9-9-9----4-4-4-4-4-4-4-4--|
Eb|--5-5-5-5-----7-7-7-7---------------------|
  1  Swear I   reflection   rain on the 
  2  Standing next to me    lips were on

   (x1)
eb|----------------------------------------------------------------------------|
Bb|----------------------------------------------------------------------------|
Gb|------------------------------------9---------9---------6---------6---------|
Db|--7--7--7-7-7----9--9-9--9-9-9-9----9---------9---------6---------6---------|
Ab|--7--7--7-7-7----9--9-9--9-9-9-9----7---------7---------4---------4---------|
Eb|--5--5--5-5-5----7--7-7--7-7-7-7-------0-0-0-----0-0-0-----0-0-0-----0-0-0--|
                                          P.M--|    P.M--|    P.M--|    P.M--|
  1  Swear I feel  dissection of the whole me when you  leave

   (x1)
eb|----------------------------------------------------------------|
Bb|----------------------------------------------------------------|
Gb|----------------------------------9----------------9------------|
Db|--7--7--7-7-7----9--9-9--9-9-9-9--9--  LET RING  --9-- QUICK  --|
Ab|--7--7--7-7-7----9--9-9--9-9-9-9--7----------------7------------|
Eb|--5--5--5-5-5----7--7-7--7-7-7-7--------------------------------|
  1  Grown to hate  this connection, don't remember



-----------------------------------------------------------------------------
                        V. DUDE, ARE YOU KIDDING ME?
-----------------------------------------------------------------------------

Key: F# Major

INTRO (0:01)

   (x1)
eb|------------------------------------------------------------|
Bb|------------------------------------------------------------|
Gb|------------------------------------------------------------|
Db|--5--5--5-5-5-5--5-5--5-5-5-5--2--2--2-2-2-2--2-2--2-2-2-2--|
Ab|--5--5--5-5-5-5--5-5--5-5-5-5--2--2--2-2-2-2--2-2--2-2-2-2--|
Eb|--3--3--3-3-3-3--3-3--3-3-3-3--0--0--0-0-0-0--0-0--0-0-0-0--|

   (x1)
eb|------------------------------------------------------------|
Bb|------------------------------------------------------------|
Gb|--2--2--2-2-2-2--2-2--2--4-----5--5--5-5-5--5-5-5--5-5-5-5--|
Db|--2--2--2-2-2-2--2-2--2--4-----5--5--5-5-5--5-5-5--5-5-5-5--|
Ab|--0--0--0-0-0-0--0-0--0--2-----3--3--3-3-3--3-3-3--3-3-3-3--|
Eb|------------------------------------------------------------|

VERSE ONE (0:10)

   (x1)
eb|--------------------------------------------------------------------------|
Bb|--------------------------------------------------------------------------|
Gb|-------------------4----------------5-------------------------------------|
Db|--2----------------4----------------5----------------5----------4---------|
Ab|--2----------------2----------------3----------------5----------5---------|
Eb|--0--------------------------------------------------3----------2---------|
  1      Where do I start, how do I   describe the     every    shadow

   (x1)
eb|--------------------------------------------------------------------------|
Bb|--------------------------------------------------------------------------|
Gb|-------------------4----------------5-------------------------------------|
Db|--2----------------4----------------5--------5-5--5-5-5---4-4-------------|
Ab|--2----------------2----------------3--------5-5--5-5-5---5-5--x-x-x-x-x--|
Eb|--0------------------------------------------3-3--3-3-3---2-2--x-x-x-x-x--|
  1    From you being here and if I   wrong     swan dive     overpass

CHORUS (0:31, 1:18)

   (x2)
eb|--------------------------------------------------------------------|
Bb|--------------------------------------------------------------------|
Gb|--5-5-5-5-5-5-5-5-5-5-5-5-5-5-5-5--7-7-7-7-7-7-7-7-7-7-7-7-7-7-7-7--|
Db|--5-5-5-5-5-5-5-5-5-5-5-5-5-5-5-5--7-7-7-7-7-7-7-7-7-7-7-7-7-7-7-7--|
Ab|--3-3-3-3-3-3-3-3-3-3-3-3-3-3-3-3--5-5-5-5-5-5-5-5-5-5-5-5-5-5-5-5--|
Eb|--------------------------------------------------------------------|
  1       Let's just pretend             you know who I am
  2       Let's just pretend             you know who I am

eb|--------------------------------------------------------------------|
Bb|--------------------------------------------------------------------|
Gb|--------------------------------------------------------------------|
Db|--5-5-5-5-5-5-5-5-5-5-5-5-5-5-5-5--2-2-2-2-2-2-2-2-2-2-2-2-2-2-2-2--|
Ab|--5-5-5-5-5-5-5-5-5-5-5-5-5-5-5-5--2-2-2-2-2-2-2-2-2-2-2-2-2-2-2-2--|
Eb|--3-3-3-3-3-3-3-3-3-3-3-3-3-3-3-3--0-0-0-0-0-0-0-0-0-0-0-0-0-0-0-0--|
  1     Tracing my thoughts and you're      making me whole
  2     I'm back home,  I am            without you,       I am

   (x1)
eb|--------------------------------------------------------------------|
Bb|--------------------------------------------------------------------|
Gb|--5-5-5-5-5-5-5-5-5-5-5-5-5-5-5-5-5-5-5-5-5-5-5-5-5-5-5-5-5-5-5-5---|
Db|--5-5-5-5-5-5-5-5-5-5-5-5-5-5-5-5-5-5-5-5-5-5-5-5-5-5-5-5-5-5-5-5---|
Ab|--3-3-3-3-3-3-3-3-3-3-3-3-3-3-3-3-3-3-3-3-3-3-3-3-3-3-3-3-3-3-3-3---|
Eb|--------------------------------------------------------------------|
  1     without you                               you'll never under-

VERSE TWO (0:57)

   (x1)
eb|--------------------------------------------------------------------|
Bb|--------------------------------------------------------------------|
Gb|-------------------4----------------5-------------------------------|
Db|--2----------------4----------------5----------------5--------4-----|
Ab|--2----------------2----------------3----------------5--------5-----|
Eb|--0--------------------------------------------------3--------2-----|
  1  -stand, your     I wouldn't       lock on your     keyless

   (x1)
eb|--------------------------------------------------------|
Bb|--------------------------------------------------------|
Gb|------------------------------4-4--4-4-4--4-4-4--4-4-4--|
Db|--2-2--2-2-2--2-2-2--2-2-2--2-4-4--4-4-4--4-4-4--4-4-4--|
Ab|--2-2--2-2-2--2-2-2--2-2-2--2-2-2--2-2-2--2-2-2--2-2-2--|
Eb|--0-0--0-0-0--0-0-0--0-0-0--0---------------------------|
     P.M-------------------------------------------------|
  1   Cold air has made me numb      and this town seems

   (x1)
eb|--------------------------------------------------------|
Bb|--------------------------------------------------------|
Gb|--4-5-5--5-5-5--5-5-5--5-5-5----------------------------|
Db|--4-5-5--5-5-5--5-5-5--5-5-5--5-5--5-5-5--4-4--x-x-x-x--|
Ab|--2-3-3--3-3-3--3-3-3--3-3-3--5-5--5-5-5--5-5--x-x-x-x--|
Eb|------------------------------3-3--3-3-3--2-2--x-x-x-x--|
     P.M-----------------------|
  1  so diseased without you so  write more songs

BRIDGE (1:44)

   (x2)
eb|-----------------------------------------------------------|
Bb|-----------------------------------------------------------|
Gb|------------------------------4--4-4-4--4-4-4--4-4-4--4-4--|
Db|--2--2-2-2--2-2-2--2-2-2--2-2-4--4-4-4--4-4-4--4-4-4--4-4--|
Ab|--2--2-2-2--2-2-2--2-2-2--2-2-2--2-2-2--2-2-2--2-2-2--2-2--|
Eb|--0--0-0-0--0-0-0--0-0-0--0-0------------------------------|
  1     At    night   I        dream  of how things
  2     At    night   I        blame  myself for

eb|-----------------------------------------------------------|
Bb|-----------------------------------------------------------|
Gb|--5--5-5-5--5-5-5--5-5-5--5-5-5--5-5-5--5-5-5--5-5-5--5-5--|
Db|--5--5-5-5--5-5-5--5-5-5--5-5-5--5-5-5--5-5-5--5-5-5--5-5--|
Ab|--3--3-3-3--3-3-3--3-3-3--3-3-3--3-3-3--3-3-3--3-3-3--3-3--|
Eb|-----------------------------------------------------------|
  1    could    have    been
  2    how      it      went

FINAL CHORUS (2:05)

   (x1)
eb|--------------------------------------------------------------------------|
Bb|--------------------------------------------------------------------------|
Gb|--5-5-5-5-5-5-5-5-5-5-5-5-5-5-5-5--7-7-7-7-7-7-7-7-7-7-7-7-7-7-7-7--------|
Db|--5-5-5-5-5-5-5-5-5-5-5-5-5-5-5-5--7-7-7-7-7-7-7-7-7-7-7-7-7-7-7-7--------|
Ab|--3-3-3-3-3-3-3-3-3-3-3-3-3-3-3-3--5-5-5-5-5-5-5-5-5-5-5-5-5-5-5-5--------|
Eb|--------------------------------------------------------------------------|
  1       Let's just pretend             you know who I am

   (x1)
eb|--------------------------------------------------------------------------|
Bb|--------------------------------------------------------------------------|
Gb|--------------------------------------------------------------------------|
Db|--5-5-5-5-5-5-5-5-5-5-5-5-5-5-5-5--2-2-2-2-2-2-2-2-2-2-2-2-2-2-2-2--------|
Ab|--5-5-5-5-5-5-5-5-5-5-5-5-5-5-5-5--2-2-2-2-2-2-2-2-2-2-2-2-2-2-2-2--------|
Eb|--3-3-3-3-3-3-3-3-3-3-3-3-3-3-3-3--0-0-0-0-0-0-0-0-0-0-0-0-0-0-0-0--------|
  1     Tracing my thoughts and you're      making me whole

   (x1)
eb|--------------------------------------------------------------------------|
Bb|--------------------------------------------------------------------------|
Gb|--5-5-5-5-5-5-5-5-5-5-5-5-5-5-5-5--7-7-7-7-7-7-7-7-7-7-7-7-7-7-7-7--------|
Db|--5-5-5-5-5-5-5-5-5-5-5-5-5-5-5-5--7-7-7-7-7-7-7-7-7-7-7-7-7-7-7-7--------|
Ab|--3-3-3-3-3-3-3-3-3-3-3-3-3-3-3-3--5-5-5-5-5-5-5-5-5-5-5-5-5-5-5-5--------|
Eb|--------------------------------------------------------------------------|
  1       Let's just pretend             you know who I am

   (x1)
eb|------------------------------------------------------3-------------------|
Bb|------------------------------------------------------4-------------------|
Gb|-------------------------------------5----------------5--  LET  RING  ----|
Db|--5-----------------2----------------5--  LET RING  --5-------------------|
Ab|--5--  LET RING  ---2--  LET RING  --3----------------3-------------------|
Eb|--3-----------------0-----------------------------------------------------|
  1  Back home      without you      without you           You'll never under-

END ON (2:21):

   (x1)
eb|-------------------|
Bb|-------------------|
Gb|-------------------|
Db|--5----------------|
Ab|--5--  LET RING  --|
Eb|--3----------------|
  1  stand



-----------------------------------------------------------------------------
                                VI. ARLINGTON DRIVE
-----------------------------------------------------------------------------

Key: F Minor

INTRO (0:00)

   (x2)
eb|---------------------------------------------|
Bb|---------------------------------------------|
Gb|--11-11-11-11----11-11-11-11----11-11-11-11--|
Db|--11-11-11-11----11-11-11-11----11-11-11-11--|
Ab|---9--9--9--9-----x--x--x--x-----x--x--x--x--|
Db|-----------------11-11-11-11-----9--9--9--9--|

eb|---------------------------------------------|
Bb|---------------------------------------------|
Gb|---------------------------------------------|
Db|--4-4-4---7--7-7-7-7-7-7-7-7-7-7-7-7-7-7-7---|
Ab|--4-4-4---7--7-7-7-7-7-7-7-7-7-7-7-7-7-7-7---|
Db|--4-4-4---7--7-7-7-7-7-7-7-7-7-7-7-7-7-7-7---|

VERSE ONE (0:13)

eb|---------------------------------------------|
Bb|---------------------------------------------|
Gb|--11-11-11-11----11-11-11-11----11-11-11-11--|
Db|--11-11-11-11----11-11-11-11----11-11-11-11--|
Ab|---9--9--9--9-----x--x--x--x-----x--x--x--x--|
Db|---x--x--x--x----11-11-11-11-----9--9--9--9--|
                        Well, I don't know    

eb|---------------------------------------------|
Bb|---------------------------------------------|
Gb|---------------------------------------------|
Db|--4-4-4---7--7-7-7-7-7-7-7-7-7-7-7-7-7-7-7---|
Ab|--4-4-4---7--7-7-7-7-7-7-7-7-7-7-7-7-7-7-7---|
Db|--4-4-4---7--7-7-7-7-7-7-7-7-7-7-7-7-7-7-7---|
      how you do this   

eb|---------------------------------------------|
Bb|---------------------------------------------|
Gb|--11-11-11-11----11-11-11-11----11-11-11-11--|
Db|--11-11-11-11----11-11-11-11----11-11-11-11--|
Ab|---9--9--9--9-----x--x--x--x-----x--x--x--x--|
Db|---x--x--x--x----11-11-11-11-----9--9--9--9--|
                        And the path we're on

eb|---------------------------------------------|
Bb|---------------------------------------------|
Gb|---------------------------------------------|
Db|--4-4-4---0--0-0--0--0-2--2-2--2-2-----------|
Ab|--4-4-4---0--0-0--0--0-2--2-2--2-2-----------|
Db|--4-4-4---0--0-0--0--0-2--2-2--2-2-----------|
      mis -  leading us       home

eb|---------------------------------------------|
Bb|---------------------------------------------|
Gb|--11-11-11-11----11-11-11-11----11-11-11-11--|
Db|--11-11-11-11----11-11-11-11----11-11-11-11--|
Ab|---9--9--9--9-----x--x--x--x-----x--x--x--x--|
Db|---x--x--x--x----11-11-11-11-----9--9--9--9--|
                        And    I  don't know 

eb|---------------------------------------------|
Bb|---------------------------------------------|
Gb|---------------------------------------------|
Db|--4-4-4---7--7-7-7-7-7-7-7-7-7-7-7-7-7-7-7---|
Ab|--4-4-4---7--7-7-7-7-7-7-7-7-7-7-7-7-7-7-7---|
Db|--4-4-4---7--7-7-7-7-7-7-7-7-7-7-7-7-7-7-7---|
      what to do, kid

eb|---------------------------------------------|
Bb|---------------------------------------------|
Gb|--11-11-11-11----11-11-11-11----11-11-11-11--|
Db|--11-11-11-11----11-11-11-11----11-11-11-11--|
Ab|---9--9--9--9-----x--x--x--x-----x--x--x--x--|
Db|---x--x--x--x----11-11-11-11-----9--9--9--9--|
                     The sun is      up

eb|----------|
Bb|----------|
Gb|----------|
Db|--4-4-4---|
Ab|--4-4-4---|
Db|--4-4-4---|
   And I feel

CHORUS ONE (0:36)

   (x2)
eb|------------------------------------------------|----------|
Bb|------------------------------------------------| END WITH |
Gb|------------------------------------------------|----------|
Db|--0---0-0--0--0-0---2--2--2-2---4--4-4--4--4-4--|---2-2----|
Ab|--0---0-0--0--0-0---2--2--2-2---4--4-4--4--4-4--|---2-2----|
Db|--0---0-0--0--0-0---2--2--2-2---4--4-4--4--4-4--|---2-2----|
  1  A l i v e like I haven't in a long time
  2  A l i v e like I haven't in a long time when I

INTRO RIFF (0:48):

   (x2)
eb|---------------------------------------------|
Bb|---------------------------------------------|
Gb|--11-11-11-11----11-11-11-11----11-11-11-11--|
Db|--11-11-11-11----11-11-11-11----11-11-11-11--|
Ab|---9--9--9--9-----x--x--x--x-----x--x--x--x--|
Db|---x--x--x--x----11-11-11-11-----9--9--9--9--|

eb|---------------------------------------------|
Bb|---------------------------------------------|
Gb|---------------------------------------------|
Db|--4-4-4---7--7-7-7-7-7-7-7-7-7-7-7-7-7-7-7---|
Ab|--4-4-4---7--7-7-7-7-7-7-7-7-7-7-7-7-7-7-7---|
Db|--4-4-4---7--7-7-7-7-7-7-7-7-7-7-7-7-7-7-7---|

VERSE TWO (1:02)

eb|---------------------------------------------|
Bb|---------------------------------------------|
Gb|--11-11-11-11----11-11-11-11----11-11-11-11--|
Db|--11-11-11-11----11-11-11-11----11-11-11-11--|
Ab|---9--9--9--9-----x--x--x--x-----x--x--x--x--|
Db|---x--x--x--x----11-11-11-11-----9--9--9--9--|
                        Looking       back's 

eb|---------------------------------------------|
Bb|---------------------------------------------|
Gb|---------------------------------------------|
Db|--4-4-4---7--7-7-7-7-7-7-7-7-7-7-7-7-7-7-7---|
Ab|--4-4-4---7--7-7-7-7-7-7-7-7-7-7-7-7-7-7-7---|
Db|--4-4-4---7--7-7-7-7-7-7-7-7-7-7-7-7-7-7-7---|
      getting me down (It's harder to trudge...)

eb|---------------------------------------------|
Bb|---------------------------------------------|
Gb|--11-11-11-11----11-11-11-11----11-11-11-11--|
Db|--11-11-11-11----11-11-11-11----11-11-11-11--|
Ab|---9--9--9--9-----x--x--x--x-----x--x--x--x--|
Db|---x--x--x--x----11-11-11-11-----9--9--9--9--|
                        I'm writing this

eb|---------------------------------------------|
Bb|---------------------------------------------|
Gb|---------------------------------------------|
Db|--4-4-4---0--0-0--0--0-2--2-2--2-2-----------|
Ab|--4-4-4---0--0-0--0--0-2--2-2--2-2-----------|
Db|--4-4-4---0--0-0--0--0-2--2-2--2-2-----------|
     for old friends that I miss

eb|---------------------------------------------|
Bb|---------------------------------------------|
Gb|--11-11-11-11----11-11-11-11----11-11-11-11--|
Db|--11-11-11-11----11-11-11-11----11-11-11-11--|
Ab|---9--9--9--9-----x--x--x--x-----x--x--x--x--|
Db|---x--x--x--x----11-11-11-11-----9--9--9--9--|
                        To start and end

eb|---------------------------------------------|
Bb|---------------------------------------------|
Gb|---------------------------------------------|
Db|--4-4-4---7--7-7-7-7-7-7-7-7-7-7-7-7-7-7-7---|
Ab|--4-4-4---7--7-7-7-7-7-7-7-7-7-7-7-7-7-7-7---|
Db|--4-4-4---7--7-7-7-7-7-7-7-7-7-7-7-7-7-7-7---|
      things right way (I'm writing to tell...)

eb|---------------------------------------------|
Bb|---------------------------------------------|
Gb|--11-11-11-11----11-11-11-11----11-11-11-11--|
Db|--11-11-11-11----11-11-11-11----11-11-11-11--|
Ab|---9--9--9--9-----x--x--x--x-----x--x--x--x--|
Db|---x--x--x--x----11-11-11-11-----9--9--9--9--|
                       Gather        up

eb|----------|
Bb|----------|
Gb|----------|
Db|--4-4-4---|
Ab|--4-4-4---|
Db|--4-4-4---|
     I feel

CHORUS TWO (1:24)

   (x2)
eb|------------------------------------------------|
Bb|------------------------------------------------|
Gb|------------------------------------------------|
Db|--0---0-0--0--0-0---2--2--2-2---4--4-4--4--4-4--|
Ab|--0---0-0--0--0-0---2--2--2-2---4--4-4--4--4-4--|
Db|--0---0-0--0--0-0---2--2--2-2---4--4-4--4--4-4--|
  1  A l i v e like I haven't in a long time
  2  A l i v e like I haven't in a long time like I

eb|---------------------------------------------|
Bb|---------------------------------------------|
Gb|---------------------------------------------|
Db|--2--2--2-2----0--0-0--0--0-0----------------|
Ab|--2--2--2-2----0--0-0--0--0-0----------------|
Db|--2--2--2-2----0--0-0--0--0-0----------------|
     haven't in a long time, like I

eb|--------------------------------------------------|
Bb|--------------------------------------------------|
Gb|--------------------------------------------------|
Db|--2--2--2-2----4--4-4-4--4-4-4-4-4-4-4-4-4-4-4-4--|
Ab|--2--2--2-2----4--4-4-4--4-4-4-4-4-4-4-4-4-4-4-4--|
Db|--2--2--2-2----4--4-4-4--4-4-4-4-4-4-4-4-4-4-4-4--|
     haven't in a long time

BRIDGE (1:43)

   (x4)
eb|-------------------------------------------------------------------|
Bb|-------------------------------------------------------------------|
Gb|--7-7-7-7-7-7-7-7-7-7-7-7-7-----7-7--9--11-11-11-11-11-11-11-11----|
Db|--7-7-7-7-7-7-7-7-7-7-7-7-7-----7-7--9--11-11-11-11-11-11-11-11----|
Ab|--5-5-5-5-5-5-5-5-5-5-5-5-5-----x-x--x---x--x--x--x--x--x--x--x----|
Db|--------------------------------7-7--9--11-11-11-11-11-11-11-11----|
  1       Is this a lesson in                 is this a lesson in
  2       I mapped it all out                 I woke up this morning
  3       Is this a lesson in                 is this a lesson in
  4       I mapped it all out                 I woke up this morning

eb|-----------------------------|
Bb|-----------------------------|
Gb|--11-11-11-11----9-9-9-9-----|
Db|--11-11-11-11----9-9-9-9-----|
Ab|---9--9--9--9----7-7-7-7-----|
Db|-----------------------------|
  1   telling   the     truth?
  2   circles were drifting a-
  3   telling   the     truth?
  4   circles were drifting a-

FINAL CHORUS / OUTRO (2:10) 

   (x4)  
eb|---------------------------------------------------------------------------|
Bb|---------------------------------------------------------------------------|
Gb|--7-7-7-7-7-7-7-7-9-9-9-9-9-9-9-9-11-11-11-11-11-11-11-11-9-9-9-9-9-9-9-9--|
Db|--7-7-7-7-7-7-7-7-9-9-9-9-9-9-9-9-11-11-11-11-11-11-11-11-9-9-9-9-9-9-9-9--|
Ab|--5-5-5-5-5-5-5-5-7-7-7-7-7-7-7-7--9--9--9--9--9--9--9--9-7-7-7-7-7-7-7-7--|
Db|---------------------------------------------------------------------------|
  1    -part
  2
  3    Alive  like I  haven't in a   long time,    like I      haven't in a
  4    Alive  like I  haven't in a   long time,    like I      haven't in a

   (x1)
eb|-----------------|
Bb|-----------------|
Gb|--7--7--7-7---7--|
Db|--7--7--7-7---7--|
Ab|--5--5--5-5---5--|
Db|-----------------|
  1 long time



-----------------------------------------------------------------------------
                        VII. WHILE YOU WERE SLEEPING
-----------------------------------------------------------------------------

Key: Ab Major

INTRO / VERSE ONE (0:01)
  
   (x2)
eb|------------------------------------------------------------|
Bb|------------------------------------------------------------|
Gb|--6-6--6--6-6-----4--4--4-4--------------------7--7-7--7-7--|
Db|--7-7--7--7-7-x---6--6--6-6-x--7--7-7--7-7-x---7--7-7--7-7--|
Ab|--0-0--0--0-0-x---0--0--0-0-x--9--9-9--9-9-x---5--5-5--5-5--|
Eb|------------------------------------------------------------|
  1  Shame the      shine on you   Jersey
  2  Broad Street   looking real   bright

   (x2)
eb|-----------------------------------------------------------------------------|
Bb|-----------------------------------------------------------------------------|
Gb|------------------9-9-9-9-9-9-9-9--11-11-11-11-11-11-11-11--7-7-7-7-7-7-7-7--|
Db|--7--7-7-7-7-7-7--9-9-9-9-9-9-9-9--11-11-11-11-11-11-11-11--7-7-7-7-7-7-7-7--|
Ab|--7--7-7-7-7-7-7--7-7-7-7-7-7-7-7---9--9--9--9--9--9--9--9--5-5-5-5-5-5-5-5--|
Eb|--5--5-5-5-5-5-5-------------------------------------------------------------|
        P.M-------------------------------------------------------------------|
  1  Think, that     been a better companion
  2  Wouldn't need   rescuing       tonight

   (x1)
eb|--------------------------------------------------------------------|
Bb|--------------------------------------------------------------------|
Gb|--------------------------------------------------------------------|
Db|--7--7-7-7-7-7-7-7-7-7-7-7-7-7-7----4--4-4-4-4-4-4-4-4-4-4-4-4-4-4--|
Ab|--7--7-7-7-7-7-7-7-7-7-7-7-7-7-7----4--4-4-4-4-4-4-4-4-4-4-4-4-4-4--|
Eb|--5--5-5-5-5-5-5-5-5-5-5-5-5-5-5----2--2-2-2-2-2-2-2-2-2-2-2-2-2-2--|
        P.M------------------------|      P.M------------------------|
  1       I can hear you breathe            I can smell your sheets

   (x1)
eb|---------------------------------------------------|
Bb|---------------------------------------------------|
Gb|--7--7-7-7-7-7-7-7-7-7-7-7-7-7-7-------------------|
Db|--7--7-7-7-7-7-7-7-7-7-7-7-7-7-7--3--  LET RING  --|
Ab|--5--5-5-5-5-5-5-5-5-5-5-5-5-5-5--5----------------|
Eb|---------------------------------------------------|
        P.M------------------------|
  1  Jersey                    and I got a mind to

   (x1)
eb|------------------------------------------------------------------|
Bb|------------------------------------------------------------------|
Gb|------------------------------------------------------------------|
Db|--7--7-7-7-7-7-7-7-7-7-7-7-7-7-7--4--4-4-4-4-4-4-4-4-4-4-4-4-4-4--|
Ab|--7--7-7-7-7-7-7-7-7-7-7-7-7-7-7--4--4-4-4-4-4-4-4-4-4-4-4-4-4-4--|
Eb|--5--5-5-5-5-5-5-5-5-5-5-5-5-5-5--2--2-2-2-2-2-2-2-2-2-2-2-2-2-2--|
        P.M------------------------|    P.M------------------------|
  1  Get out of bed right now                            and come 

   (x1)
eb|------------------------------------------------------------------|
Bb|------------------------------------------------------------------|
Gb|--7-7-7-7-7-7-7-7-7-7-7-7-7-7-7-7--7-7-7-7-7-7-7-7-7-7-7-7--------|
Db|--7-7-7-7-7-7-7-7-7-7-7-7-7-7-7-7--7-7-7-7-7-7-7-7-7-7-7-7-x-x-x--|
Ab|--5-5-5-5-5-5-5-5-5-5-5-5-5-5-5-5--5-5-5-5-5-5-5-5-5-5-5-5-x-x-x--|
Eb|-----------------------------------------------------------x-x-x--|
     P.M----------------------------|
     over                    to see    you

CHORUS (0:44)

   (x2)
eb|-----------------------------------------------------------------|
Bb|-----------------------------------------------------------------|
Gb|------------------7--7-7--7-7-7----------------------------------|
Db|--4--4-4--4-4-4---7--7-7--7-7-7---7--7-7--7-7-7---2--2-2--2-2-2--|
Ab|--4--4-2--4-4-4---5--5-5--5-5-5---7--7-7--7-7-7---2--2-2--2-2-2--|
Eb|--2--2-2--2-2-2-------------------5--5-5--5-5-5---0--0-0--0-0-0--|
  1    I can't      imagine you  all alone 
  2    Who's         going to       protect you? 

eb|-----------------------------------------------------------------|
Bb|-----------------------------------------------------------------|
Gb|------------------7--7-7--7-7-7-------------------9--9-9---------|
Db|--4--4-4--4-4-4---7--7-7--7-7-7---7--7-7--7-7-7---9--9-9---------|
Ab|--4--4-2--4-4-4---5--5-5--5-5-5---7--7-7--7-7-7---7--7-7--x-x-x--|
Eb|--2--2-2--2-2-2-------------------5--5-5--5-5-5-----------x-x-x--|
  1   In the big    city on your    own
  2   I couldn't     be there as    much as I     wanted to

VERSE TWO (1:07)
   
   [Guitar] (x2)
eb|--------------------|
Bb|--------------------|
Gb|--------------------|
Db|--7-----------------|
Ab|--7--  LET RING  ---|
Eb|--5-----------------|
   [Bass] (x4)
Gb|--------------------|
Db|--------------------|
Ab|------5-5-----------|
Eb|--5-5-----0-0-2-2---|

   (x4)                 2nd and 4th run only
eb|--------------------|--------------------|
Bb|--------------------|--------------------|
Gb|-------7------------|--------------------|
Db|--7----7----2----4--|--------------------|
Ab|--7----5----2----4--|--------------------|
Eb|--5---------0----2--|--2-2-2-2-----------|
                          P.M----|
  1                    But you don't need
  2  me                I just need
  3  you               I hope you
  4  want me to come over cause I'm going

   (x1)
eb|-------------------------------------------------------------------|
Bb|-------------------------------------------------------------------|
Gb|--7--7-7-7-7-7-7-7-7-7-7-7-7-7-7--9-9-9-9-9-9-9-9-9-9-9-9-9-9-9-9--|
Db|--7--7-7-7-7-7-7-7-7-7-7-7-7-7-7--9-9-9-9-9-9-9-9-9-9-9-9-9-9-9-9--|
Ab|--5--5-5-5-5-5-5-5-5-5-5-5-5-5-5--7-7-7-7-7-7-7-7-7-7-7-7-7-7-7-7--|
Eb|-------------------------------------------------------------------|
        P.M-----------------------------------------|
  1  to                    I'm going to                     I hope

OUTRO (1:35):

   (x1)
eb|--------------------------------------------------------------|
Bb|--------------------------------------------------------------|
Gb|--------------------------------7--7-7--7-7-7--7--7-7--7-7-7--|
Db|--4--4-4--4-4-4--2--2-2--2-2-2--7--7-7--7-7-7--7--7-7--7-7-7--|
Ab|--4--4-4--4-4-4--2--2-2--2-2-2--5--5-5--5-5-5--5--5-5--5-5-5--|
Eb|--2--2-2--2-2-2--0--0-0--0-0-0--------------------------------|
  1   miss the way  feels when we   wake up together

   (x1)
eb|--------------------------------------------------------------|
Bb|--------------------------------------------------------------|
Gb|------------------------------------7--7--7------7-7-7--------|
Db|--4--4-4--4-4-4--2--2-2--2-2-2------7--7--7------7-7-7--------|
Ab|--4--4-4--4-4-4--2--2-2--2-2-2--5-5-5--5--5--5-5-5-5-5--------|
Eb|--2--2-2--2-2-2--0--0-0--0-0-0--------------------------------|
                                   P.M          P.M
  1                 I'm going to    to

   (x1)
eb|--------------------------------------------------------------|
Bb|--------------------------------------------------------------|
Gb|--------------------------------7--7-7--7-7-7--7--7-7--7-7-7--|
Db|--4--4-4--4-4-4--2--2-2--2-2-2--7--7-7--7-7-7--7--7-7--7-7-7--|
Ab|--4--4-4--4-4-4--2--2-2--2-2-2--5--5-5--5-5-5--5--5-5--5-5-5--|
Eb|--2--2-2--2-2-2--0--0-0--0-0-0--------------------------------|
  1   Miss the way  feels when we   wake up together

   (x1)
eb|-----------------------------------------------------|
Bb|-----------------------------------------------------|
Gb|-----------------------------------------------------|
Db|--4----------------2----------------7----------------|
Ab|--4--  LET RING  --2--  LET RING  --7--  LET RING  --|
Eb|--2----------------0----------------5----------------|
  1                 Together



-----------------------------------------------------------------------------
                                VIII. IN ORBIT
-----------------------------------------------------------------------------

Key: Bb Major

VERSE ONE (0:01)

   (x2)
eb|-------------------------------------------------------------------|
Bb|-------------------------------------------------------------------|
Gb|-------------------------------------------------------------------|
Db|--2-2-2-2-2-2-2-2-2-2-2-2-2-2-2-2-2-2-2-2-2-2-2-2-2-2-2-2-2-2-2-2--|
Ab|--2-2-2-2-2-2-2-2-2-2-2-2-2-2-2-2-2-2-2-2-2-2-2-2-2-2-2-2-2-2-2-2--|
Eb|--0-0-0-0-0-0-0-0-0-0-0-0-0-0-0-0-0-0-0-0-0-0-0-0-0-0-0-0-0-0-0-0--|
  1   Mouth is firing out blanks cause I've got nothing left to say
  2   All the times you never said "I wanna love you too"

eb|-------------------------------------------------------------------|
Gb|-------------------------------------------------------------------|
Bb|-------------------------------------------------------------------|
Db|------------4---------------------------------4--------------------|
Ab|-------2---------------------------------2-------------------------|
Eb|--4---------------------------------4------------------------------|
  1  Tools to rebuild the bridge     road that got in our way and
  2  Starting to come back and       all the things that I didn't do

PRECHORUS, PART 1 - RHYTHM (0:23)

   (x1) Guitar One - Muffled
eb|-------------------------------------------------------------------|
Bb|-------------------------------------------------------------------|
Gb|-------------------------------------------------------------------|
Db|--2-2-2-2-2-2-2-2-2-2-2-2-2-2-2-2-2-2-2-2-2-2-2-2-2-2-2-2-2-2-2-2--|
Ab|--2-2-2-2-2-2-2-2-2-2-2-2-2-2-2-2-2-2-2-2-2-2-2-2-2-2-2-2-2-2-2-2--|
Eb|--0-0-0-0-0-0-0-0-0-0-0-0-0-0-0-0-0-0-0-0-0-0-0-0-0-0-0-0-0-0-0-0--|

   (x1) (0:29)
eb|-----------------------|
Bb|-----------------------|
Gb|-----------------------|
Db|--4-4--4-4--4-4--4-4---|
Ab|--4-4--4-4--4-4--4-4---|
Eb|--2-2--2-2--2-2--2-2---|

PRECHORUS, - LEAD (0:29)

   (x1)
eb|---------------------------------------|
Bb|--12-------12-------12-------12--------|
Gb|-----11-11----11-11----11-11----11-11--|
Db|---------------------------------------|
Ab|---------------------------------------|
Eb|---------------------------------------|
        P.M--|   P.M--|   P.M--|   P.M--|

PRECHORUS, PART 2 (0:32)

   (x1)
eb|----------------------------------------------------------------------|
Bb|----------------------------------------------------------------------|
Gb|----------------------------------------------------------------------|
Db|--6-6--6-6--6-6--6-6------2-2--2-2--2-2--2-2------4-4--4-4--4-4--4-4--|
Ab|--6-6--6-6--6-6--6-6------2-2--2-2--2-2--2-2------4-4--4-4--4-4--4-4--|
Eb|--4-4--4-4--4-4--4-4------0-0--0-0--0-0--0-0------2-2--2-2--2-2--2-2--|
  1 Again                 I'm  sorry that I'm          bad boyfriend

   (x1)
eb|----------------------------------------------------------------------|
Bb|----------------------------------------------------------------------|
Gb|----------------------------------------------------------------------|
Db|--4-4-4-4-4-4-4-4-4-4-4-4-4-4-4-4--6-6-6-6-6-6-6-6-6-6-6-6-6-6-6-6----|
Ab|--4-4-4-4-4-4-4-4-4-4-4-4-4-4-4-4--6-6-6-6-6-6-6-6-6-6-6-6-6-6-6-6----|
Eb|--2-2-2-2-2-2-2-2-2-2-2-2-2-2-2-2--4-4-4-4-4-4-4-4-4-4-4-4-4-4-4-4----|
  1    You,             you didn't make this                   easi-

   (x1)
eb|-----------------------------------------|
Bb|-----------------------------------------|
Gb|-----------------------------------------|
Db|--2------2--2-2-2--2--2--2--2-2-2-2-2-2--|
Ab|--2------2--2-2-2--2--2--2--2-2-2-2-2-2--|
Eb|--0--0-0-0--0-0-0--0--0--0--0-0-0-0-0-0--|
        P.M                    P.M--------|
  1 -er         easier

CHORUS ONE (0:52) 
 
   (x1)
eb|-------------------------------------------------------------------|
Bb|-------------------------------------------------------------------|
Gb|--4-4-4-4-4-4-4-4-4-4-4-4-4-4-4-4-4-4-4-4-4-4-4-4-4-4-4-4-4-4-4-4--|
Db|--4-4-4-4-4-4-4-4-4-4-4-4-4-4-4-4-4-4-4-4-4-4-4-4-4-4-4-4-4-4-4-4--|
Ab|--2-2-2-2-2-2-2-2-2-2-2-2-2-2-2-2-2-2-2-2-2-2-2-2-2-2-2-2-2-2-2-2--|
Eb|-------------------------------------------------------------------|
  1   I'm sorry I say I'm sorry so much but it's so hard for me to 

   (x1)
eb|-------------------------------------------------------------------|
Bb|-------------------------------------------------------------------|
Gb|-------------------------------------------------------------------|
Db|--2-2-2-2-2-2-2-2-2-2-2-2-2-2-2-2-2-2-2-2-2-2-2-2-2-2-2-2-2-2-2-2--|
Ab|--2-2-2-2-2-2-2-2-2-2-2-2-2-2-2-2-2-2-2-2-2-2-2-2-2-2-2-2-2-2-2-2--|
Eb|--0-0-0-0-0-0-0-0-0-0-0-0-0-0-0-0-0-0-0-0-0-0-0-0-0-0-0-0-0-0-0-0--|
  1   I'm running on a treadmill ground and going nowhere and

   (x1)
eb|-------------------------------------------------------------------|
Bb|-------------------------------------------------------------------|
Gb|--6-6-6-6-6-6-6-6-6-6-6-6-6-6-6-6-6-6-6-6-6-6-6-6-6-6-6-6-6-6-6-6--|
Db|--6-6-6-6-6-6-6-6-6-6-6-6-6-6-6-6-6-6-6-6-6-6-6-6-6-6-6-6-6-6-6-6--|
Ab|--4-4-4-4-4-4-4-4-4-4-4-4-4-4-4-4-4-4-4-4-4-4-4-4-4-4-4-4-4-4-4-4--|
Eb|-------------------------------------------------------------------|
  1   on and on the cycle moves, without me and without you and I

   (x1)
eb|-------------------------------------------------------------------|
Bb|-------------------------------------------------------------------|
Gb|-------------------------------------------------------------------|
Db|--2-2-2-2-2-2-2-2-2-2-2-2-2-2-2-2-2-2-2-2-2-2-2-2-2-2-2-2-2-2-2-2--|
Ab|--2-2-2-2-2-2-2-2-2-2-2-2-2-2-2-2-2-2-2-2-2-2-2-2-2-2-2-2-2-2-2-2--|
Eb|--0-0-0-0-0-0-0-0-0-0-0-0-0-0-0-0-0-0-0-0-0-0-0-0-0-0-0-0-0-0-0-0--|
  1   realize now the world doesn't need you and me to keep spinning

POSTCHORUS (1:15)

   (x2)
eb|-------------------------------------------------------------------|
Bb|-------------------------------------------------------------------|
Gb|--8-8-8-8-8-8-8-8--9-9-9-9-9-9-9--8-8-8-8-8-8-8--9-9-9-9-----------|
Db|-------------------------------------------------------------------|
Ab|-------------------------------------------------------------------|
Eb|-------------------------------------------------------------------|
     P.M----------------------------------------------------|
  1                                                         Cause it
  2                                                         And broken

eb|-------------------------------------------------------------------|
Bb|-------------------------------------------------------------------|
Gb|-------------------------------------------------------------------|
Db|--2--2-2-2--2-2--2-2-2-2-2-2--2--2-2--2-2--2-2-2-2-2-2-2-----------|
Ab|--2--2-2-2--2-2--2-2-2-2-2-2--2--2-2--2-2--2-2-2-2-2-2-2-----------|
Eb|--0--0-0-0--0-0--0-0-0-0-0-0--0--0-0--0-0--0-0-0-0-0-0-0-----------|
  1   round and round without us every time we go to sleep
  2   hearts that lie in bed with promises still left to keep

FINAL CHORUS (1:39)

   (x1)
eb|-------------------------------------------------------------------|
Bb|-------------------------------------------------------------------|
Gb|--4-4-4-4-4-4-4-4-4-4-4-4-4-4-4-4-4-4-4-4-4-4-4-4-4-4-4-4-4-4-4-4--|
Db|--4-4-4-4-4-4-4-4-4-4-4-4-4-4-4-4-4-4-4-4-4-4-4-4-4-4-4-4-4-4-4-4--|
Ab|--2-2-2-2-2-2-2-2-2-2-2-2-2-2-2-2-2-2-2-2-2-2-2-2-2-2-2-2-2-2-2-2--|
Eb|-------------------------------------------------------------------|
  1   ceiling,         I'm awake all night and I just stare at the

   (x1)
eb|-------------------------------------------------------------------|
Bb|-------------------------------------------------------------------|
Gb|-------------------------------------------------------------------|
Db|--2-2-2-2-2-2-2-2-2-2-2-2-2-2-2-2-2-2-2-2-2-2-2-2-2-2-2-2-2-2-2-2--|
Ab|--2-2-2-2-2-2-2-2-2-2-2-2-2-2-2-2-2-2-2-2-2-2-2-2-2-2-2-2-2-2-2-2--|
Eb|--0-0-0-0-0-0-0-0-0-0-0-0-0-0-0-0-0-0-0-0-0-0-0-0-0-0-0-0-0-0-0-0--|
  1   ceiling,         I'm awake all night, and I just stare at the

   (x1)
eb|-------------------------------------------------------------------|
Bb|-------------------------------------------------------------------|
Gb|--6-6-6-6-6-6-6-6-6-6-6-6-6-6-6-6-6-6-6-6-6-6-6-6-6-6-6-6-6-6-6-6--|
Db|--6-6-6-6-6-6-6-6-6-6-6-6-6-6-6-6-6-6-6-6-6-6-6-6-6-6-6-6-6-6-6-6--|
Ab|--4-4-4-4-4-4-4-4-4-4-4-4-4-4-4-4-4-4-4-4-4-4-4-4-4-4-4-4-4-4-4-4--|
Eb|-------------------------------------------------------------------|
  1   on and on the cycle moves, without me and without you and I

   (x1)
eb|-------------------------------------------------------------------|
Bb|-------------------------------------------------------------------|
Gb|-------------------------------------------------------------------|
Db|--2-2-2-2-2-2-2-2-2-2-2-2-2-2-2-2-2-2-2-2-2-2-2-2-2-2-2-2-2-2-2-2--|
Ab|--2-2-2-2-2-2-2-2-2-2-2-2-2-2-2-2-2-2-2-2-2-2-2-2-2-2-2-2-2-2-2-2--|
Eb|--0-0-0-0-0-0-0-0-0-0-0-0-0-0-0-0-0-0-0-0-0-0-0-0-0-0-0-0-0-0-0-0--|
  1   realize now the world doesn't need you and me to keep

END ON (2:02)

   (x1)
eb|-------------------|
Bb|-------------------|
Gb|--4----------------|
Db|--4--  LET RING  --|
Ab|--2----------------|
Eb|-------------------|
  1  spinning



-----------------------------------------------------------------------------
                                IX. THE USUAL RESULTS
-----------------------------------------------------------------------------

Key: Bb Major

VERSE ONE (0:01)

   (x2)
eb|------------------------------------------------------------------------|
Bb|------------------------------------------------------------------------|
Gb|------------------------------------------------------------------------|
Db|--4--6--6------------------------------4--6-----------------------------|
Ab|--4--6--6---x-x-x-x-x-x-x-x-x-x-x-x----4--6----x-x-x-x-x-x-x-x-x-x-x-x--|
Eb|--2--4--4---x-x-x-x-x-x-x-x-x-x-x-x----2--4----x-x-x-x-x-x-x-x-x-x-x-x--|
  1                She said "Ok,       I'm sorry, I know I'm not perfect
  2                Failure to not      accomplish all that which

                                                    1st Time       2nd Time
eb|--------------------------------------------|----------------|------------|
Bb|--------------------------------------------|----------------|------------|
Gb|---------4-4-4-----------4-4-4--------------|----------------|------------|
Db|--2-2-2--4-4-4----2-2-2--4-4-4--2--2--2--2--|--2--2---2-2-2--|--2-6--2-4--|
Ab|--2-2-2--2-2-2----2-2-2--2-2-2--2--2--2--2--|--2--2---2-2-2--|--2-6--2-4--|
Eb|--0-0-0-----------0-0-0---------0--0--0--0--|--0--0---0-0-0--|--0-4--0-2--|
  1  Take a look in the  mirror    one who's breaking promises
  2  Take a look in the  mirror    one who's breaking             promises

PRECHORUS (0:18)

   (x1)
eb|--------------------------------------------------------------------|
Bb|--------------------------------------------------------------------|
Gb|--9------------------------------------------------9----------------|
Db|--9-----------------2-6----2-4----2----------------9--  LET RING  --|
Ab|--7--  LET RING  ---2-6----2-4----2--  LET RING  --7----------------|
Eb|--------------------0-4----0-2----0---------------------------------|
  1    I'm not the      promises
    
CHORUS ONE (0:27):

   (x2)
eb|---------------------------------------------------------------------|
Bb|---------------------------------------------------------------------|
Gb|---------------------------------------------------------------------|
Db|--2--2-2-2-2-2-2-2-2-2-2-2-2-2-2--4/6--6-6-4-4--4/6--6-6-4-4---------|
Ab|--2--2-2-2-2-2-2-2-2-2-2-2-2-2-2--4/6--6-6-4-4--4/6--6-6-4-4---------|
Eb|--0--0-0-0-0-0-0-0-0-0-0-0-0-0-0--2/4--4-4-2-2--2/4--4-4-2-2---------|
  1  Look at us now                    this isn't how we wanted 
  2  Leaves from a tree, I tried to   make you believe but you're re-

eb|---------------------------------------------------------------------|
Bb|---------------------------------------------------------------------|
Gb|---------------------------------------------------------------------|
Db|--2--2-2-2-2-2-2-2-2-2-2-2-2-2-2--4/6--6-6-4-4--4/6--6-6-4-----------|
Ab|--2--2-2-2-2-2-2-2-2-2-2-2-2-2-2--4/6--6-6-4-4--4/6--6-6-4--  STOP --|
Eb|--0--0-0-0-0-0-0-0-0-0-0-0-0-0-0--2/4--4-4-2-2--2/4--4-4-2-----------|
  1  us to turn out                    relationships fall like
  2  -luctant right now                woah

POSTCHORUS (0:45) - Guitar One plays chorus again

   (x2) Guitar Two [Cut off last "11" note second time around ]
eb|------------------------------------------------------------|
Bb|--16p12----16----16----16-------14p12----14----14----12-----|
Gb|--------11----11----11----11----------11----11----11----11--|
Db|------------------------------------------------------------|
Ab|------------------------------------------------------------|
Eb|------------------------------------------------------------|

VERSE TWO (0:54)

   (x1)
eb|------------------------------------------------------------------------|
Bb|------------------------------------------------------------------------|
Gb|------------------------------------------------------------------------|
Db|--4--6--6------------------------------4--6-----------------------------|
Ab|--4--6--6---x-x-x-x-x-x-x-x-x-x-x-x----4--6----x-x-x-x-x-x-x-x-x-x-x-x--|
Eb|--2--4--4---x-x-x-x-x-x-x-x-x-x-x-x----2--4----x-x-x-x-x-x-x-x-x-x-x-x--|
  1               I'm getting weaker                I'm going nowhere

   (x1)
eb|----------------------------------------------------------|
Bb|----------------------------------------------------------|
Gb|---------4-4-4-----------4-4-4----------------------------|
Db|--2-2-2--4-4-4----2-2-2--4-4-4--2--2--2--2--2--2---2-2-2--|
Ab|--2-2-2--2-2-2----2-2-2--2-2-2--2--2--2--2--2--2---2-2-2--|
Eb|--0-0-0-----------0-0-0---------0--0--0--0--0--0---0-0-0--|
  1     Fading out      slowly      just like a movie

   (x1)
eb|------------------------------------------------------------------------|
Bb|------------------------------------------------------------------------|
Gb|------------------------------------------------------------------------|
Db|--4--6--6------------------------------4--6-----------------------------|
Ab|--4--6--6---x-x-x-x-x-x-x-x-x-x-x-x----4--6----x-x-x-x-x-x-x-x-x-x-x-x--|
Eb|--2--4--4---x-x-x-x-x-x-x-x-x-x-x-x----2--4----x-x-x-x-x-x-x-x-x-x-x-x--|
  1          I held you last night                  with the usual re-

ALTERNATE PRECHORUS (1:09)

   (x1) Guitar One - Rhythm
eb|--------------------------------------------------------------------------|
Bb|--------------------------------------------------------------------------|
Gb|-----------------------------4-4-4-4-----------------------------4-----4--|
Db|--2-2-2-2--4-4-4-4--6-6-6-6--4-4-4-4--2-2-2-2--4-4-4-4--6-6-6-6--4-----4--|
Ab|--2-2-2-2--4-4-4-4--6-6-6-6--2-2-2-2--2-2-2-2--4-4-4-4--6-6-6-6--2-x-x-2--|
Eb|--0-0-0-0--2-2-2-2--4-4-4-4-----------0-0-0-0--2-2-2-2--4-4-4-4-----------|
  1  -sults,    w   o   a   h                      w   o   a   h

   (x2) Guitar Two - Lead [Cut off last "11" note second time around]
eb|--------------------------------------------------------------------------|
Bb|--16----16------14----14------12----12------14----14----------------------|
Gb|-----11----11------11----11------11----11------11----11-------------------|
Db|--------------------------------------------------------------------------|
Ab|--------------------------------------------------------------------------|
Eb|--------------------------------------------------------------------------|

OUTRO CHORUS (1:18)

   (x4) Guitar One - Rhythm
eb|---------------------------------------------------------------------|
Bb|---------------------------------------------------------------------|
Gb|---------------------------------------------------------------------|
Db|--2--2-2-2-2-2-2-2-2-2-2-2-2-2-2--4/6--6-6-4-4--4/6--6-6-4-4---------|
Ab|--2--2-2-2-2-2-2-2-2-2-2-2-2-2-2--4/6--6-6-4-4--4/6--6-6-4-4---------|
Eb|--0--0-0-0-0-0-0-0-0-0-0-0-0-0-0--2/4--4-4-2-2--2/4--4-4-2-2---------|
  1  Look at us now                    this isn't how we wanted 
  2  Leaves from a tree, I tried to   make you believe but you're re-
  3  Look at us now                    this isn't how we wanted 
  4  Leaves from a tree, I tried to   make you believe but you're re-

eb|---------------------------------------------------------------------|
Bb|---------------------------------------------------------------------|
Gb|---------------------------------------------------------------------|
Db|--2--2-2-2-2-2-2-2-2-2-2-2-2-2-2--4/6--6-6-4-4--4/6--6-6-4-----------|
Ab|--2--2-2-2-2-2-2-2-2-2-2-2-2-2-2--4/6--6-6-4-4--4/6--6-6-4--  STOP --|
Eb|--0--0-0-0-0-0-0-0-0-0-0-0-0-0-0--2/4--4-4-2-2--2/4--4-4-2-----------|
  1  us to turn out                    relationships fall like
  2  -luctant right now                woah
  3  us to turn out                    relationships fall like
  4  -luctant right now                woah

   (x2) Guitar Two (1:36) [Cut off last "11" note second time around]
eb|------------------------------------------------------------|
Bb|--16p12----16----16----16-------14p12----14----14----12-----|
Gb|--------11----11----11----11----------11----11----11----11--|
Db|------------------------------------------------------------|
Ab|------------------------------------------------------------|
Eb|------------------------------------------------------------|



-----------------------------------------------------------------------------
                                X. TOP EIGHT
-----------------------------------------------------------------------------

Key: Eb Major

NOTE: "Top Eight" has a lot of electronic elements and
guitar effects scattered throughout. The tab below is 
arranged for a more basic, chord-driven performance.

VERSE ONE (0:07)

   (x4)
eb|------------------------------------------------------------|
Bb|------------------------------------------------------------|
Gb|--6--------------------2------------------------------------|
Db|--6--  LET RING  ------2--  LET RING  -----2----------------|
Ab|--4--------------------0-------------------2--  LET RING  --|
Eb|-------------------------------------------0----------------|
  1  guess that we are    not best friends anymore
  2  don't think that   I like you         anymore
  3  washed up,         pathetic           touch and
  4  I don't wanna        be your friend   anymore

CHORUS (0:39)

   (x1)
eb|-------------------------------------------------|
Bb|-------------------------------------------------|
Gb|-------------------------------------------------|
Db|--4---------------7---------------2--------------|
Ab|--4-- LET RING ---7-- LET RING ---2-- LET RING --|
Eb|--2---------------5---------------0--------------|
  1  You'll die and I'll say what a waste

   (x1)
eb|-------------------------------------------------------------------------------|
Bb|-------------------------------------------------------------------------------|
Gb|---------------------------------6--------------4---------------2--------------|
Db|--4--------------7---------------6-- LET RING --4-- LET RING ---2-- LET RING --|
Ab|--4-- LET RING --7-- LET RING ---4--------------2---------------0--------------|
Eb|--2--------------5-------------------------------------------------------------|
  1  You used to    be such a      catch but     mess but now     mess

Lead guitar plays this little melody continuously over whole chorus

eb|-----16-17-16--|
Bb|--17-----------|
Gb|---------------|
Db|---------------|
Ab|---------------|
Eb|---------------|

SEGUE TO SECOND VERSE (1:19)

   (x1)
eb|----------------------------------|
Bb|----------------------------------|
Gb|--6-6-6-6-6-6-6--2-2-2-2-2-2-2-2--|
Db|--6-6-6-6-6-6-6--2-2-2-2-2-2-2-2--|
Ab|--4-4-4-4-4-4-4--0-0-0-0-0-0-0-0--|
Eb|----------------------------------|
     P.M---------------------------|
  1  Guess I'm not  same guy anymore

   (x1) Guitar One - Rhythm (1:23)
eb|--------------------------------------------------------------------|
Bb|--------------------------------------------------------------------|
Gb|-----------------------------------4-4-4-4-4-4-4-4-4-4-4-4-4-4-4-4--|
Db|--2-2-2-2-2-2-2-2-2-2-2-2-2-2-2-2--4-4-4-4-4-4-4-4-4-4-4-4-4-4-4-4--|
Ab|--2-2-2-2-2-2-2-2-2-2-2-2-2-2-2-2--2-2-2-2-2-2-2-2-2-2-2-2-2-2-2-2--|
Eb|--0-0-0-0-0-0-0-0-0-0-0-0-0-0-0-0-----------------------------------|

   (x2) Guitar Two - Lead (1:23)
eb|--------------------------------------------------------------------|
Bb|--------------------------------------------------------------------|
Gb|--13-13-13-13-13-13-13-13-13-13-13-13--11-11--16-16-----------------|
Db|---x--x--x--x--x--x--x--x--x--x--x--x---x--x---x--x-----------------|
Ab|--11-11-11-11-11-11-11-11-11-11-11-11---9--9--14-14-----------------|
Eb|--------------------------------------------------------------------|

VERSE TWO (01:29)

   (x4)
eb|---------------------------------------------------------------------|
Bb|---------------------------------------------------------------------|
Gb|--6-6-6-6-6-6-6-6--2-2-2-2-2-2-2-2-----------------------------------|
Db|--6-6-6-6-6-6-6-6--2-2-2-2-2-2-2-2--2-2-2-2-2-2-2-2-2-2-2-2-2-2-2-2--|
Ab|--4-4-4-4-4-4-4-4--0-0-0-0-0-0-0-0--2-2-2-2-2-2-2-2-2-2-2-2-2-2-2-2--|
Eb|------------------------------------0-0-0-0-0-0-0-0-0-0-0-0-0-0-0-0--|
     P.M--------------------------------------------------------------|
  1  Guess I'm not    same guy anymore
  2  Lot of things    clear to me
  3  Stand for these antics, don't even wanna understand them
  4  I don't wanna    be your friend anymore

CHORUS TWO (1:54)

   (x1)
eb|--------------------------------------------------------------------|
Bb|--------------------------------------------------------------------|
Gb|--------------------------------------------------------------------|
Db|--4-4-4-4-4-4-4-4-4-4-4-4-4-4-4-4--7-7-7-7-7-7-7-7-7-7-7-7-7-7-7-7--|
Ab|--4-4-4-4-4-4-4-4-4-4-4-4-4-4-4-4--7-7-7-7-7-7-7-7-7-7-7-7-7-7-7-7--|
Eb|--2-2-2-2-2-2-2-2-2-2-2-2-2-2-2-2--5-5-5-5-5-5-5-5-5-5-5-5-5-5-5-5--|
  1   You'll     die      and          I'll     say     what   a  wa-

   (x1)
eb|--------------------------------------------------------------------|
Bb|--------------------------------------------------------------------|
Gb|--------------------------------------------------------------------|
Db|-----2--2--------2----2--2--2----2--2-2--------2----2--2--2---------|
Ab|-----2--2--------2----2--2--2----2--2-2--------2----2--2--2---------|
Eb|-----0--0--0-0---0----0--0--0----0--0-0--0-0---0----0--0--0---------|
              P.M                           P.M
  1     -ste

   (x1)
eb|--------------------------------------------------------------------|
Bb|--------------------------------------------------------------------|
Gb|--------------------------------------------------------------------|
Db|--4-4-4-4-4-4-4-4-4-4-4-4-4-4-4-4--7-7-7-7-7-7-7-7-7-7-7-7-7-7-7-7--|
Ab|--4-4-4-4-4-4-4-4-4-4-4-4-4-4-4-4--7-7-7-7-7-7-7-7-7-7-7-7-7-7-7-7--|
Eb|--2-2-2-2-2-2-2-2-2-2-2-2-2-2-2-2--5-5-5-5-5-5-5-5-5-5-5-5-5-5-5-5--|
  1    You     used      to                be    such      a       ca-

   (x1)
eb|--------------------------------------------------------------------|
Bb|--------------------------------------------------------------------|
Gb|--6-6-6-6-6-6-6-6-6-6-6-6-6-6-6-6--4-4-4-4-4-4-4-4-4-4-4-4-4-4-4-4--|
Db|--6-6-6-6-6-6-6-6-6-6-6-6-6-6-6-6--4-4-4-4-4-4-4-4-4-4-4-4-4-4-4-4--|
Ab|--4-4-4-4-4-4-4-4-4-4-4-4-4-4-4-4--2-2-2-2-2-2-2-2-2-2-2-2-2-2-2-2--|
Eb|--------------------------------------------------------------------|
  1  -tch       but now you're a        mess, but now you're a

   (x1)
eb|--------------------------------------------------------------------|
Bb|--------------------------------------------------------------------|
Gb|--2--------------------------------2--------------------------------|
Db|--2--  LET RING  ------------------2--  LET RING  ------------------|
Ab|--0--------------------------------0--------------------------------|
Eb|--------------------------------------------------------------------|
  1  mess

OUTRO (2:26)

   (x1)
eb|-----------------------------------------------------------|
Bb|-----------------------------------------------------------|
Gb|--6--------------------2-----------------------------------|
Db|--6--  LET RING  ------2--  LET RING  ----2----------------|
Ab|--4--------------------0------------------2--  LET RING  --|
Eb|------------------------------------------0----------------|
  1  Guess that we are   not best friends anymore
comments
We did not receive enough feedback on this tab! Please rate:
print report bad tab
1 2 3 4 5
I want to post or [tab]
guest
You may want to rate the tab now too:
select rating
Please do not post tabs as comments. Select "correction" instead!