Oops, an error
Loading. Please wait.

Angel De Amor Tab

by Mana
ver4
ver4
More versions @911Tabs.com
1,058 views 1 this week
no commentswrite comment
1 2 3 4 5
please rate
Autoscroll
+/-
esc
set tempo
stop
Contributor
Hey! There's an official Ultimate Guitar app which is ideal
for learning songs when you're away from computer. Get the app
WARNING: You are trying to view
                                    content from Ultimate-Guitar.com
                                    in an unauthorized application,
                                    which is prohibited.

                                    Please use an official Ultimate
                                    Guitar Tabs application for iPhone,
                                    iPad or Android to access legitimate
                                    chords, guitar, bass, and drum tabs
                                    from Ultimate-Guitar.com database.

                                    Type "ultimate guitar tabs" in Apple
                                    App Store's or Android Market's
                                    search to find the application.
E||-------7-----7------7------|--7-----7-----7------7------|
B||-------------10-----10-----|--------------10-----10-----|
G||----9-----9------9------9--|-----9-----9------9------9--|
D||---------------------------|----------------------------|
A||---------------------------|----------------------------|
E||---------------------------|----------------------------|

                              
--7-----7-----7------7------|--9------10-----9------9------|
--------------10-----10-----|--12-----12-----12-----12-----|
-----9-----9------9------9--|------9------9------9------9--|
----------------------------|------------------------------|
----------------------------|------------------------------|
----------------------------|------------------------------|



--7-----7-----7------7------|--7-----7-----7------7------|
--------------10-----10-----|--------------10-----10-----|
-----9-----9------9------9--|-----9-----9------9------9--|
----------------------------|----------------------------|
----------------------------|----------------------------|
----------------------------|----------------------------|



--7-----7-----7------7------|--7-----7------7------7------|
--------------10-----10-----|--9-----10-----10-----9------|
-----9-----9------9------9--|-----9------9------9-----9-9/|
----------------------------|-----------------------------|
----------------------------|-----------------------------|
----------------------------|-----------------------------|



-----------------------------|-----------------------|-------------------------|
------10----10--12----12--9--|----9--10--------------|------7----7--9----------|
--11--11--------11--------9--|-------9-----9----9----|--4/6-----------------9--|
-----------------------------|-----------------------|-------------------9-----|
-----------------------------|-----------------------|-------------------------|
-----------------------------|-----------------------|-------------------------|



----------------------|----------------------|----------------------|
----------------------|----------------------|----------------------|
-------7----6---------|----------------------|--9-------------------|
----7------------7----|-------11------9------|--7------9------11----|
----------------------|--9----9-------7------|---------7------9-----|
----------------------|----------------------|----------------------|


----------------------|---------------------|--------|--------|
----------------------|---------------------|--------|--------|
----------------------|----9---------9------|--------|--------|
------11------9----7--|----7---------9------|--------|--------|
------9-------7----5==|=========7-----------|--------|--------|
----------------------|---------------------|--------|--------|


Primer estribillo

-----------------------|-----------------------|------------------|----|
----------9---------7--|-----------------------|------------------|----|
-------9-------9-------|----9----9--9----7h-6--|------------------|----|
----7------------------|-----------------------|------------------|----|
-----------------------|-----------------------|------------------|----|
-----------------------|-----------------------|------------------|----|



--------------------------|-----------------------|------------------|--------|
----------10----------12--|----------9------10----|------------------|--------|
-------9--------9---------|----9------------------|------------------|--------|
----9--------------9------|-------9---------------|------------------|--------|
--------------------------|-----------------------|------------------|--------|
--------------------------|-----------------------|------------------|--------|



-----------------------|-----------------------|------------------|----|
----------9---------7--|-----------------------|------------------|----|
-------9-------9-------|----9----9--9----7h-6--|------------------|----|
----7------------------|-----------------------|------------------|----|
-----------------------|-----------------------|------------------|----|
-----------------------|-----------------------|------------------|----|



--------------------------|-----------------------------|--------------------|
----------10----------12--|-----------------12h-10------|--10----------------|
-------9--------9---------|----9--------------------11--|--11----------------|
----9--------------9------|-------9--9/-11--------------|--------------------|
--------------------------|-----------------------------|--------------------|
--------------------------|-----------------------------|--------------------|



------------------|------------------|------------------|
------------------|------------------|------------------|
------------------|------------------|------------------|
------------------|------------------|------------------|
------------------|------------------|------------------|
------------------|------------------|------------------|

Primer Coro

-------7-----7------7------|--7-----7-----7------7------|
-------------10-----10-----|--------------10-----10-----|
----9-----9------9------9--|-----9-----9------9------9--|
---------------------------|----------------------------|
---------------------------|----------------------------|
---------------------------|----------------------------|



--7-----7-----7------7------|--9------10-----9------9------|
--------------10-----10-----|--12-----12-----12-----12-----|
-----9-----9------9------9--|------9------9------9------9--|
----------------------------|------------------------------|
----------------------------|------------------------------|
----------------------------|------------------------------|



--7-----7-----7------7------|--7-----7-----7------7------|
--------------10-----10-----|--------------10-----10-----|
-----9-----9------9------9--|-----9-----9------9------9--|
----------------------------|----------------------------|
----------------------------|----------------------------|
----------------------------|----------------------------|



--7-----7-----7------7---7--|------------------|--------|--------|
--------------10-----10--9--|------------------|--------|--------|
-----9-----9------9---------|------------------|--------|--------|
----------------------------|------------------|--------|--------|
----------------------------|------------------|--------|--------|
----------------------------|------------------|--------|--------|

Segundo Estribillo

-----------------------|-----------------------|------------------|----|
----------9---------7--|-----------------------|------------------|----|
-------9-------9-------|----9----9--9----7h-6--|------------------|----|
----7------------------|-----------------------|------------------|----|
-----------------------|-----------------------|------------------|----|
-----------------------|-----------------------|------------------|----|



--------------------------|-----------------------|------------------|--------|
----------10----------12--|----------9------10----|------------------|--------|
-------9--------9---------|----9------------------|------------------|--------|
----9--------------9------|-------9---------------|------------------|--------|
--------------------------|-----------------------|------------------|--------|
--------------------------|-----------------------|------------------|--------|



-----------------------|-----------------------|------------------|----|
----------9---------7--|-----------------------|------------------|----|
-------9-------9-------|----9----9--9----7h-6--|------------------|----|
----7------------------|-----------------------|------------------|----|
-----------------------|-----------------------|------------------|----|
-----------------------|-----------------------|------------------|----|



--------------------------|-----------------------------|--------------------|
----------10----------12--|-----------------12h-10------|--10----------------|
-------9--------9---------|----9--------------------11--|--11----------------|
----9--------------9------|-------9--9/-11--------------|--------------------|
--------------------------|-----------------------------|--------------------|
--------------------------|-----------------------------|--------------------|



------------------|------------------|------------------|
------------------|------------------|------------------|
------------------|------------------|------------------|
------------------|------------------|------------------|
------------------|------------------|------------------|
------------------|------------------|------------------|

Segundo Coro

-------7-----7------7------|--7-----7-----7------7------|
-------------10-----10-----|--------------10-----10-----|
----9-----9------9------9--|-----9-----9------9------9--|
---------------------------|----------------------------|
---------------------------|----------------------------|
---------------------------|----------------------------|



--7-----7-----7------7------|--9------10-----9------9------|
--------------10-----10-----|--12-----12-----12-----12-----|
-----9-----9------9------9--|------9------9------9------9--|
----------------------------|------------------------------|
----------------------------|------------------------------|
----------------------------|------------------------------|



--7-----7-----7------7------|--7-----7-----7------7------|
--------------10-----10-----|--------------10-----10-----|
-----9-----9------9------9--|-----9-----9------9------9--|
----------------------------|----------------------------|
----------------------------|----------------------------|
----------------------------|----------------------------|



--7-----7-----7------7------|--7-----7------7-----7-----|
--------------10-----10-----|--9-----10-----9-----9-----|
-----9-----9------9------9--|-----9------9-----9-----9--|
----------------------------|---------------------------|
----------------------------|---------------------------|
----------------------------|---------------------------|



-------7-----7------7------|--7-----7-----7------7------|
-------------10-----10-----|--------------10-----10-----|
----9-----9------9------9--|-----9-----9------9------9--|
---------------------------|----------------------------|
---------------------------|----------------------------|
---------------------------|----------------------------|



--7-----7-----7------7------|--9------10-----9------9------|
--------------10-----10-----|--12-----12-----12-----12-----|
-----9-----9------9------9--|------9------9------9------9--|
----------------------------|------------------------------|
----------------------------|------------------------------|
----------------------------|------------------------------|



--7-----7-----7------7------|--7-----7-----7------7------|
--------------10-----10-----|--------------10-----10-----|
-----9-----9------9------9--|-----9-----9------9------9--|
----------------------------|----------------------------|
----------------------------|----------------------------|
----------------------------|----------------------------|



--7-----7-----7------7------|--7-----7------7-----7-----|----|----|----|----|
--------------10-----10-----|--9-----10-----9-----9-----|----|----|----|----|
-----9-----9------9------9--|-----9------9-----9-----9--|----|----|----|----|
----------------------------|---------------------------|----|----|----|----|
----------------------------|---------------------------|----|----|----|----|
----------------------------|---------------------------|----|----|----|----|

Solo

----|----|----|------------------------|-------------------------|
----|----|----|------------------------|-------------------------|
----|----|----|--7--7--7--9----9--9----|--11----11------7/-9--9--|
----|----|----|--7--7--7--9----9--9----|--11----11------7/-9--9--|
----|----|----|--5--5--5--7----7--7----|--9-----9-------5/-7--7--|
----|----|----|------------------------|-------------------------|



------------------|-------------------------|------------------|
------------------|-------------------------|------------------|
------------------|--11----11------7/-9--9--|------------------|
------------------|--11----11------7/-9--9--|------------------|
------------------|--9-----9-------5/-7--7--|------------------|
------------------|-------------------------|------------------|



-------------------------|------------------|-------------------------|
-------------------------|------------------|-------------------------|
--11----11------7/-9--9--|------------------|--11----11------7/-9--9--|
--11----11------7/-9--9--|------------------|--11----11------7/-9--9--|
--9-----9-------5/-7--7--|------------------|--9-----9-------5/-7--7--|
-------------------------|------------------|-------------------------|


Volvemos al efecto de guitarra jazzera

------------------|----------------------|----------------------|
------------------|----------------------|----------------------|
------------------|----------------------|--9-------------------|
------------------|-------11------9------|--7------9------11----|
------------------|--9----9-------7------|---------7------9-----|
------------------|----------------------|----------------------|



----------------------|---------------------|----------------------|
----------------------|---------------------|----------------------|
----------------------|----9---------9------|----------------------|
------11------9----7--|----7---------9------|-------11------9------|
------9-------7----5==|=========7-----------|--9----9-------7------|
----------------------|---------------------|----------------------|



----------------------|----------------------|---------------------|--------|
----------------------|----------------------|---------------------|--------|
--9-------------------|----------------------|----9---------9------|--------|
--7------9------11----|------11------9----7--|----7---------9------|--------|
---------7------9-----|------9-------7----5==|=========7-----------|--------|
----------------------|----------------------|---------------------|--------|

Ultimo coro

--------|--------|--------|-------7-----7------7------|
--------|--------|--------|-------------10-----10-----|
--------|--------|--------|----9-----9------9------9--|
--------|--------|--------|---------------------------|
--------|--------|--------|---------------------------|
--------|--------|--------|---------------------------|



--7-----7-----7------7------|-------7-----7------7------|
--------------10-----10-----|-------------10-----10-----|
-----9-----9------9------9--|----9-----9------9------9--|
----------------------------|---------------------------|
----------------------------|---------------------------|
----------------------------|---------------------------|



--7-----7------7------7----|-------7-----7------7------|
--9-----10-----12-----9----|-------------10-----10-----|
-----9------9------9-------|----9-----9------9------9--|
---------------------------|---------------------------|
---------------------------|---------------------------|
---------------------------|---------------------------|



-------7-----7------7------|-------7-----7------7------|
-------------10-----10-----|-------------10-----10-----|
----9-----9------9------9--|----9-----9------9------9--|
---------------------------|---------------------------|
---------------------------|---------------------------|
---------------------------|---------------------------|



--9------10-----9------7----|-------7-----7------7------|
--12-----12-----12----------|-------------10-----10-----|
------9------9------9-------|----9-----9------9------9--|
----------------------------|---------------------------|
----------------------------|---------------------------|
----------------------------|---------------------------|



--7-----7-----7------7------|-------7-----7------7------|
--------------10-----10-----|-------------10-----10-----|
-----9-----9------9------9--|----9-----9------9------9--|
----------------------------|---------------------------|
----------------------------|---------------------------|
----------------------------|---------------------------|



--7-----7------7-----7-----|--------7-----7------7------|
--9-----10-----9-----7-----|--------------10-----10-----|
-----9------9-----9-----9--|----7/9----9------9------9--|
---------------------------|----------------------------|
---------------------------|----------------------------|
---------------------------|----------------------------|



--7-----7-----7------7------|--------7-----7------7------|
--------------10-----10-----|--------------10-----10-----|
-----9-----9------9------9--|----7/9----9------9------9--|
----------------------------|----------------------------|
----------------------------|----------------------------|
----------------------------|----------------------------|



--7-----7------7-----7-----|--------7-----7------7------|
--9-----10-----9-----7-----|--------------10-----10-----|
-----9------9-----9-----9--|----7/9----9------9------9--|
---------------------------|----------------------------|
---------------------------|----------------------------|
---------------------------|----------------------------|



--7-----7-----7------7------|--------7-----7------7------|
--------------10-----10-----|--------------10-----10-----|
-----9-----9------9------9--|----7/9----9------9------9--|
----------------------------|----------------------------|
----------------------------|----------------------------|
----------------------------|----------------------------|



--7-----7------7-----7-----|--------7-----7------7------|
--9-----10-----9-----7-----|--------------10-----10-----|
-----9------9-----9-----9--|----7/9----9------9------9--|
---------------------------|----------------------------|
---------------------------|----------------------------|
---------------------------|----------------------------|



--7-----7-----7------7------|--------7-----7------7------|
--------------10-----10-----|--------------10-----10-----|
-----9-----9------9------9--|----7/9----9------9------9--|
----------------------------|----------------------------|
----------------------------|----------------------------|
----------------------------|----------------------------|



--7-----7------7-----7-----|--------7-----7------7------|
--9-----10-----9-----7-----|--------------10-----10-----|
-----9------9-----9-----9--|----7/9----9------9------9--|
---------------------------|----------------------------|
---------------------------|----------------------------|
---------------------------|----------------------------|



--7-----7-----7------7------|--------7-----7------7------|
--------------10-----10-----|--------------10-----10-----|
-----9-----9------9------9--|----7/9----9------9------9--|
----------------------------|----------------------------|
----------------------------|----------------------------|
----------------------------|----------------------------|



--7-----7------7-----7-----|--------7-----7------7------|
--9-----10-----9-----7-----|--------------10-----10-----|
-----9------9-----9-----9--|----7/9----9------9------9--|
---------------------------|----------------------------|
---------------------------|----------------------------|
---------------------------|----------------------------|



--7-----7-----7------7------|--------7-----7------7------|
--------------10-----10-----|--------------10-----10-----|
-----9-----9------9------9--|----7/9----9------9------9--|
----------------------------|----------------------------|
----------------------------|----------------------------|
----------------------------|----------------------------|



--7-----7------7-----7-----|--------7-----7------7------|
--9-----10-----9-----7-----|--------------10-----10-----|
-----9------9-----9-----9--|----7/9----9------9------9--|
---------------------------|----------------------------|
---------------------------|----------------------------|
---------------------------|----------------------------|



--7-----7-----7------7------|--------7-----7------7------|------------------||
--------------10-----10-----|--------------10-----10--9--|------------------||
-----9-----9------9------9--|----7/9----9------9------9--|------------------||
----------------------------|----------------------------|------------------||
----------------------------|----------------------------|------------------||
----------------------------|----------------------------|------------------||
comments
We did not receive enough feedback on this tab! Please rate:
print report bad tab
1 2 3 4 5
I want to post or [tab]
guest
You may want to rate the tab now too:
select rating
Please do not post tabs as comments. Select "correction" instead!