Oops, an error
Loading. Please wait.

Como Dueles En Los Labios Tab

by Mana
ver4
ver4

Intro

Whole song

More versions @911Tabs.com
763 views 1 this week
no commentswrite comment
1 2 3 4 5
please rate
Autoscroll
+/-
esc
set tempo
stop
Contributor
Difficulty
intermediate
WARNING: You are trying to view
                                    content from Ultimate-Guitar.com
                                    in an unauthorized application,
                                    which is prohibited.

                                    Please use an official Ultimate
                                    Guitar Tabs application for iPhone,
                                    iPad or Android to access legitimate
                                    chords, guitar, bass, and drum tabs
                                    from Ultimate-Guitar.com database.

                                    Type "ultimate guitar tabs" in Apple
                                    App Store's or Android Market's
                                    search to find the application.
//Estoy seguro que la  tab de la flauta es irrelevante a la hora de tocar. 
//Esta tab es la más exacta que podrás hallar.


Como dueles en los labios                             


                                                                            Maná
Sergio Vallín

//Let ring throughout the whole song

     Q    Q    Q    Q       Q    Q    Q    Q       Q    Q    Q    Q     
E||----------------------|------------0---------|----------------------|
B||--3---------3---------|--3-------------------|--3---------3---------|
G||-------0---------0----|-------0---------0----|-------2---------2----|
D||----------------------|----------------------|----------------------|
A||----------------------|----------------------|----------------------|
E||--3-------------------|----------------------|--2-------------------|


  Q    Q    Q    Q         Q    Q    Q    Q       Q    Q    Q    Q     
-----------------------||----------------------|------------0---------|
--3---------1----0-----||--3---------3---------|--3-------------------|
-------2--------------*||-------0---------0----|-------0---------0----|
----------------------*||----------------------|----------------------|
-----------------------||----------------------|----------------------|
-----------------------||--3-------------------|----------------------|


  Q    Q    Q    Q       Q    Q    Q    Q       Q    Q    Q    Q     
----------------------|----------------------|----------------------|
--3---------3---------|--3---------1----0----|--3---------3---------|
-------2---------2----|-------2--------------|-------0---------0----|
----------------------|----------------------|----------------------|
----------------------|----------------------|----------------------|
--2-------------------|----------------------|--3-------------------|


  Q    Q    Q    Q       Q    Q    Q    Q       Q    Q    Q    Q     
------------0---------|----------------------|----------------------|
--3-------------------|--3---------3---------|--3---------1----0----|
-------0---------0----|-------2---------2----|-------2--------------|
----------------------|----------------------|----------------------|
----------------------|----------------------|----------------------|
----------------------|--2-------------------|----------------------|


  Q    Q    Q    Q       Q    Q    Q    Q       Q    Q    Q    Q     
----------------------|----------------------|----------------------|
--3-------------------|----------------------|----------------------|
------------0---------|--0---------0---------|--2---------2---------|
-------0---------0----|-------0---------0----|-------0---------0----|
----------------------|----------------------|----------------------|
--3-------------------|----------------------|--2-------------------|


  Q    Q    Q    Q       Q    Q    Q    Q       Q    Q    Q    Q     
----------------------|----------------------|----------------------|
--0---------1---------|--3-------------------|----------------------|
----------------------|------------0---------|--0---------0---------|
-------0---------0----|-------0---------0----|-------0---------0----|
----------------------|----------------------|----------------------|
----------------------|--3-------------------|----------------------|


  Q    Q    Q    Q       Q    Q    Q    Q       Q    Q    Q    Q     
----------------------|----------------------|----------------------|
----------------------|--3---------1---------|--0---------0---------|
--2---------2---------|----------------------|-------0---------0----|
-------0---------0----|-------0---------0----|----------------------|
----------------------|----------------------|----------------------|
--2-------------------|----------------------|--3-------------------|


  Q    Q    Q    Q       Q    H        Q       Q    Q    Q    Q     
----------------------|---------------------|----------------------|
--1---------3---------|--3------------------|------------1---------|
-------0---------0----|---------------------|-------2---------2----|
----------------------|-------0--------0----|--1-------------------|
----------------------|---------------------|----------------------|
----------------------|--2------------------|----------------------|


  Q    Q    Q    Q       Q    Q    Q    Q       Q    Q    Q    Q     
----------------------|----------------------|----------------------|
--0---------0---------|--0---------0---------|--0---------0---------|
-------0---------0----|-------0---------0----|-------0---------0----|
----------------------|----------------------|----------------------|
----------------------|----------------------|----------------------|
--0-------------------|----------------------|--0-------------------|


  Q    Q    Q    Q       Q    Q    Q    Q       Q    Q    Q    Q     
----------------------|----------------------|----------------------|
--3---------3---------|--3-------------------|----------------------|
-------2---------2----|------------0---------|--0---------0---------|
----------------------|-------0---------0----|-------0---------0----|
----------------------|----------------------|----------------------|
--2-------------------|--3-------------------|----------------------|


  Q    Q    Q    Q       Q    Q    Q    Q       Q    Q    Q    Q     
----------------------|----------------------|----------------------|
----------------------|--0---------1---------|--3-------------------|
--2---------2---------|----------------------|------------0---------|
-------0---------0----|-------0---------0----|-------0---------0----|
----------------------|----------------------|----------------------|
--2-------------------|----------------------|--3-------------------|


  Q    Q    Q    Q       Q    Q    Q    Q       Q    Q    Q    Q     
----------------------|----------------------|----------------------|
----------------------|----------------------|--3---------1---------|
--0---------0---------|--2---------2---------|----------------------|
-------0---------0----|-------0---------0----|-------0---------0----|
----------------------|----------------------|----------------------|
----------------------|--2-------------------|----------------------|


  Q    Q    Q    Q       Q    Q    Q    Q       Q    H        Q     
----------------------|----------------------|---------------------|
--0---------0---------|--1---------3---------|--3------------------|
-------0---------0----|-------0---------0----|---------------------|
----------------------|----------------------|-------0--------0----|
----------------------|----------------------|---------------------|
--3-------------------|----------------------|--2------------------|


  Q    Q    Q    Q       Q    Q    Q    Q       Q    Q    Q    Q     
----------------------|----------------------|----------------------|
------------1---------|--0---------0---------|--0---------0---------|
-------2---------2----|-------0---------0----|-------0---------0----|
--1-------------------|----------------------|----------------------|
----------------------|----------------------|----------------------|
----------------------|--0-------------------|----------------------|


  Q    Q    Q    Q       Q    Q    Q    Q       Q    Q    Q    Q     
----------------------|----------------------|----------------------|
--0---------0---------|--1---------3---------|--1---------1---------|
-------0---------0----|-------0---------0----|-------0---------0----|
----------------------|----------------------|----------------------|
----------------------|--0---------2---------|--3-------------------|
--0-------------------|----------------------|----------------------|


  Q    Q    Q    Q       Q    Q    Q    Q       Q    Q    Q    Q     
------------0---------|----------------------|--0---------1---------|
--1---------1---------|--3---------3---------|--3---------3---------|
-------0---------0----|-------0---------0----|-------0---------0----|
----------------------|----------------------|----------------------|
----------------------|--2-------------------|----------------------|
----------------------|----------------------|----------------------|


  Q    Q    Q    Q       Q    Q    Q    Q       Q    Q    Q    Q     
--0-------------------|----------------------|----------------------|
--1---------1---------|--1---------1---------|--3---------3---------|
-------0---------0----|-------0---------0----|-------0---------0----|
----------------------|----------------------|----------------------|
--3-------------------|----------------------|--2-------------------|
----------------------|----------------------|----------------------|


  Q    Q    Q    Q       Q    Q    Q    Q       Q    Q    Q    Q     
--3---------1---------|--0-------------------|----------------------|
--0---------0---------|--1---------1---------|--1---------1---------|
-------0---------0----|-------0---------0----|-------0---------0----|
----------------------|----------------------|----------------------|
----------------------|--3-------------------|----------------------|
----------------------|----------------------|----------------------|


  Q    Q    Q    Q       Q    Q    Q    Q       Q    Q    Q    Q     
----------------------|----------------------|----------------------|
--3---------3---------|-----------------0----|--1---------1---------|
-------0---------0----|------------0---------|-------2---------2----|
----------------------|-------0--------------|----------------------|
--2-------------------|--2-------------------|--0-------------------|
----------------------|----------------------|----------------------|


  Q    Q    Q    Q       Q    Q    Q    Q       Q    Q    Q    Q     
----------------------|----------------------|----------------------|
--1---------1---------|--1---------1---------|--3---------3---------|
-------2---------2----|-------2---------2----|-------0---------0----|
----------------------|----------------------|----------------------|
----------------------|--0-------------------|--2-------------------|
----------------------|----------------------|----------------------|


  Q    Q    Q    Q       Q    Q    Q    Q       Q    Q    Q    Q     
----------------------|------------0---------|----------------------|
--1---------1---------|--1---------1---------|--3---------3---------|
-------0---------0----|-------0---------0----|-------0---------0----|
----------------------|----------------------|----------------------|
--3-------------------|----------------------|--2-------------------|
----------------------|----------------------|----------------------|


  Q    Q    Q    Q       Q    Q    Q    Q       Q    Q    Q    Q     
--0---------1---------|--0-------------------|----------------------|
--3---------3---------|--1---------1---------|--1---------1---------|
-------0---------0----|-------0---------0----|-------0---------0----|
----------------------|----------------------|----------------------|
----------------------|--3-------------------|----------------------|
----------------------|----------------------|----------------------|


  Q    Q    Q    Q       Q    Q    Q    Q       Q    Q    Q    Q     
----------------------|--3---------1---------|--0-------------------|
--3---------3---------|--0---------0---------|--1---------1---------|
-------0---------0----|-------0---------0----|-------0---------0----|
----------------------|----------------------|----------------------|
--2-------------------|----------------------|--3-------------------|
----------------------|----------------------|----------------------|


  Q    Q    Q    Q       Q    Q    Q    Q       Q    Q    Q    Q     
----------------------|----------------------|----------------------|
--1---------1---------|--3---------3---------|-----------------0----|
-------0---------0----|-------0---------0----|------------0---------|
----------------------|----------------------|-------0--------------|
----------------------|--2-------------------|--2-------------------|
----------------------|----------------------|----------------------|


  Q    Q    Q    Q       Q    Q    Q    Q       Q    Q    Q    Q     
----------------------|----------------------|----------------------|
--1---------1---------|--1---------1---------|--1---------1---------|
-------2---------2----|-------2---------2----|-------2---------2----|
----------------------|----------------------|----------------------|
--0-------------------|----------------------|----------------------|
----------------------|----------------------|--3-------------------|


  Q    Q    Q    Q       Q    Q    Q    Q       Q    Q    Q    Q     
----------------------|----------------------|----------------------|
--1---------1---------|--1---------1---------|--1---------1---------|
-------2---------2----|-------2---------2----|-------2---------2----|
----------------------|----------------------|----------------------|
----------------------|----------------------|----------------------|
----------------------|--2-------------------|----------------------|


  Q    Q    Q    Q       Q    Q    Q    Q       Q    Q    Q    Q     
----------------------|----------------------|----------------------|
--1---------1---------|--1---------1---------|--3---------3---------|
-------2---------2----|-------2---------2----|-------0---------0----|
----------------------|----------------------|----------------------|
----------------------|----------------------|----------------------|
--1-------------------|----------------------|--3-------------------|


  Q    Q    Q    Q       Q    Q    Q    Q       Q    Q    Q    Q     
----------------------|----------------------|------------0---------|
--3---------3---------|--1---------1---------|--1---------1---------|
-------0---------0----|-------0---------0----|-------0---------0----|
----------------------|----------------------|----------------------|
----------------------|--3-------------------|----------------------|
----------------------|----------------------|----------------------|


  Q    Q    Q    Q       Q    Q    Q    Q       Q    Q    Q    Q     
----------------------|--0---------1---------|--0-------------------|
--3---------3---------|--3---------3---------|--1---------1---------|
-------0---------0----|-------0---------0----|-------0---------0----|
----------------------|----------------------|----------------------|
--2-------------------|----------------------|--3-------------------|
----------------------|----------------------|----------------------|


  Q    Q    Q    Q       Q    Q    Q    Q       Q    Q    Q    Q     
----------------------|----------------------|--3---------1---------|
--1---------1---------|--3---------3---------|--0---------0---------|
-------0---------0----|-------0---------0----|-------0---------0----|
----------------------|----------------------|----------------------|
----------------------|--2-------------------|----------------------|
----------------------|----------------------|----------------------|


  Q    Q    Q    Q       Q    Q    Q    Q       Q    Q    Q    Q     
--0-------------------|----------------------|----------------------|
--1---------1---------|--1---------1---------|--3---------3---------|
-------0---------0----|-------0---------0----|-------0---------0----|
----------------------|----------------------|----------------------|
--3-------------------|----------------------|--2-------------------|
----------------------|----------------------|----------------------|


  Q    Q    Q    Q       Q    Q    Q    Q       Q    Q    Q    Q     
----------------------|----------------------|----------------------|
-----------------0----|--1---------1---------|--1---------1---------|
------------0---------|-------2---------2----|-------2---------2----|
-------0--------------|----------------------|----------------------|
--2-------------------|--0-------------------|----------------------|
----------------------|----------------------|----------------------|


  Q    Q    Q    Q       Q    Q    Q    Q       Q    Q    Q    Q     
----------------------|----------------------|----------------------|
--1---------1---------|--1---------1---------|--1---------1---------|
-------2---------2----|-------2---------2----|-------2---------2----|
----------------------|----------------------|----------------------|
----------------------|----------------------|----------------------|
--3-------------------|----------------------|--2-------------------|


  Q    Q    Q    Q       Q    Q    Q    Q       Q    Q    Q    Q     
----------------------|----------------------|----------------------|
--1---------1---------|--1---------1---------|--1---------1---------|
-------2---------2----|-------2---------2----|-------2---------2----|
----------------------|----------------------|----------------------|
----------------------|----------------------|----------------------|
----------------------|--1-------------------|----------------------|


  Q    Q    Q    Q       Q    Q    Q    Q       Q    Q    Q    Q     
----------------------|----------------------|----------------------|
--3---------3---------|--3---------3---------|--1---------1---------|
-------0---------0----|-------0---------0----|-------0---------0----|
----------------------|----------------------|----------------------|
----------------------|----------------------|--3-------------------|
--3-------------------|----------------------|----------------------|


  Q    Q    Q    Q       Q    Q    Q    Q       Q    Q    Q    Q     
----------------------|----------------------|----------------------|
--1---------1---------|--1---------3---------|--1---------1---------|
-------0---------0----|-------0---------0----|-------2---------2----|
----------------------|----------------------|----------------------|
----------------------|--3---------2---------|--0-------------------|
----------------------|----------------------|----------------------|


  Q    Q    Q    Q       Q    Q    Q    Q       Q    Q    Q    Q     
----------------------|----------------------|----------------------|
--1---------1---------|--1---------1---------|--3---------3---------|
-------2---------2----|-------2---------2----|-------2---------2----|
----------------------|----------------------|--0-------------------|
----------------------|----------------------|----------------------|
--3-------------------|--2-------------------|----------------------|


  Q    Q    Q    Q       Q    Q    Q    Q       Q    Q    Q    Q     
----------------------|------------0---------|----------------------|
--0---------0---------|--3-------------------|--1---------1---------|
-------1---------1----|-------1---------1----|-------2---------2----|
----------------------|----------------------|----------------------|
----------------------|----------------------|--0-------------------|
--0-------------------|----------------------|----------------------|


  Q    Q    Q    Q       Q    Q    Q    Q       Q    Q    Q    Q     
----------------------|----------------------|----------------------|
--1---------1---------|--1---------1---------|--3---------3---------|
-------2---------2----|-------2---------2----|-------2---------2----|
----------------------|----------------------|--0-------------------|
----------------------|----------------------|----------------------|
--3-------------------|--2-------------------|----------------------|


  Q    Q    Q    Q       Q    Q    Q    Q       Q    Q    Q    Q     
----------------------|------------0---------|----------------------|
--0---------0---------|--3-------------------|--1---------1---------|
-------1---------1----|-------1---------1----|-------2---------2----|
----------------------|----------------------|----------------------|
----------------------|----------------------|--0-------------------|
--0-------------------|----------------------|----------------------|


  Q    Q    Q    Q       Q    Q    Q    Q       Q    Q    Q    Q     
----------------------|----------------------|----------------------|
--1---------1---------|--1---------1---------|--3---------3---------|
-------2---------2----|-------2---------2----|-------2---------2----|
----------------------|----------------------|--0-------------------|
----------------------|----------------------|----------------------|
--3-------------------|--2-------------------|----------------------|


  Q    Q    Q    Q       Q    Q    Q    Q       Q    Q    Q    Q     
----------------------|------------0---------|----------------------|
--0---------0---------|--3-------------------|--1---------1---------|
-------1---------1----|-------1---------1----|-------2---------2----|
----------------------|----------------------|----------------------|
----------------------|----------------------|--0-------------------|
--0-------------------|----------------------|----------------------|


  Q    Q    Q    Q       Q    Q    Q    Q       Q    Q    Q    Q     
----------------------|----------------------|----------------------|
--1---------1---------|--1---------1---------|--3---------3---------|
-------2---------2----|-------2---------2----|-------2---------2----|
----------------------|----------------------|--0-------------------|
----------------------|----------------------|----------------------|
--3-------------------|--2-------------------|----------------------|


  Q    Q    Q    Q       Q    Q    Q    Q       Q    Q    Q    Q     
----------------------|------------0---------|----------------------|
--0---------0---------|--3-------------------|--3---------3---------|
-------1---------1----|-------1---------1----|-------4---------4----|
----------------------|----------------------|----------------------|
----------------------|----------------------|--2-------------------|
--0-------------------|----------------------|----------------------|


  Q    Q    Q    Q       Q    Q    Q    Q       Q    Q    Q    Q     
----------------------|----------------------|----------------------|
--3---------3---------|--3---------3---------|--5---------5---------|
-------4---------4----|-------4---------4----|-------4---------4----|
----------------------|----------------------|--2-------------------|
--0-------------------|----------------------|----------------------|
----------------------|--4-------------------|----------------------|


  Q    Q    Q    Q       Q    Q    Q    Q       Q    Q    Q    Q     
----------------------|------------2---------|----------------------|
--2---------2---------|--5-------------------|--3---------3---------|
-------3---------3----|-------3---------3----|-------4---------4----|
----------------------|----------------------|----------------------|
----------------------|----------------------|--2-------------------|
--2-------------------|----------------------|----------------------|


  Q    Q    Q    Q       Q    Q    Q    Q       Q    Q    Q    Q     
----------------------|----------------------|----------------------|
--3---------3---------|--3---------3---------|--5---------5---------|
-------4---------4----|-------4---------4----|-------4---------4----|
----------------------|----------------------|--2-------------------|
--0-------------------|----------------------|----------------------|
----------------------|--4-------------------|----------------------|


  Q    Q    Q    Q       Q    Q    Q    Q       Q    Q    Q    Q     
----------------------|------------2---------|----------------------|
--2---------2---------|--5-------------------|--3---------3---------|
-------3---------3----|-------3---------3----|-------4---------4----|
----------------------|----------------------|----------------------|
----------------------|----------------------|--2-------------------|
--2-------------------|----------------------|----------------------|


  Q    Q    Q    Q       Q    Q    Q    Q       Q    Q    Q    Q     
----------------------|----------------------|----------------------|
--3---------3---------|--3---------3---------|--5---------5---------|
-------4---------4----|-------4---------4----|-------4---------4----|
----------------------|----------------------|--2-------------------|
--0-------------------|----------------------|----------------------|
----------------------|--4-------------------|----------------------|


  Q    Q    Q    Q       Q    Q    Q    Q       Q    Q    Q    Q     
----------------------|------------2---------|----------------------|
--2---------2---------|--5-------------------|--3---------3---------|
-------3---------3----|-------3---------3----|-------4---------4----|
----------------------|----------------------|----------------------|
----------------------|----------------------|--2-------------------|
--2-------------------|----------------------|----------------------|


  Q    Q    Q    Q       Q    Q    Q    Q       Q    Q    Q    Q     
----------------------|----------------------|----------------------|
--3---------3---------|--3---------3---------|--5---------5---------|
-------4---------4----|-------4---------4----|-------4---------4----|
----------------------|----------------------|--2-------------------|
--0-------------------|----------------------|----------------------|
----------------------|--4-------------------|----------------------|


  Q    Q    Q    Q       Q    Q    Q    Q       Q    Q    Q    Q     
----------------------|------------2---------|----------------------|
--2---------2---------|--5-------------------|--3---------3---------|
-------3---------3----|-------3---------3----|-------4---------4----|
----------------------|----------------------|----------------------|
----------------------|----------------------|--2-------------------|
--2-------------------|----------------------|----------------------|


  Q    Q    Q    Q       Q    Q    Q    Q       Q    Q    Q    Q     
----------------------|----------------------|----------------------|
--3---------3---------|--3---------3---------|--5---------5---------|
-------4---------4----|-------4---------4----|-------4---------4----|
----------------------|----------------------|--2-------------------|
--0-------------------|----------------------|----------------------|
----------------------|--4-------------------|----------------------|


  Q    Q    Q    Q       Q    Q    Q    Q       Q    Q    Q    Q     
----------------------|------------2---------|----------------------|
--2---------2---------|--5-------------------|--3---------3---------|
-------3---------3----|-------3---------3----|-------4---------4----|
----------------------|----------------------|----------------------|
----------------------|----------------------|--2-------------------|
--2-------------------|----------------------|----------------------|


  Q    Q    Q    Q       Q    Q    Q    Q       Q    Q    Q    Q     
----------------------|----------------------|----------------------|
--3---------3---------|--3---------3---------|--5---------5---------|
-------4---------4----|-------4---------4----|-------4---------4----|
----------------------|----------------------|--2-------------------|
--0-------------------|----------------------|----------------------|
----------------------|--4-------------------|----------------------|


  Q    Q    Q    Q       Q    Q    Q    Q       Q    Q    Q    Q     
----------------------|------------2---------|----------------------|
--2---------2---------|--5-------------------|--3---------3---------|
-------3---------3----|-------3---------3----|-------4---------4----|
----------------------|----------------------|----------------------|
----------------------|----------------------|--2-------------------|
--2-------------------|----------------------|----------------------|


  Q    Q    Q    Q       Q    Q    Q    Q       Q    Q    Q    Q     
----------------------|----------------------|----------------------|
--3---------3---------|--3---------3---------|--5---------5---------|
-------4---------4----|-------4---------4----|-------4---------4----|
----------------------|----------------------|--2-------------------|
--0-------------------|----------------------|----------------------|
----------------------|--4-------------------|----------------------|


  Q    Q    Q    Q       Q    Q    Q    Q      
----------------------|------------2---------||
--2---------2---------|--5-------------------||
-------3---------3----|-------3---------3----||
----------------------|----------------------||
----------------------|----------------------||
--2-------------------|----------------------||
comments
We did not receive enough feedback on this tab! Please rate:
1 2 3 4 5
I want to post or [tab]
guest
You may want to rate the tab now too:
select rating
Please do not post tabs as comments. Select "correction" instead!