Oops, an error
Loading. Please wait.

You Love Us Bass Tab

ver2
ver2

Whole song

Interactive

More versions @911Tabs.com
543 views 3 this week
no commentswrite comment
1 2 3 4 5
accurate
x 1
Autoscroll
+/-
esc
set tempo
stop
Contributor
Difficulty
novice
WARNING: You are trying to view
                                    content from Ultimate-Guitar.com
                                    in an unauthorized application,
                                    which is prohibited.

                                    Please use an official Ultimate
                                    Guitar Tabs application for iPhone,
                                    iPad or Android to access legitimate
                                    chords, guitar, bass, and drum tabs
                                    from Ultimate-Guitar.com database.

                                    Type "ultimate guitar tabs" in Apple
                                    App Store's or Android Market's
                                    search to find the application.
Manic Street Preachers - You Love Us

This is the Generation Terrorists version with the big solo at the end. The single 
is exactly the same but with the last 30 bars chopped off. James played bass on this one, 
is why its so easy.

     W                   E  E  E  E  E  E  E  E
G||-------------------|--------------------------|
D||-------------------|--------------------------|
A||-------------------|--------------------------|
E||-------------------|--3--3--3--3--3--3--3--3--|


  E  E  E  E  E  E  E  E     E  E  E  E  E  E  E  E
--------------------------|--------------------------|
--------------------------|--------------------------|
--------------------------|--------------------------|
--3--3--3--3--3--3--3--3--|--3--3--3--3--3--3--3--3--|


  E  E  E  E  E  E  E  E     Q    Q    E  E  E  E
--------------------------|------------------------|
--------------------------|------------------------|
--------------------------|---------------3--3-----|
--3--3--3--3--3--3--3--3--|--1----1----1--------3--|


  E  E  E  E  E  E  E  E     Q    Q    E  E  E  E
--------------------------|------------------------|
--------------------------|--3----3----3-----------|
--------------------------|---------------3--3-----|
--L--3--3--3--3--3--3--3--|---------------------3--|


  E  E  E  E  E  E  E  E     Q    Q    E  E  E  E
--------------------------|------------------------|
--------------------------|------------------------|
--------------------------|---------------3--3-----|
--L--3--3--3--3--3--3--3--|--1----1----1--------3--|


  E  E  E  E  E  E  E  E     Q    Q    E  E  E  E
--------------------------|------------------------|
--------------------------|--3----3----3-----------|
--------------------------|---------------3--3-----|
--L--3--3--3--3--3--3--3--|---------------------3--|


  E  E  E  E  E  E  E  E     Q    Q    E  E  E  E
--------------------------|------------------------|
--------------------------|------------------------|
--------------------------|---------------3--3-----|
--L--3--3--3--3--3--3--3--|--1----1----1--------3--|


  E  E  E  E  E  E  E  E     Q    Q    E  E  E  E
--------------------------|------------------------|
--------------------------|--3----3----3-----------|
--------------------------|---------------3--3-----|
--L--3--3--3--3--3--3--3--|---------------------3--|


  E  E  E  E  E  E  E  E     Q    Q    E  E  E  E
--------------------------|------------------------|
--------------------------|------------------------|
--------------------------|--5----5----5--2--2--3--|
--L--3--3--3--3--3--3--3--|------------------------|


  E  E  E  E  E  E  E  E     Q    Q    E  E  E  E
--------------------------|------------------------|
--------------------------|------------------------|
--L--3--3--3--3--3--3--3--|--5----5----5--2--2--3--|
--------------------------|------------------------|


  E  E  E  E  E  E  E  E     Q    Q    E  E  E  E
--------------------------|------------------------|
--------------------------|------------------------|
--L--3--3--3--3--3--3--3--|--5----5----5--2--2--3--|
--------------------------|------------------------|


  E  E  E  E  E  E  E  E     Q    Q    E  E  E  E
--------------------------|------------------------|
--------------------------|------------------------|
--L--3--3--3--3--3--3--3--|--5----5----5--2--2--3--|
--------------------------|------------------------|


  E  E  E  E  E  E  E  E     E  E  E  E  E  E  E  E
--------------------------|--------------------------|
--------------------------|--------------------------|
--L--3--3--3--3--3--3--3--|--3--3--3--3--3--3--3--3--|
--------------------------|--------------------------|


  E  E  E  E  E  E  E  E     E  E  E  E  E  E  E  E
--------------------------|--------------------------|
--------------------------|--------------------------|
--------------------------|--------------------------|
--3--3--3--3--3--3--3--3--|--3--3--3--3--3--3--3--3--|


  E  E  E  E  E  E  E  E     E  E  E  E  E  E  E  E
--------------------------|--------------------------|
--------------------------|--------------------------|
--5--5--5--5--5--5--5--5--|--5--5--5--5--5--5--5--5--|
--------------------------|--------------------------|


  E  E  E  E  E  E  E  E     E  E  E  E  E  E  E  E
--------------------------|--------------------------|
--------------------------|--------------------------|
--3--3--3--3--3--3--3--3--|--3--3--3--3--3--3--3--3--|
--------------------------|--------------------------|


  E  E  E  E  E  E  E  E     E  E  E  E  E  E  E  E
--------------------------|--------------------------|
--------------------------|--------------------------|
--3--3--3--3--3--3--3--3--|--3--3--3--3--3--3--3--3--|
--------------------------|--------------------------|


  E  E  E  E  E  E  E  E     E  E  E  E  E  E  E  E
--------------------------|--------------------------|
--------------------------|--------------------------|
--------------------------|--------------------------|
--3--3--3--3--3--3--3--3--|--3--3--3--3--3--3--3--3--|


  E  E  E  E  E  E  E  E     E  E  E  E  E  E  E  E
--------------------------|--------------------------|
--------------------------|--------------------------|
--5--5--5--5--5--5--5--5--|--5--5--5--5--5--5--5--5--|
--------------------------|--------------------------|


  E  E  E  E  E  E  E  E     E  E  E  E  E  E  E  E
--------------------------|--------------------------|
--------------------------|--------------------------|
--3--3--3--3--3--3--3--3--|--3--3--3--3--3--3--3--3--|
--------------------------|--------------------------|


  E  E  E  E  E  E  E  E     E  E  E  E  E  E  E  E
--------------------------|--------------------------|
--------------------------|--------------------------|
--3--3--3--3--3--3--3--3--|--3--3--3--3--3--3--3--3--|
--------------------------|--------------------------|


  Q    Q    E  E  E  E     E  E  E  E  E  E  E  E
------------------------|--------------------------|
------------------------|--------------------------|
---------------3--3-----|--------------------------|
--1----1----1--------3--|--L--3--3--3--3--3--3--3--|


  Q    Q    E  E  E  E     E  E  E  E  E  E  E  E
------------------------|--------------------------|
--3----3----3-----------|--------------------------|
---------------3--3-----|--------------------------|
---------------------3--|--L--3--3--3--3--3--3--3--|


  Q    Q    E  E  E  E     E  E  E  E  E  E  E  E
------------------------|--------------------------|
------------------------|--------------------------|
---------------3--3-----|--------------------------|
--1----1----1--------3--|--L--3--3--3--3--3--3--3--|


  Q    Q    E  E  E  E     E  E  E  E  E  E  E  E
------------------------|--------------------------|
--3----3----3-----------|--------------------------|
---------------3--3-----|--------------------------|
---------------------3--|--L--3--3--3--3--3--3--3--|


  Q    Q    E  E  E  E     E  E  E  E  E  E  E  E
------------------------|--------------------------|
------------------------|--------------------------|
---------------3--3-----|--------------------------|
--1----1----1--------3--|--L--3--3--3--3--3--3--3--|


  Q    Q    E  E  E  E     E  E  E  E  E  E  E  E
------------------------|--------------------------|
--3----3----3-----------|--------------------------|
---------------3--3-----|--------------------------|
---------------------3--|--L--3--3--3--3--3--3--3--|


  Q    Q    E  E  E  E     E  E  E  E  E  E  E  E
------------------------|--------------------------|
------------------------|--------------------------|
--5----5----5--2--2--3--|--L--3--3--3--3--3--3--3--|
------------------------|--------------------------|


  Q    Q    E  E  E  E     E  E  E  E  E  E  E  E
------------------------|--------------------------|
------------------------|--------------------------|
--5----5----5--2--2--3--|--L--3--3--3--3--3--3--3--|
------------------------|--------------------------|


  Q    Q    E  E  E  E     E  E  E  E  E  E  E  E
------------------------|--------------------------|
------------------------|--------------------------|
--5----5----5--2--2--3--|--L--3--3--3--3--3--3--3--|
------------------------|--------------------------|


  Q    Q    E  E  E  E     E  E  E  E  E  E  E  E
------------------------|--------------------------|
------------------------|--------------------------|
--5----5----5--2--2--3--|--L--3--3--3--3--3--3--3--|
------------------------|--------------------------|


  E  E  E  E  E  E  E  E     E  E  E  E  E  E  E  E
--------------------------|--------------------------|
--------------------------|--------------------------|
--3--3--3--3--3--3--3--3--|--------------------------|
--------------------------|--3--3--3--3--3--3--3--3--|


  E  E  E  E  E  E  E  E     E  E  E  E  E  E  E  E
--------------------------|--------------------------|
--------------------------|--------------------------|
--------------------------|--5--5--5--5--5--5--5--5--|
--3--3--3--3--3--3--3--3--|--------------------------|


  E  E  E  E  E  E  E  E     E  E  E  E  E  E  E  E
--------------------------|--------------------------|
--------------------------|--------------------------|
--5--5--5--5--5--5--5--5--|--3--3--3--3--3--3--3--3--|
--------------------------|--------------------------|


  E  E  E  E  E  E  E  E     E  E  E  E  E  E  E  E
--------------------------|--------------------------|
--------------------------|--------------------------|
--3--3--3--3--3--3--3--3--|--3--3--3--3--3--3--3--3--|
--------------------------|--------------------------|


  E  E  E  E  E  E  E  E     E  E  E  E  E  E  E  E
--------------------------|--------------------------|
--------------------------|--------------------------|
--3--3--3--3--3--3--3--3--|--------------------------|
--------------------------|--3--3--3--3--3--3--3--3--|


  E  E  E  E  E  E  E  E     E  E  E  E  E  E  E  E
--------------------------|--------------------------|
--------------------------|--------------------------|
--------------------------|--5--5--5--5--5--5--5--5--|
--3--3--3--3--3--3--3--3--|--------------------------|


  E  E  E  E  E  E  E  E     E  E  E  E  E  E  E  E
--------------------------|--------------------------|
--------------------------|--------------------------|
--5--5--5--5--5--5--5--5--|--3--3--3--3--3--3--3--3--|
--------------------------|--------------------------|


  E  E  E  E  E  E  E  E     E  E  E  E  E  E  E  E
--------------------------|--------------------------|
--------------------------|--------------------------|
--3--3--3--3--3--3--3--3--|--3--3--3--3--3--3--3--3--|
--------------------------|--------------------------|


  E  E  E  E  E  E  E  E     E  E  E  E  E  E  E  E
--------------------------|--------------------------|
--------------------------|--------------------------|
--3--3--3--3--3--3--3--3--|--------------------------|
--------------------------|--3--3--3--3--3--3--3--3--|


  E  E  E  E  E  E  E  E     E  E  E  E  E  E  E  E
--------------------------|--------------------------|
--------------------------|--------------------------|
--------------------------|--------------------------|
--3--3--3--3--3--3--3--3--|--6--6--6--6--6--6--6--6--|


  E  E  E  E  E  E  E  E     E  E  E  E  E  E  E  E
--------------------------|--------------------------|
--------------------------|--------------------------|
--------------------------|--3--3--3--3--3--3--3--3--|
--6--6--6--6--6--6--6--6--|--------------------------|


  E  E  E  E  E  E  E  E     E  E  E  E  E  E  E  E
--------------------------|--------------------------|
--------------------------|--------------------------|
--3--3--3--3--3--3--3--3--|--6--6--6--6--6--6--6--6--|
--------------------------|--------------------------|


  E  E  E  E  E  E  E  E     E  E  E  E  E  E  E  E
--------------------------|--------------------------|
--------------------------|--------------------------|
--6--6--6--6--6--6--6--6--|--------------------------|
--------------------------|--3--3--3--3--3--3--3--3--|


  E  E  E  E  E  E  E  E     E  E  E  E  E  E  E  E
--------------------------|--------------------------|
--------------------------|--------------------------|
--------------------------|--------------------------|
--3--3--3--3--3--3--3--3--|--6--6--6--6--6--6--6--6--|


  E  E  E  E  E  E  E  E     E  E  E  E  E  E  E  E
--------------------------|--------------------------|
--------------------------|--------------------------|
--------------------------|--3--3--3--3--3--3--3--3--|
--6--6--6--6--6--6--6--6--|--------------------------|


  E  E  E  E  E  E  E  E     E  E  E  E  E  E  E  E
--------------------------|--------------------------|
--------------------------|--------------------------|
--3--3--3--3--3--3--3--3--|--6--6--6--6--6--6--6--6--|
--------------------------|--------------------------|


  W                   W
-------------------|-------------------|
-------------------|-------------------|
-------------------|-------------------|
--3----------------|--L----------------|


  E  E  E  E  E  E  E  E     E  E  E  E  E  E  E  E
--------------------------|--------------------------|
--------------------------|--------------------------|
--------------------------|--------------------------|
--3--3--3--3--3--3--3--3--|--3--3--3--3--3--3--3--3--|


  E  E  E  E  E  E  E  E     E  E  E  E  E  E  E  E
--------------------------|--------------------------|
--------------------------|--------------------------|
--5--5--5--5--5--5--5--5--|--5--5--5--5--5--5--5--5--|
--------------------------|--------------------------|


  E  E  E  E  E  E  E  E     E  E  E  E  E  E  E  E
--------------------------|--------------------------|
--------------------------|--------------------------|
--3--3--3--3--3--3--3--3--|--3--3--3--3--3--3--3--3--|
--------------------------|--------------------------|


  E  E  E  E  E  E  E  E     E  E  E  E  E  E  E  E
--------------------------|--------------------------|
--------------------------|--------------------------|
--3--3--3--3--3--3--3--3--|--3--3--3--3--3--3--3--3--|
--------------------------|--------------------------|


  E  E  E  E  E  E  E  E     E  E  E  E  E  E  E  E
--------------------------|--------------------------|
--------------------------|--------------------------|
--------------------------|--------------------------|
--3--3--3--3--3--3--3--3--|--3--3--3--3--3--3--3--3--|


  E  E  E  E  E  E  E  E     E  E  E  E  E  E  E  E
--------------------------|--------------------------|
--------------------------|--------------------------|
--5--5--5--5--5--5--5--5--|--5--5--5--5--5--5--5--5--|
--------------------------|--------------------------|


  E  E  E  E  E  E  E  E     E  E  E  E  E  E  E  E
--------------------------|--------------------------|
--------------------------|--------------------------|
--3--3--3--3--3--3--3--3--|--3--3--3--3--3--3--3--3--|
--------------------------|--------------------------|


  E  E  E  E  E  E  E  E     E  E  E  E  E  E  E  E
--------------------------|--------------------------|
--------------------------|--------------------------|
--3--3--3--3--3--3--3--3--|--3--3--3--3--3--3--3--3--|
--------------------------|--------------------------|


  Q    Q    E  E  E  E     E  E  E  E  E  E  E  E
------------------------|--------------------------|
------------------------|--------------------------|
---------------3--3-----|--------------------------|
--1----1----1--------3--|--L--3--3--3--3--3--3--3--|


  Q    Q    E  E  E  E     E  E  E  E  E  E  E  E
------------------------|--------------------------|
--3----3----3-----------|--------------------------|
---------------3--3-----|--------------------------|
---------------------3--|--L--3--3--3--3--3--3--3--|


  Q    Q    E  E  E  E     E  E  E  E  E  E  E  E
------------------------|--------------------------|
------------------------|--------------------------|
---------------3--3-----|--------------------------|
--1----1----1--------3--|--L--3--3--3--3--3--3--3--|


  Q    Q    E  E  E  E     E  E  H.
------------------------|---------------------|
--3----3----3-----------|---------------------|
---------------3--3-----|---------------------|
---------------------3--|--L------------------|

SINGLE VERSION ENDS HERE

  W                   W
-------------------|-------------------|
-------------------|-------------------|
-------------------|-------------------|
-------------------|-------------------|


  W                   W
-------------------|-------------------|
-------------------|-------------------|
-------------------|-------------------|
-------------------|-------------------|


  W                   E  E  E  S S S S E  S S E
-------------------|-----------------------------|
-------------------|-----------------------------|
-------------------|-----------------------------|
-------------------|--3--3--3--3-1-L-1-1--1-1-1--|


  E  E  E  S S S S E  E  S S
-----------------------------|
-----------------------------|
-----------------------------|
--1--3--3--1-1-L-3-3--3--3-3-|


  E  E  E  S S S S E  S S E
-----------------------------|
-----------------------------|
-----------------------------|
--3--3--3--3-1-L-1-1--1-1-1--|


  E  E  E  S S S S E  E  S S
-----------------------------|
-----------------------------|
-----------------------------|
--1--3--3--1-1-L-3-3--3--3-3-|


  E  E  E  S S S S E  S S E
-----------------------------|
-----------------------------|
-----------------------------|
--3--3--3--3-1-L-1-1--1-1-1--|


  E  E  E  S S S S E  E  S S
-----------------------------|
-----------------------------|
-----------------------------|
--1--3--3--1-1-L-3-3--3--3-3-|


  E  E  E  S S S S E  S S E
-----------------------------|
-----------------------------|
-----------------------------|
--3--3--3--3-1-L-1-1--1-1-1--|


  E  E  E  S S S S E  E  S S
-----------------------------|
-----------------------------|
-----------------------------|
--1--3--3--1-1-L-3-3--3--3-3-|


  E  E  E  S S S S E  S S E
-----------------------------|
-----------------------------|
--3--3--3--3-----------------|
-------------1-L-1-1--1-1-1--|


  E  E  E  S S S S E  E  S S
-----------------------------|
-----------------------------|
-----------------------------|
--1--3--3--1-1-L-3-3--3--3-3-|


  E  E  E  S S S S E  S S E
-----------------------------|
-----------------------------|
--3--3--3--3-----------------|
-------------1-L-1-1--1-1-1--|


  E  E  E  S S S S E  E  S S
-----------------------------|
-----------------------------|
-----------------------------|
--1--3--3--1-1-L-3-3--3--3-3-|


  E  E  E  E  E  E  E  E
--------------------------|
--------------------------|
--3--3--3--3--1--1--------|
--------------------1--1--|


  E  E  E  S S S S E  E  S S
-----------------------------|
-----------------------------|
-----------------------------|
--1--3--3--1-1-L-3-3--3--3-3-|


  E  E  E  E  E  E  E  E
--------------------------|
--------------------------|
--3--3--3--3--1--1--------|
--------------------1--1--|


  E  E  E  S S S S E  E  S S
-----------------------------|
-----------------------------|
-----------------------------|
--1--3--3--1-1-L-3-3--3--3-3-|


  E  E  E  E  E  E  E  E
--------------------------|
--------------------------|
--3--3--3--3--1--1--------|
--------------------1--1--|


  E  E  E  S S S S E  E  S S
-----------------------------|
-----------------------------|
-----------------------------|
--1--3--3--1-1-L-3-3--3--3-3-|


  E  E  E  E  E  E  E  E
--------------------------|
--------------------------|
--3--3--3--3--1--1--------|
--------------------1--1--|


  E  E  E  S S S S E  E  S S    Q.     S S Q.     S S
-----------------------------|------------------------|
-----------------------------|------------------------|
-----------------------------|--3------L-3-L------L-1-|
--1--3--3--1-1-L-3-3--3--3-3-|------------------------|


  H        H           W
--------------------|-------------------|
--------------------|-------------------|
--L-----------------|-------------------|
-----------1--------|--3----------------|


  W                   H        Q    Q
-------------------|---------------------||
-------------------|---------------------||
-------------------|---------------------||
--L----------------|--L--------3---------||


Duration Legend
---------------
W - whole
H - half
Q - quarter
E - 8th
S - 16th
T - 32nd
X - 64th
. - note dotted
|-n-|  - n-tuplets

NB: L - Tied note
comments
We did not receive enough feedback on this tab! Please rate:
print report bad tab
1 2 3 4 5
I want to post or [tab]
guest
You may want to rate the tab now too:
select rating
Please do not post tabs as comments. Select "correction" instead!