Oops, an error
Loading. Please wait.

Achilles Agony And Ecstasy In Eight Parts Tab

ver1
ver1

Whole song

Interactive

More versions @911Tabs.com
2,618 views 3 this week
2 commentsread comments
1 2 3 4 5
excellent!
x 1
add to favorites launch autoscroll
font size
0
reset
Autoscroll
+/-
esc
set tempo
stop
Contributor
WARNING: You are trying to view
                                    content from Ultimate-Guitar.com
                                    in an unauthorized application,
                                    which is prohibited.

                                    Please use an official Ultimate
                                    Guitar Tabs application for iPhone,
                                    iPad or Android to access legitimate
                                    chords, guitar, bass, and drum tabs
                                    from Ultimate-Guitar.com database.

                                    Type "ultimate guitar tabs" in Apple
                                    App Store's or Android Market's
                                    search to find the application.
#----------------------------------PLEASE NOTE---------------------------------#
#This file is the author's own work and represents their interpretation of the #
#song. You may only use this file for private study, scholarship, or research. #
#------------------------------------------------------------------------------#

ACHILLES, AGONY AND ECSTASY IN EIGHT PARTS
As recorded by Manowar
(From the 1992 Album TRIUMPH OF STEEL)

Transcribed by sergio miguelez(elmomias@hotmail.com)
	

Words and Music by Joey DeMaio

G
3 5 5 4 3 3
	
Cm
x 3 5 5 4 3
	
Bb
6 8 8 7 6 6
	
Eb
x 6 8 8 8 6

F
x 8 10 10 10 8
	
GX
x 10 12 12 12 10
	
Ab
4 6 6 5 4 4
	
A
5 7 7 6 5 5

Bm
x 2 4 4 3 2
	
F#5
2 4 4 x x x
	
G5
3 5 5 x x x
	
E5
0 2 2 x x x

B5
x 2 4 4 x x
	
A5
x 0 2 2 x x
	
D5/A
x 0 0 x x x
	
B5/F#
2 2 x x x x

C5
x 3 5 5 x x
	
E5VII
x 7 9 9 x x
	
D5
x 5 7 7 x x

Gtr I (E A D G B E) - 'dist'
Gtr II (E A D G B E) - 'disto'
Gtr III (E A D G B E) - 'dist'
Gtr IV (E A D G B E) - 'dist'
Gtr V (E A D G B E) - 'órgano'
Gtr VI (E A D G B E) - 'coros'

 Prelude
  Moderately Fast Rock Q=95
                  D
 4/4
  Gtrs I, II
                     |-3-|
  H    Q  E E     Q  E E E Q  Q    H       E E E E   Q  Q  Q  Q
|-------------||-----------------|-----------------|--------------|
|-------------||o----------------|-----------------|--------------|
|-------------||-----------------|-----------------|--------------|
|---------4-5-||--7--7-7-7-7--5--|-4tr5----4---4-5-|-7--5--4------|
|-------------||o----------------|-----------------|----------5---|
|-------------||-----------------|-----------------|--------------|


  1.               2.                          1.
  E                E               D                 E
  H    E E E E     H    E Q.       H    Q  Q    H    E Q.     Q  Q  Q  Q
|---------------||-------------||-------------|-------------|-------------|
|--------------o||-------------||o------------|-------------|-------------|
|---------------||-------------||-------------|-------------|-------------|
|----------4-5--||-------------||--7----5--4--|-------------|-4--5--4-----|
|-7----7-------o||-7----7------||o------------|-5----7------|----------5--|
|---------------||-------------||-------------|-------------|-------------|


                  2.                                    H.=H
  E
  H    E Q.       H    E E E E     Q     Q  E E E E  3x Q     Q  H
|--------------||--------------||--------------------||---------------||
|-------------o||--------------||o------------------o||---------------||
|--------------||--------------||--------------------||---------------||
|--------------||----------4-5-||--4tr5---------4-5--||-4tr5-----5----||
|-7----7------o||-5----7-------||o-------5--7-------o||-------5--3----||
|--------------||--------------||--------------------||---------------||


   I. Hector Storms the Wall
    Q=120
          E5
    Gtr I
    PM--|   PM------|   PM---
    E S S E S S E S S E S S
||--------------------------|
||o-------------------------|
||--------------------------|
||--------9-----------9-----|
||o-------7-----------7-----|
||--0-0-0---0-0-0-0-0---0-0-|


                            C5   D5     B5
 -----|   PM------|   PM|
  E S S E S S E S S E S S   H    H      H..       E  4x
|-------------------------|-----------|--------------||
|-------------------------|-----------|-------------o||
|-------------------------|-----------|--------------||
|-------9-----------9-----|-5----7----|-4---------9--||
|-------7-----------7-----|-3----5----|-2---------7-o||
|-0-0-0---0-0-0-0-0---0-0-|-----------|--------------||


              Verse
                                                                   1.,2.,3.
    $
          E5                                            C5   D5     B5
    PM--|   PM------|   PM--------|   PM------|   PM|
    E S S E S S E S S E S S   E S S E S S E S S E S S   H    H      W     4x
||--------------------------|-------------------------|-----------|-------||
||o-------------------------|-------------------------|-----------|------o||
||--------------------------|-------------------------|-----------|-------||
||--------9-----------9-----|-------9-----------9-----|-5----7----|-4-----||
||o-------7-----------7-----|-------7-----------7-----|-3----5----|-2----o||
||--0-0-0---0-0-0-0-0---0-0-|-0-0-0---0-0-0-0-0---0-0-|-----------|-------||


  4.
  E5             A5B5    A5    G5       G5/DD5/E5
                 |-3-| |-3-| |-3-|
  H    Q  Q      E E E E E E E E E Q     Q  Q  Q  E E  4x
|------------||-----------------------|----------------||
|------------||o----------------------|---------------o||
|------------||-----------------------|----------------||
|-9----9-----||-----------------------|-12--7--9--9----||
|-7----7-----||o-7-9-9-9-7-7-7-5-5-5--|-10--5--7--7---o||
|------------||--5-7-7-7-5-5-5-3-3-3--|-10--5--0--0----||


 II.The dead of Praticius
D.S.
  G  Cm        G  Cm        G  Cm G  Cm   Bb Eb Bb Eb
  Gtr V
  Q  Q  H      Q  H.        Q  Q  Q  Q    Q  Q  Q  Q
  |  |  |      |  |         |  |  |  |    |  |  |  |
  /  /  /      /  /         /  /  /  /    /  /  /  /

  Gtr I
  Q  Q  H      Q  H.        Q  Q  Q  Q    Q  Q  Q  Q
|------------|------------|-------------|-------------|
|------------|------------|-------------|-------------|
|------------|------------|-------------|-------------|
|----5--5----|----5-------|----5-----5--|----8-----8--|
|-5--3--3----|-5--3-------|-5--3--5--3--|-8--6--8--6--|
|-3----------|-3----------|-3-----3-----|-6-----6-----|


                                   H.=H    Slower Q=80
  Ab Bb                                      Eb         F           GX
  Q  H    E E   E E H    E E   E E H.        W           W           W
  |  |    |       | |    |       | |         |           |           |
  /  /    /       / /    /       / /         /           /           /

                                                                     >
  Q  H    E E   E E H    E E   E E H.        W           W           W
|-------------|--------------|-------------|----------|-----------|-------|
|-------------|--------------|-------------|----------|-----------|-------|
|-------------|--------------|-------------|----------|-----------|-------|
|-------------|--------------|-------------|-8--------|-10--------|-12----|
|-6--8----8---|---8-8----8---|---8-8-------|-6--------|--8--------|-10----|
|-4--6----6---|---6-6----6---|---6-6-------|----------|-----------|-------|


                                    Verse
  H.=H      Q=60
  GX          G  D/FEm D     G          Bm
  +W          W              W          W
   |
   /

              Gtr V
   W          Q  Q  Q  Q     W          H.      E E
|-----------|-3--2--0-----||----------|---------3-5-|
|-----------|-3--3--0--3--||----------|-3-----------|
|-----------|-4--2--0--2--||-4--------|-4-----------|
|-----------|-5--4--2--4--||-5--------|-4-----------|
|-----------|----------5--||-5--------|-2-----------|
|-----------|-------------||-3--------|-------------|


  G5/D       Bm            G5/D       Bm               Em
  W          H    Q  E E   W          Q   Q   Q   Q     W
|-3--------|---------5-2-|-3--------|------------14--|-12----|
|-3--------|-3----3------|-3--------|-3------15------|--0----|
|-0--------|-4-----------|-0--------|-4--16----------|--0----|
|-0--------|-4-----------|-0--------|-4--------------|-14----|
|----------|-2-----------|----------|-2--------------|-------|
|----------|-------------|----------|----------------|-------|


                     Chorus
  D5/A         Bm   G      A    Bm     Bm   G      A    Bm
               Gtr VI
   W           H    H      H    H      H    H      H    H
|-10--------||-----------|-----------|-----------|-----------|
|-10--------||-----------|-----------|-----------|-----------|
|-11--------||-----------|-----------|-----------|-----------|
|-12--------||-4----0----|-2----4----|-9----5----|-7----9----|
|--0--------||-5----2----|-4----5----|-5----2----|-4----5----|
|-----------||-7----3----|-5----7----|-7----3----|-5----7----|


  G    Bm/F#  D/A  Bm/F#  Em/G G5/D   D5
  Gtr V
  H    H      H    H      H    H      W
|-3---------|-2---------|-0---------|------|
|-0----3----|-3----3----|-0----3----|-3----|
|-0----4----|-2----4----|-0----0----|-2----|
|------4----|------4----|------0----|-0----|
|-----------|-----------|-----------|------|
|-----------|-----------|-----------|------|


  Wx3
|--------|
|--------|
|--------|
|--------|
|--------|
|--------|


 III. Funeral March
  Q=85
  Gtr I
                     ~~                ~~
  H    Q    E  E     Q.    E  Q   Q    Q.    E  Q   Q
|----------------||------------------|------------------|
|----------------||o-----------------|------------------|
|----------------||--------------11--|-9----------------|
|---------/12-11-||--9----11-12------|------11----------|
|----------------||o-----------------|---------12--(9)--|
|----------------||------------------|------------------|


 1.
    ~~~~               ~~
    Q.    E  Q   Q     H    Q    E  E
|---------------14--|-17-----------------||
|-/12----14-15------|-------------------o||
|-------------------|--------------------||
|-------------------|----------/12-11----||
|-------------------|-------------------o||
|-------------------|--------------------||


  2.
    ~~~               ~~~                ~~~
    Q   Q   Q   Q     H     Q    E  E    Q.    E  Q   Q
|--------------17--|-19---------------|------------------|
|-/12--15--14------|------------------|------------------|
|--------------14--|-16---------------|--------------11--|
|------------------|-----------/12-11-|--9----11-12------|
|------------------|------------------|------------------|
|------------------|------------------|------------------|
|
|                    Gtr II
|                                        ~~~
|   W                 H.         E  E    Q.    E  Q   Q
|------------------|------------------|--------------19--|
|------------------|-----------/20-19-|-17----19-20------|
|------------------|------------------|------------------|
|------------------|------------------|------------------|
|------------------|------------------|------------------|
|------------------|------------------|------------------|
|
|                    Gtr III
|                                        ~~~
|   W                 H.         E  E    Q.    E  Q   Q
|------------------|------------------|------------------|
|------------------|------------------|------------------|
|------------------|------------------|------------------|
|------------------|------------------|---------------9--|
|------------------|-----------/10--9-|--7-----9-10------|
|------------------|------------------|------------------|


   ~~~                  ~~~~               ~~
   Q.    E  Q   Q       Q.    E  Q   Q     H    Q    E  E
|-------------------|---------------14--|-17---------------|
|-------------------|-/12----14-15------|------------------|
|--9----------------|-------------------|------------------|
|-------11----------|-------------------|----------/12-11--|
|----------12--(9)--|-------------------|------------------|
|-------------------|-------------------|------------------|
|
|  ~~~                  ~~~~               ~~
|  Q.    E  Q   Q       Q.    E  Q   Q     H    Q    E  E
|-17----------------|---------------19--|-22---------------|
|-------19----------|-/17----19-20------|----------/20-19--|
|----------19--16---|-------------------|------------------|
|-------------------|-------------------|------------------|
|-------------------|-------------------|------------------|
|-------------------|-------------------|------------------|
|
|  ~~~                  ~~~~               ~~
|  Q.    E  Q   Q       Q.    E  Q   Q     H    Q    E  E
|-------------------|-------------------|------------------|
|-------------------|-------------------|------------------|
|-------------------|-------------------|------------------|
|--7----------------|----------------9--|-12---------------|
|--------9----------|--/7-----9-10------|----------/10--9--|
|----------10---7---|-------------------|------------------|


                                                                      G5  F#5
  Gtr IV
   W                  W                    W                 H.         E  E
                                                                        |  |
                                                                        /  /

   ~~~                ~~~                  ~~~               ~~~
   Q.    E  Q   Q     Q.    E  Q   Q       Q   Q   Q   Q     H     Q    E  E
|------------------|-------------------|--------------17--|-19----------------|
|------------------|-------------------|-/12--15--14------|-------------------|
|--------------11--|--9----------------|------------------|-------------------|
|--9----11-12------|-------11----------|------------------|-----------/12-11--|
|------------------|----------12--(9)--|------------------|-------------------|
|------------------|-------------------|------------------|-------------------|
|
|  ~~~                ~~~                                    ~~~
|  Q.    E  Q   Q     Q.    E  Q   Q       Q   Q   Q   Q     H     Q    E  E
|--------------19--|-17----------------|--------------22--|-24----------------|
|-17----19-20------|-------19----------|-/17--20--19------|-----------/20-19--|
|------------------|----------19--16---|------------------|-------------------|
|------------------|-------------------|------------------|-------------------|
|------------------|-------------------|------------------|-------------------|
|------------------|-------------------|------------------|-------------------|
|
|  ~~~                ~~~                                    ~~~
|  Q.    E  Q   Q     Q.    E  Q   Q       Q   Q   Q   Q     H     Q    E  E
|------------------|-------------------|------------------|-------------------|
|------------------|-------------------|------------------|-------------------|
|------------------|-------------------|------------------|-------------------|
|---------------9--|--7----------------|------------------|-------------------|
|--7-----9-10------|--------9----------|--/7--10---9------|--7--------/10--9--|
|------------------|----------10---7---|--------------10--|-------------------|


    E5    F#5G5  B5    A5    F#5D5/AB5/F#  E5     F#5G5  B5/F# D5/A     G5  F#5
     Q.    E  Q   Q     Q.    E  Q   Q       Q.    E  Q   Q     H    Q    E  E
     |     |  |   |     |     |  |   |       |     |  |   |     |         |  |
     /     /  /   /     /     /  /   /       /     /  /   /     /         /  /

     ~~~                ~~~                  ~~~~               ~~
     Q.    E  Q   Q     Q.    E  Q   Q       Q.    E  Q   Q     H    Q    E  E
||-------------------|-------------------|---------------14--|-17--------------|
||o------------------|-------------------|-/12----14-15------|-----------------|
||---------------11--|--9----------------|-------------------|-----------------|
||---9----11-12------|-------11----------|-------------------|----------/12-11-|
||o------------------|----------12--(9)--|-------------------|-----------------|
||-------------------|-------------------|-------------------|-----------------|
|
|    ~~~                ~~~                  ~~~~               ~~
|    Q.    E  Q   Q     Q.    E  Q   Q       Q.    E  Q   Q     H    Q    E  E
||---------------19--|-17----------------|---------------19--|-22--------------|
||o-17----19-20------|-------19----------|-/17----19-20------|----------/20-19-|
||-------------------|----------19--16---|-------------------|-----------------|
||-------------------|-------------------|-------------------|-----------------|
||o------------------|-------------------|-------------------|-----------------|
||-------------------|-------------------|-------------------|-----------------|
|
|    ~~~                ~~~                  ~~~~               ~~
|    Q.    E  Q   Q     Q.    E  Q   Q       Q.    E  Q   Q     H    Q    E  E
||-------------------|-------------------|-------------------|-----------------|
||o------------------|-------------------|-------------------|-----------------|
||-------------------|-------------------|-------------------|-----------------|
||----------------9--|--7----------------|----------------9--|-12--------------|
||o--7-----9-10------|--------9----------|--/7-----9-10------|----------/10--9-|
||-------------------|----------10---7---|-------------------|-----------------|


                                                           1.,2.,3.
  E5    F#5G5  B5    A5    F#5D5/AB5/F#  E5   G5  F#5 D5    E5VII    G5  F#5
   Q.    E  Q   Q     Q.    E  Q   Q       Q   Q   Q   Q     H    Q    E  E
   |     |  |   |     |     |  |   |       |   |   |   |     |         |  |
   /     /  /   /     /     /  /   /       /   /   /   /     /         /  /

   ~~~                ~~~                  ~~~               ~~
   Q.    E  Q   Q     Q.    E  Q   Q       Q   Q   Q   Q     H    Q    E  E   4x
|------------------|-------------------|--------------17--|-19----------------||
|------------------|-------------------|-/12--15--14------|------------------o||
|--------------11--|--9----------------|------------------|-------------------||
|--9----11-12------|-------11----------|------------------|----------/12-11---||
|------------------|----------12--(9)--|------------------|------------------o||
|------------------|-------------------|------------------|-------------------||
|
|  ~~~                ~~~                  ~~~               ~~
|  Q.    E  Q   Q     Q.    E  Q   Q       Q   Q   Q   Q     H    Q    E  E   4x
|--------------19--|-17----------------|--------------22--|-24----------------||
|-17----19-20------|-------19----------|-/17--20--19------|------------------o||
|------------------|----------19--16---|------------------|-------------------||
|------------------|-------------------|------------------|-------------------||
|------------------|-------------------|------------------|----------/10--9--o||
|------------------|-------------------|------------------|-------------------||
|
|  ~~~                ~~~                                    ~~
|  Q.    E  Q   Q     Q.    E  Q   Q       Q   Q   Q   Q     H    Q    E  E   4x
|------------------|-------------------|------------------|-------------------||
|------------------|-------------------|------------------|------------------o||
|------------------|-------------------|------------------|-------------------||
|---------------9--|--7----------------|------------------|-------------------||
|--7-----9-10------|--------9----------|--/7--10---9------|--7-------/10--9--o||
|------------------|----------10---7---|--------------10--|-------------------||


             IV. Armor of tV. Hector's Final Hour
  4.       Q=150
  E5
  W           Wx4           S S S S S S S S S S S S S S S S
|----------||------------||---------------------------------|
|----------||------------||---------------------------------|
|----------||------------||-5-4-5-4-5-4-5-4-5-4-5-4-5-4-5-4-|
|-2--------||------------||---------------------------------|
|-2--------||------------||---------------------------------|
|-0--------||------------||---------------------------------|


  S S S S S S S S S S S S S S S S
|------------------------------------|
|------------------------------------|
|------------------------------------|
|-5-4-5-4-5-4-5-4-5-4-5-4-5-4-5-4----|
|------------------------------------|
|------------------------------------|


        E5
  PM--|
  |-3-|
  E E E H.        +W           +W           +W
|---------------|------------|------------|------------|
|---------------|------------|------------|------------|
|---------------|------------|------------|------------|
|-------9-------|-(9)--------|-(9)--------|-(9)--------|
|-------7-------|-(7)--------|-(7)--------|-(7)--------|
|-0-0-0---------|------------|------------|------------|


        D5
  PM--|
  |-3-|
  E E E H.        +W           +W           +W
|---------------|------------|------------|--------|
|---------------|------------|------------|--------|
|---------------|------------|------------|--------|
|-------7-------|-(7)--------|-(7)--------|-(7)----|
|-------5-------|-(5)--------|-(5)--------|-(5)----|
|-0-0-0---------|------------|------------|--------|


        E5
                                             >
  PM--|
  |-3-|
  E E E H.        +W           +W           +W
|---------------|------------|------------|--------|
|---------------|------------|------------|--------|
|---------------|------------|------------|--------|
|-------9-------|-(9)--------|-(9)--------|-(9)----|
|-------7-------|-(7)--------|-(7)--------|-(7)----|
|-0-0-0---------|------------|------------|--------|


             Q=80
                              ~~~
  Wx4          H.       Q     H.       E E
|------------|-------------|---------------|
|------------|-------------|-12-------10---|
|------------|---------11--|-------------9-|
|------------|-------------|---------------|
|------------|-------------|---------------|
|------------|-------------|---------------|


   ~~~~~~~~~~~~~~~              ~~~
   W           H.       E  E    H.      Q
|-----------|-14-------12----|--------------|
|-----------|----------------|-12-------7---|
|-11--------|-------------14-|--------------|
|-----------|----------------|--------------|
|-----------|----------------|--------------|
|-----------|----------------|--------------|


  Gtr II
  W             +W             W              W
  |              |                            |
  o              o                            o

                                              ~
  H.      E E    Q  Q  Q  Q    Q.   E Q  Q    W
|-------------|--------7--5--|--------------|------|
|-------------|--5--7--------|-7----5-------|------|
|-4-------6-7-|--------------|--------6-----|-4----|
|-------------|--------------|-----------7--|------|
|-------------|--------------|--------------|------|
|-------------|--------------|--------------|------|


  D6
  Gtr VI
   H.       Q     H.       Q     H     +E  E E E
|-10-----------|-----------9--|-10----(10)-------|
|-12-----------|--------------|------------------|
|-11-----------|-11-----------|------------------|
|-12-------11--|-12-------11--|-12----(12)---7-9-|
|--------------|--------------|------------7-----|
|--------------|--------------|------------------|


  H.       Q     H.      Q     H.       Q
|-------------|----------9--|-10--------9---|
|-7-----------|-------------|--7-------10---|
|-7-----------|-------------|--7------------|
|---------11--|-12----------|--9------------|
|-------------|-------------|---------------|
|-------------|-------------|---------------|


  H.       Q     H.       Q    H.      Q
|-7-----------|--------------|------------|
|-7-----------|-12-------10--|-7----------|
|-7-----------|-11--------9--|-7-------9--|
|-9-------11--|-12-----------|-9----------|
|-------------|--------------|------------|
|-------------|--------------|------------|


   H.      Q     H.       Q    Q  Q  Q   Q
|----------9--|-10-----------|---------------|
|-12----------|-12-------10--|-------7--10---|
|-11----------|--------------|----7----------|
|-------------|--------------|-9-------------|
|-------------|--------------|---------------|
|-------------|--------------|---------------|


        Chorus
  D          A             Em         Bm
  W          H.      E E   W          W
|-2--------|-0-----------|----------|-2--------|
|-3--------|-2-----------|-0--------|-3--------|
|-2--------|-2-----------|-0--------|-4--------|
|-0--------|-2-----------|-2--------|-4--------|
|----------|-0-----------|-2--------|-2--------|
|----------|---------3-2-|-0--------|----------|


  D          A             Em         Bm
  W          H.      E E   W          W
|-2--------|-0-----------|----------|-2----|
|-3--------|-2-----------|-0--------|-3----|
|-2--------|-2-----------|-0--------|-4----|
|-0--------|-2-----------|-2--------|-4----|
|----------|-0-----------|-2--------|-2----|
|----------|---------3-2-|-0--------|------|


    Bm   G            Em   C            Am   F            Dm   Bb
    H    H            H    H            H    H            H    H
||--2----3-----||-||-------0-----||-||--0----1-----||-||--1----1-----||
||o-3----3----o||-||o-0----1----o||-||o-1----1----o||-||o-3----3----o||
||--4----0-----||-||--0----0-----||-||--2----2-----||-||--2----3-----||
||--4----0-----||-||--2----2-----||-||--2----3-----||-||--0----3-----||
||o-2----2----o||-||o-2----3----o||-||o-0----3----o||-||o------1----o||
||-------3-----||-||--0----------||-||-------1-----||-||-------------||


  A                         B5/F#      A5/EB5/F#
  W          Q  H.          Q  Q  Q  E E   Q  Q  Q  Q    4x
|-0--------|-0----------||---------------|---------------||
|-2--------|-2----------||o--------------|--------------o||
|-2--------|-2----------||---------------|---------------||
|-2--------|-2----------||--4----------2-|-4-------------||
|-0--------|-0----------||o-2--2--2--2-0-|-2--2--2--2---o||
|----------|------------||--2--2--2--2-0-|-2--2--2--2----||


 VI. Death Hector's Reward
  Faster Q=155
  B5                 A5   B5                       A5   G5
  Gtr I
  E H..         Q  E Q  E Q    H..       E   +E  E Q  E Q.     +W
|-------------|--------------|-------------|-----------------|--------|
|-------------|--------------|-------------|-----------------|--------|
|-------------|--------------|-------------|-----------------|--------|
|-------------|--------------|-------------|-----------------|--------|
|-9-----------|-9----7----9--|-----------9-|-(9)---7----5----|-(5)----|
|-7-----------|-7----5----7--|-----------7-|-(7)---5----3----|-(3)----|


  G5      A5     (B5)
                 PM-------------------------------
  H    Q  Q      S S S S S S S S S S S S S S S S
|------------||----------------------------------|
|------------||o---------------------------------|
|------------||----------------------------------|
|------------||----------------------------------|
|-5----5--7--||o-2-2-2-2-2-2-2-2-2-2-2-2-2-2-2-2-|
|-3----3--5--||----------------------------------|


                          A5
 -----------------------|
  S S S S S S S S S S S S Q    8x
|------------------------------||
|-----------------------------o||
|------------------------------||
|-------------------------2----||
|-2-2-2-2-2-2-2-2-2-2-2-2-0---o||
|------------------------------||


    D5         A5         E5         B5
    W          W          W          W
||-----------|----------|----------|-------||
||o-3--------|----------|----------|------o||
||--2--------|-2--------|----------|-4-----||
||--0--------|-2--------|-2--------|-4-----||
||o----------|-0--------|-2--------|-2----o||
||-----------|----------|-0--------|-------||


           Chorus
    B5   G5            E5   C5            A5   F5
    H    H             H    H             H    H
||-------------||-||--------------||-||--------------||
||o-----------o||-||o------------o||-||o------------o||
||-------------||-||--------------||-||--------------||
||--4----------||-||--------5-----||-||---2----------||
||o-2----5----o||-||o--2----3----o||-||o--0----3----o||
||-------3-----||-||---0----------||-||--------1-----||


       D5   Bb5       A5
       H    H         W          E Q.   H
|-||--------------||-----------|-------------|
|-||o------------o||-----------|-------------|
|-||--------------||-----------|-------------|
|-||---7----------||-----------|-------------|
|-||o--5----8----o||--7--------|-7-----------|
|-||--------6-----||--5--------|-5-----------|


           Verse1 y 2
    $$
    (B5)                                                      A5
    PM------------------------------------------------------|
    S S S S S S S S S S S S S S S S   S S S S S S S S S S S S Q   10x
||----------------------------------|------------------------------||
||o---------------------------------|-----------------------------o||
||----------------------------------|------------------------------||
||----------------------------------|-------------------------2----||
||o-2-2-2-2-2-2-2-2-2-2-2-2-2-2-2-2-|-2-2-2-2-2-2-2-2-2-2-2-2-0---o||
||----------------------------------|------------------------------||


    D5         A5         E5         B5
    W          W          W          W
||-----------|----------|----------|-------||
||o-3--------|----------|----------|------o||
||--2--------|-2--------|----------|-4-----||
||--0--------|-2--------|-2--------|-4-----||
||o----------|-0--------|-2--------|-2----o||
||-----------|----------|-0--------|-------||


    B5   G5            E5   C5            A5   F5
    H    H             H    H             H    H
||-------------||-||--------------||-||--------------||
||o-----------o||-||o------------o||-||o------------o||
||-------------||-||--------------||-||--------------||
||--4----------||-||--------5-----||-||---2----------||
||o-2----5----o||-||o--2----3----o||-||o--0----3----o||
||-------3-----||-||---0----------||-||--------1-----||


       D5   Bb5       A5
       H    H         W          E Q.   H
|-||--------------||-----------|-------------|
|-||o------------o||-----------|-------------|
|-||--------------||-----------|-------------|
|-||---7----------||-----------|-------------|
|-||o--5----8----o||--7--------|-7-----------|
|-||--------6-----||--5--------|-5-----------|


D.S.S.
      (B5)                                                      A5
      PM------------------------------------------------------|
      S S S S S S S S S S S S S S S S   S S S S S S S S S S S S Q  6x
||------------------------------------|----------------------------||
||o-----------------------------------|---------------------------o||
||------------------------------------|----------------------------||
||------------------------------------|-------------------------2--||
||o---2-2-2-2-2-2-2-2-2-2-2-2-2-2-2-2-|-2-2-2-2-2-2-2-2-2-2-2-2-0-o||
||------------------------------------|----------------------------||


    D5         A5         E5         B5
    W          W          W          W
||-----------|----------|----------|-------||
||o-3--------|----------|----------|------o||
||--2--------|-2--------|----------|-4-----||
||--0--------|-2--------|-2--------|-4-----||
||o----------|-0--------|-2--------|-2----o||
||-----------|----------|-0--------|-------||


    B5   G5            E5   C5            A5   F5
    H    H             H    H             H    H
||-------------||-||--------------||-||--------------||
||o-----------o||-||o------------o||-||o------------o||
||-------------||-||--------------||-||--------------||
||--4----------||-||--------5-----||-||---2----------||
||o-2----5----o||-||o--2----3----o||-||o--0----3----o||
||-------3-----||-||---0----------||-||--------1-----||


       D5   Bb5       A5
       H    H         W          E Q.   H
|-||--------------||-----------|-------------|
|-||o------------o||-----------|-------------|
|-||--------------||-----------|-------------|
|-||---7----------||-----------|-------------|
|-||o--5----8----o||--7--------|-7-----------|
|-||--------6-----||--5--------|-5-----------|


 VII. The DEsecrVIII. The Glory of Achilles
             Fast heavy metal Q=180
                 E5                         G5     F#5
  Wx4            W          W          H    H      W
|------------||-----------|----------|-----------|-------||
|------------||o----------|----------|-----------|------o||
|------------||-----------|----------|-----------|-------||
|------------||-----------|----------|-----------|-------||
|------------||o-2--------|-2--------|-2----5----|-4----o||
|------------||--0--------|-0--------|-0----3----|-2-----||


    (E5)
    PM-----------------------
    |-3-| |-3-| |-3-| |-3-|
    E E E E E E E E E E E E
||--------------------------|
||o-------------------------|
||--------------------------|
||--------------------------|
||o-------------------------|
||--0-0-0-0-0-0-0-0-0-0-0-0-|


                           1.,2.
                                        G5     F#5
 -------------------------------------|
  |-3-| |-3-| |-3-| |-3-|   |-3-| |-3-|
  E E E E E E E E E E E E   E E E E E E H      W     3x
|-------------------------|------------------|-------||
|-------------------------|------------------|------o||
|-------------------------|------------------|-------||
|-------------------------|------------------|-------||
|-------------------------|-------------5----|-4----o||
|-0-0-0-0-0-0-0-0-0-0-0-0-|-0-0-0-0-0-0-3----|-2-----||


  3.
  (E5)        (G5)          (F#5)
  PM-------------------------------------------------
  |-3-| |-3-| |-3-| |-3-|   |-3-| |-3-| |-3-| |-3-|
  E E E E E E E E E E E E   E E E E E E E E E E E E
|-------------------------|-------------------------|
|-------------------------|-------------------------|
|-------------------------|-------------------------|
|-------------------------|-------------------------|
|-------------------------|-------------------------|
|-0-0-0-0-0-0-3-3-3-3-3-3-|-2-2-2-2-2-2-2-2-2-2-2-2-|


  (E5)                                                        G5     F#5
 -------------------------------------------------|
  |-3-| |-3-| |-3-| |-3-|   |-3-| |-3-| |-3-| |-3-|
  E E E E E E E E E E E E   E E E E E E E E E E E E     H     H      W
|-------------------------|-------------------------|--------------|------|
|-------------------------|-------------------------|--------------|------|
|-------------------------|-------------------------|--------------|------|
|-------------------------|-------------------------|--------------|------|
|-------------------------|-------------------------|-/10\----5----|-4----|
|-0-0-0-0-0-0-0-0-0-0-0-0-|-0-0-0-0-0-0-0-0-0-0-0-0-|---------3----|-2----|


          Verse1 y 2
    (E5)
    PM-------------------------------------------------
    |-3-| |-3-| |-3-| |-3-|   |-3-| |-3-| |-3-| |-3-|
    E E E E E E E E E E E E   E E E E E E E E E E E E
||--------------------------|-------------------------|
||o-------------------------|-------------------------|
||--------------------------|-------------------------|
||--------------------------|-------------------------|
||o-------------------------|-------------------------|
||--0-0-0-0-0-0-0-0-0-0-0-0-|-0-0-0-0-0-0-0-0-0-0-0-0-|


                                       1.,2.,3.
                            C5   D5     B5
 -----------------------|
  |-3-| |-3-| |-3-| |-3-|
  E E E E E E E E E E E E   H    H      W     4x
|-------------------------|-----------|-------||
|-------------------------|-----------|------o||
|-------------------------|-----------|-------||
|-------------------------|-5----7----|-4-----||
|-------------------------|-3----5----|-2----o||
|-0-0-0-0-0-0-0-0-0-0-0-0-|-----------|-------||


  4.
  E5           E5 F#5G5      C5 D5 E5 G5
  W            Q  Q  Q  Q    Q  Q  Q   Q
|----------||--------------|--------------|
|----------||o-------------|--------------|
|----------||--------------|--------------|
|-9--------||--------------|-5--7--9--12--|
|-7--------||o-2--4--5-----|-3--5--7--10--|
|----------||--0--2--3--0--|--------------|


  (E5)
  PM----------------------------------------------|
  |-3-| |-3-| |-3-| |-3-|   |-3-| |-3-| |-3-| |-3-|
  E E E E E E E E E E E E   E E E E E E E E E E E E    4x
|-------------------------|----------------------------||
|-------------------------|---------------------------o||
|-------------------------|----------------------------||
|-------------------------|----------------------------||
|-------------------------|---------------------------o||
|-0-0-0-0-0-0-0-0-0-0-0-0-|-0-0-0-0-0-0-0-0-0-0-0-0----||


    (E5)
    PM-------------------------------------------------
    |-3-| |-3-| |-3-| |-3-|   |-3-| |-3-| |-3-| |-3-|
    E E E E E E E E E E E E   E E E E E E E E E E E E
||--------------------------|-------------------------|
||o-------------------------|-------------------------|
||--------------------------|-------------------------|
||--------------------------|-------------------------|
||o-------------------------|-------------------------|
||--0-0-0-0-0-0-0-0-0-0-0-0-|-0-0-0-0-0-0-0-0-0-0-0-0-|


                            C5   D5     B5
 -----------------------|
  |-3-| |-3-| |-3-| |-3-|
  E E E E E E E E E E E E   H    H      W     5x
|-------------------------|-----------|-------||
|-------------------------|-----------|------o||
|-------------------------|-----------|-------||
|-------------------------|-5----7----|-4-----||
|-------------------------|-3----5----|-2----o||
|-0-0-0-0-0-0-0-0-0-0-0-0-|-----------|-------||



Duration Legend
---------------
W - whole; H - half; Q - quarter; E - 8th; S - 16th; T - 32nd; X - 64th; a - acciaccatura
+ - note tied to previous; . - note dotted; .. - note double dotted
Uncapitalized letters represent notes that are staccato (1/2 duration)
Irregular groupings are notated above the duration line
Duration letters will always appear directly above the note/fret number it represents the
duration for.  Duration letters with no fret number below them represent rests.  Multi-
bar rests are notated in the form Wxn, where n is the number of bars to rest for.  Low
melody durations appear below the staff

Tablature Legend
----------------
 h   - hammer-on
 p   - pull-off
 b   - bend
 pb  - pre-bend
 r   - bend release (if no number after the r, then release immediately)
 /\  - slide into or out of (from/to "nowhere")
 s   - legato slide
 S   - shift slide
<n> - natural harmonic
[n]  - artificial harmonic
n(n) - tapped harmonic
 ~   - vibrato
 tr  - trill
 T   - tap
 TP  - trem. picking
 PM  - palm muting
\n/  - tremolo bar dip; n = amount to dip
 \n  - tremolo bar down
 n/  - tremolo bar up
/n\  - tremolo bar inverted dip
 =   - hold bend; also acts as connecting device for hammers/pulls
 <> - volume swell (louder/softer)
 x   - on rhythm slash represents muted slash
 o   - on rhythm slash represents single note slash

Misc Legend
-----------
 |  - bar
||  - double bar
||o - repeat start
o|| - repeat end
*|  - double bar (ending)
 :  - bar (freetime)
 $  - Segno
 &  - Coda
Tempo markers - <E/E./Q/Q./H/H.> = BPM(8/16=s8/s16), where s8 = swing 8ths, s16 = swing 16ths

comments
We did not receive enough feedback on this tab! Please rate:
print report bad tab
1 2 3 4 5
2 comments total.
0 reply
Sephyncloud wrote on October 28 2010, 12:11 am

You are my new god. Thank you so much for this 100% accurate tab! I don't see why this doesn't have a million 5 Star ratings. Anyways, thanks again man.

0 reply
Zaqq wrote on January 31 2012, 06:46 am

Pretty cool, but hard to read it.

I want to post or [tab]
guest
You may want to rate the tab now too:
select rating
Please do not post tabs as comments. Select "correction" instead!