Oops, an error
Loading. Please wait.

Army Of Immortals Tab

ver1
ver1

Whole song

Interactive

More versions @911Tabs.com
1,991 views 3 this week
no commentswrite comment
1 2 3 4 5
excellent!
x 1
Autoscroll
+/-
esc
set tempo
stop
Contributor
Hey! There's an official Ultimate Guitar app which is ideal
for learning songs when you're away from computer. Get the app
WARNING: You are trying to view
                                    content from Ultimate-Guitar.com
                                    in an unauthorized application,
                                    which is prohibited.

                                    Please use an official Ultimate
                                    Guitar Tabs application for iPhone,
                                    iPad or Android to access legitimate
                                    chords, guitar, bass, and drum tabs
                                    from Ultimate-Guitar.com database.

                                    Type "ultimate guitar tabs" in Apple
                                    App Store's or Android Market's
                                    search to find the application.
#----------------------------------PLEASE NOTE---------------------------------#
#This file is the author's own work and represents their interpretation of the #
#song. You may only use this file for private study, scholarship, or research. #
#------------------------------------------------------------------------------#

ARMY OF IMMORTALS
As recorded by MANOWAR
(From the 1984 Album HAIL TO ENGLAND)

Transcribed by DoomMaker (DoomMaker@Chello.HU)
	

Words and Music by Joey DeMaio
Arranged by MANOWAR

C5
x 3 5 x x x
	
D5
x x 0 2 x x
	
E5
0 2 x x x x
	
F5
1 3 x x x x

G5
3 5 x x x x
	
A5
x 0 2 x x x
	
B5
x 2 4 x x x
	
G#
x x x 1 x x

A
x x x 2 x x
	
B
x x x 4 x x
	
D5(type 2)
x x 0 2 3 x
	
A5(type 2)
x 0 2 2 x x

E
x 7 6 x x x
	
A5/E
x 7 7 x x x
	
E5VII
x 7 9 x x x

Gtr I (E A D G B E) - 'Rhythm Guitar'
Gtr II (E A D G B E) - 'Solo Guitar'

   Intro
    Lively Rock Q=142                 1.,2.
    A5                        C5 B5   F5                E
   4/4
    Gtr I
      PM--------------------|           PM--------------|
    E E E E E E E E   E E E E Q  Q    E E E E E E E E   E Q  E Q  Q
||------------------|---------------|-----------------|---------------||
||o-----------------|---------------|-----------------|--------------o||
||--2---------------|---------------|-----------------|---------------||
||--2---------------|---------5--4--|-----------------|---6--6-7--9---||
||o-0-0-0-0-0-0-0-0-|-0-0-0-0-3--2--|-3---------------|---7--7-7--7--o||
||------------------|---------------|-1-1-1-1-1-1-1-1-|-0-------------||
|
|   Gtr II
|   W                 W               W                 W
||------------------|---------------|-----------------|---------------||
||o-----------------|---------------|-----------------|--------------o||
||------------------|---------------|-----------------|---------------||
||------------------|---------------|-----------------|---------------||
||o-----------------|---------------|-----------------|--------------o||
||------------------|---------------|-----------------|---------------||


  3.
  F5         E5
  W          W
|----------|------|
|----------|------|
|----------|------|
|----------|------|
|-3--------|-2----|
|-1--------|-0----|
|
| W          W
|----------|------|
|----------|------|
|----------|------|
|----------|------|
|----------|------|
|----------|------|


   Verse
    A5                        C5 B5   F5                E
      PM--------------------|           PM--------------|
    E E E E E E E E   E E E E Q  Q    E E E E E E E E   E Q  E Q  Q
||------------------|---------------|-----------------|----------------||
||o-----------------|---------------|-----------------|---------------o||
||--2---------------|---------------|-----------------|----------------||
||--2---------------|---------5--4--|-----------------|---6--6-7--9----||
||o-0-0-0-0-0-0-0-0-|-0-0-0-0-3--2--|-3---------------|---7--7-7--7---o||
||------------------|---------------|-1-1-1-1-1-1-1-1-|-0--------------||
|
|     PM--------------------|           PM--------------|
|   E E E E E E E E   E E E E Q  Q    E E E E E E E E   E Q  E Q  Q
||------------------|---------------|-----------------|----------------||
||o-----------------|---------------|-----------------|---------------o||
||--2---------------|---------------|-----------------|----------------||
||--2---------------|---------5--4--|-----------------|---6--6-7--9----||
||o-0-0-0-0-0-0-0-0-|-0-0-0-0-3--2--|-3---------------|---7--7-7--7---o||
||------------------|---------------|-1-1-1-1-1-1-1-1-|-0--------------||


  D5               A5   G5   F5   E5               A5   G5   F5
     PM--------|                     PM--------|
  Q  E E E E E E   Q.   Q.   Q    Q  E E E E E E   Q.   Q.   Q
|----------------|--------------|----------------|--------------|
|----------------|--------------|----------------|--------------|
|-2--------------|--------------|----------------|--------------|
|-0--0-0-0-0-0-0-|-2------------|----------------|-2------------|
|----------------|-0----5----3--|-2--------------|-0----5----3--|
|----------------|------3----1--|-0--0-0-0-0-0-0-|------3----1--|
|
|    PM--------|                     PM--------|
| Q  E E E E E E   Q.   Q.   Q    Q  E E E E E E   Q.   Q.   Q
|----------------|--------------|----------------|--------------|
|----------------|--------------|----------------|--------------|
|-2--------------|--------------|----------------|--------------|
|-0--0-0-0-0-0-0-|-2------------|----------------|-2------------|
|----------------|-0----5----3--|-2--------------|-0----5----3--|
|----------------|------3----1--|-0--0-0-0-0-0-0-|------3----1--|


  D5               A5   G5   F5   F5               G#   A    B
     PM--------|                     PM--------|
  Q  E E E E E E   Q.   Q.   Q    Q  E E E E E E   Q.   Q.   Q
|----------------|--------------|----------------|--------------|
|----------------|--------------|----------------|-----------0--|
|-2--------------|--------------|----------------|-1----2-------|
|-0--0-0-0-0-0-0-|-2------------|----------------|--------------|
|----------------|-0----5----3--|-2--------------|--------------|
|----------------|------3----1--|-0--0-0-0-0-0-0-|--------------|
|
|    PM--------|                     PM--------|
| Q  E E E E E E   Q.   Q.   Q    Q  E E E E E E   Q.   Q.   Q
|----------------|--------------|----------------|--------------|
|----------------|--------------|----------------|-----------0--|
|-2--------------|--------------|----------------|-1----2-------|
|-0--0-0-0-0-0-0-|-2------------|----------------|--------------|
|----------------|-0----5----3--|-2--------------|--------------|
|----------------|------3----1--|-0--0-0-0-0-0-0-|--------------|


   Chorus
    A5                                 D5   C5     B5   G5
         PM|
    Q.   E E E E E   E E E E E E E E   H    H      H    H     4x
||-----------------|-----------------|-----------|------------||
||o----------------|---------------5-|-3---------|-----------o||
||-------------2-4-|-5-4-2-0-2-4-5---|-2---------|------------||
||--2----2-2-------|-----------------|-0----5----|-4----------||
||o-0----0-0-------|-----------------|------3----|-2----5----o||
||-----------------|-----------------|-----------|------3-----||
|
|        PM|
|   Q.   E E E E E   E E E E E E E E   H    H      H    H     4x
||-----------------|-----------------|-----------|------------||
||o----------------|-----------------|-3---------|-----------o||
||-----------------|-----------------|-2---------|------------||
||--2----2-2-------|---------------2-|-0----5----|-4----------||
||o-0----0-0---0-2-|-3-2-0---0-2-3---|------3----|-2----5----o||
||-----------------|-------3---------|-----------|------3-----||


 Interlude
  A5                                    C5         B5
    PM-----------------------------|
  E E E E E E E E   E    E    E     E    Q          Q
|-----------------|-------------------------------------------|
|-----------------|-------------------------------------------|
|-2---------------|-------------------------------------------|
|-2---------------|----------------------5----------4---------|
|-0-0-0-0-0-0-0-0-|-0----0----0-----0----3----------2---------|
|-----------------|-------------------------------------------|
|
| W                 S S  S  S S  S  S S  S  S S  S  S S  S  S
|-5---------------|-5-8-10----8-10----8-10----8-10----8-10----|
|-----------------|--------10------10------10------10------10-|
|-----------------|-------------------------------------------|
|-----------------|-------------------------------------------|
|-----------------|-------------------------------------------|
|-----------------|-------------------------------------------|


  F5                                           E
         PM-----------------------------|
   E     E     E    E    E    E    E    E      E Q  E Q  Q
|--------------------------------------------|----------------|
|--------------------------------------------|----------------|
|--------------------------------------------|----------------|
|--------------------------------------------|---6--6-7--9----|
|--3-----------------------------------------|---7--7-7--7----|
|--1-----1-----1----1----1----1----1----1----|-0--------------|
|
|  S  S  S  S  S  S S  S S  S S  S S  S S  S   H      Q  Q
|-10-12-10-12----10-8------------------------|----------------|
|-------------13------10-8-10-8-10-8-10-8-10-|-8------9-------|
|--------------------------------------------|-----------9----|
|--------------------------------------------|----------------|
|--------------------------------------------|----------------|
|--------------------------------------------|----------------|


  A5                                                      C5   B5
     PM----------------------------------------------|
   E E  E     E     E     E    E    E   E    E   E   E    Q    Q
|-------------------------------------|---------------------------------|
|-------------------------------------|---------------------------------|
|--2----------------------------------|---------------------------------|
|--2----------------------------------|-------------------5----4--------|
|--0-0--0-----0-----0-----0----0----0-|-0----0---0---0----3----2--------|
|-------------------------------------|---------------------------------|
|
|  Q    S  S  S  S  S  S  S  S S S  E   S  S S S S S S  Q    S S S  S S
|-15---12-15-12-10-12-10-12-10-8-8-10-|-8-10-7-9-7-9-8------------------|
|-------------------------------------|----------------10---10-8---10-9-|
|-------------------------------------|--------------------------9------|
|-------------------------------------|---------------------------------|
|-------------------------------------|---------------------------------|
|-------------------------------------|---------------------------------|


  F5                                       E
       PM---------------------------|
  E    E    E   E    E    E    E    E      E    Q   E Q  Q
|----------------------------------------|--------------------|
|----------------------------------------|--------------------|
|----------------------------------------|--------------------|
|----------------------------------------|------6---6-7--9----|
|-3--------------------------------------|------7---7-7--7----|
|-1----1----1---1----1----1----1----1----|-0------------------|
|
| S  S S S  S S S  S S  S S  S S  S S  S   S  S E Q   Q  Q
|----------------------------------------|--------------------|
|---10-8---10-8---10-8-10-8-10-8-10-8-10-|-8-10-8-8---9-------|
|-9------9------9------------------------|---------------9----|
|----------------------------------------|--------------------|
|----------------------------------------|--------------------|
|----------------------------------------|--------------------|


   Verse
    A5                        C5 B5   F5                E
      PM--------------------|           PM--------------|
    E E E E E E E E   E E E E Q  Q    E E E E E E E E   E Q  E Q  Q    4x
||------------------|---------------|-----------------|----------------||
||o-----------------|---------------|-----------------|---------------o||
||--2---------------|---------------|-----------------|----------------||
||--2---------------|---------5--4--|-----------------|---6--6-7--9----||
||o-0-0-0-0-0-0-0-0-|-0-0-0-0-3--2--|-3---------------|---7--7-7--7---o||
||------------------|---------------|-1-1-1-1-1-1-1-1-|-0--------------||
|
|     PM--------------------|           PM--------------|
|   E E E E E E E E   E E E E Q  Q    E E E E E E E E   E Q  E Q  Q    4x
||------------------|---------------|-----------------|----------------||
||o-----------------|---------------|-----------------|---------------o||
||--2---------------|---------------|-----------------|----------------||
||--2---------------|---------5--4--|-----------------|---6--6-7--9----||
||o-0-0-0-0-0-0-0-0-|-0-0-0-0-3--2--|-3---------------|---7--7-7--7---o||
||------------------|---------------|-1-1-1-1-1-1-1-1-|-0--------------||


 Pre-Chorus
  D5               A5   G5   F5   E5               A5   G5   F5
     PM--------|                     PM--------|
  Q  E E E E E E   Q.   Q.   Q    Q  E E E E E E   Q.   Q.   Q
|----------------|--------------|----------------|--------------|
|----------------|--------------|----------------|--------------|
|-2--------------|--------------|----------------|--------------|
|-0--0-0-0-0-0-0-|-2------------|----------------|-2------------|
|----------------|-0----5----3--|-2--------------|-0----5----3--|
|----------------|------3----1--|-0--0-0-0-0-0-0-|------3----1--|
|
|    PM--------|                     PM--------|
| Q  E E E E E E   Q.   Q.   Q    Q  E E E E E E   Q.   Q.   Q
|----------------|--------------|----------------|--------------|
|----------------|--------------|----------------|--------------|
|-2--------------|--------------|----------------|--------------|
|-0--0-0-0-0-0-0-|-2------------|----------------|-2------------|
|----------------|-0----5----3--|-2--------------|-0----5----3--|
|----------------|------3----1--|-0--0-0-0-0-0-0-|------3----1--|


  D5               A5   G5   F5   E5               G#   A    B
     PM--------|                     PM--------|
  Q  E E E E E E   Q.   Q.   Q    Q  E E E E E E   Q.   Q.   Q
|----------------|--------------|----------------|--------------|
|----------------|--------------|----------------|-----------0--|
|-2--------------|--------------|----------------|-1----2-------|
|-0--0-0-0-0-0-0-|-2------------|----------------|--------------|
|----------------|-0----5----3--|-2--------------|--------------|
|----------------|------3----1--|-0--0-0-0-0-0-0-|--------------|
|
|    PM--------|                     PM--------|
| Q  E E E E E E   Q.   Q.   Q    Q  E E E E E E   Q.   Q.   Q
|----------------|--------------|----------------|--------------|
|----------------|--------------|----------------|-----------0--|
|-2--------------|--------------|----------------|-1----2-------|
|-0--0-0-0-0-0-0-|-2------------|----------------|--------------|
|----------------|-0----5----3--|-2--------------|--------------|
|----------------|------3----1--|-0--0-0-0-0-0-0-|--------------|


   Chorus
    A5                                 D5   C5     B5   G5
         PM|
    Q.   E E E E E   E E E E E E E E   H    H      H    H     4x
||-----------------|-----------------|-----------|------------||
||o----------------|---------------5-|-3---------|-----------o||
||-------------2-4-|-5-4-2-0-2-4-5---|-2---------|------------||
||--2----2-2-------|-----------------|-0----5----|-4----------||
||o-0----0-0-------|-----------------|------3----|-2----5----o||
||-----------------|-----------------|-----------|------3-----||
|
|        PM|
|   Q.   E E E E E   E E E E E E E E   H    H      H    H     4x
||-----------------|-----------------|-----------|------------||
||o----------------|-----------------|-3---------|-----------o||
||-----------------|-----------------|-2---------|------------||
||--2----2-2-------|---------------2-|-0----5----|-4----------||
||o-0----0-0---0-2-|-3-2-0---0-2-3---|------3----|-2----5----o||
||-----------------|-------3---------|-----------|------3-----||


 Guitar Solo
  A5                                            C5      B5
      PM------------------------------------|
  E   E   E   E   E   E   E   E     E E E   E   Q       Q
|---------------------------------|------------------------------|
|---------------------------------|------------------------------|
|-2-------------------------------|------------------------------|
|-2-------------------------------|-------------5-------4--------|
|-0---0---0---0---0---0---0---0---|-0-0-0---0---3-------2--------|
|---------------------------------|------------------------------|
|
| S S S S S S S S S S S S S S S S   Q   S S S S S S S S S S S S
|---------------------------------|-------0-----0-1-0---0-1-0----|
|---------------------------------|-----1---1-1-------1-------1--|
|-2-2-2-2-2-2-2-2-2-2-2-2-2-2-2-2-|-2----------------------------|
|---------------------------------|------------------------------|
|---------------------------------|------------------------------|
|---------------------------------|------------------------------|


  F5                                E
      PM----------------------------|
  E   E   E   E   E   E   E   E     E   Q       E   Q       Q
|---------------------------------|-----------------------------|
|---------------------------------|-----------------------------|
|---------------------------------|-----------------------------|
|---------------------------------|-----6-------6---7-------9---|
|-3-------------------------------|-----7-------7---7-------7---|
|-1---1---1---1---1---1---1---1---|-0---------------------------|
|
| S S S S S S S S S S S S S S S S   S S S S S S S S S S S S Q
|-0-1-0---0-1-0-1-0-3-1-0-1-0-1-0-|-1-0-3-5-3-0-3-5-8-0---5-8---|
|-------1-------------------------|---------------------8-------|
|---------------------------------|-----------------------------|
|---------------------------------|-----------------------------|
|---------------------------------|-----------------------------|
|---------------------------------|-----------------------------|


  A5                                               C5 B5
      PM----------------------------------------|
  E   E   E   E   E   E   E   E     E   E   E    E Q  Q
|---------------------------------|--------------------------|
|---------------------------------|--------------------------|
|-2-------------------------------|--------------------------|
|-2-------------------------------|----------------5--4------|
|-0---0---0---0---0---0---0---0---|-0---0---0----0-3--2------|
|---------------------------------|--------------------------|
|
| S S S S S S S S S S S S S S S S   S S S S S S  H       +E
|-0---5-8-5-3-0-3-5-8-5-3-5-3-0-3-|-5-8-5-8-5-8-10------(10)-|
|---8-----------------------------|--------------------------|
|---------------------------------|--------------------------|
|---------------------------------|--------------------------|
|---------------------------------|--------------------------|
|---------------------------------|--------------------------|


  F5                                      E
         PM-------------------------------|
   E     E     E     E     E     E  E E   E    Q       E   Q     Q
|---------------------------------------|--------------------------------|
|---------------------------------------|--------------------------------|
|---------------------------------------|--------------------------------|
|---------------------------------------|------6-------6---7-----9-------|
|--3------------------------------------|------7-------7---7-----7-------|
|--1-----1-----1-----1-----1-----1--1-1-|-0------------------------------|
|
|  S  S  S  S  S  S  S  S  S  S  Q.       S  S S S S S S S S S E S S S S
|-12-12-13-12-15-12-13-12-13-12-10------|-8-10-7-8-7-5-------3-1-0-0-0-0-|
|---------------------------------------|--------------5-6-5-------------|
|---------------------------------------|--------------------------------|
|---------------------------------------|--------------------------------|
|---------------------------------------|--------------------------------|
|---------------------------------------|--------------------------------|


  A5
        PM---------------------------------
   E    E    E    E    E    E    E    E
|-----------------------------------------|
|-----------------------------------------|
|--2--------------------------------------|
|--2--------------------------------------|
|--0----0----0----0----0----0----0----0---|
|-----------------------------------------|
|
|  S S  S S  S S  S S  S S  S S  S S  S S
|-12-0----8-12-0----8-12-0----8-12-0----8-|
|------10--------10--------10--------10---|
|-----------------------------------------|
|-----------------------------------------|
|-----------------------------------------|
|-----------------------------------------|


                      C5        B5
 ----------------|
   E    E    E    E    Q         Q
|-----------------------------------------|
|-----------------------------------------|
|-----------------------------------------|
|----------------------5---------4--------|
|--0----0----0----0----3---------2--------|
|-----------------------------------------|
|
|  S S  S S  S S  S S  S S  S S  S S  S S
|-12-0----8-12-0----8-12-0----8-12-0----8-|
|------10--------10--------10--------10---|
|-----------------------------------------|
|-----------------------------------------|
|-----------------------------------------|
|-----------------------------------------|


  F5
        PM---------------------------------
   E    E    E    E    E    E    E    E
|-----------------------------------------|
|-----------------------------------------|
|-----------------------------------------|
|-----------------------------------------|
|--3--------------------------------------|
|--1----1----1----1----1----1----1----1---|
|
|  S S  S S  S S  S S  S S  S S  S S  S S
|-13-0----8-13-0----8-13-0----8-13-0----8-|
|------10--------10--------10--------10---|
|-----------------------------------------|
|-----------------------------------------|
|-----------------------------------------|
|-----------------------------------------|


  E
 -|
   E    Q         E    Q         Q
|-----------------------------------------|
|-----------------------------------------|
|-----------------------------------------|
|-------6---------6----7---------9--------|
|-------7---------7----7---------7--------|
|--0--------------------------------------|
|
|  S S  S S  S S  S S  S S  S S  S S  S S
|-13-0----8-13-0----8-13-0----8-13-0----8-|
|------10--------10--------10--------10---|
|-----------------------------------------|
|-----------------------------------------|
|-----------------------------------------|
|-----------------------------------------|


  A5
        PM---------------------------------
   E    E    E    E    E    E    E    E
|-----------------------------------------|
|-----------------------------------------|
|--2--------------------------------------|
|--2--------------------------------------|
|--0----0----0----0----0----0----0----0---|
|-----------------------------------------|
|
|  S S  S S  S S  S S  S S  S S  S S  S S
|-12-0----8-12-0----8-12-0----8-12-0----8-|
|------10--------10--------10--------10---|
|-----------------------------------------|
|-----------------------------------------|
|-----------------------------------------|
|-----------------------------------------|


                      C5        B5
 ----------------|
   E    E    E    E    Q         Q
|-----------------------------------------|
|-----------------------------------------|
|-----------------------------------------|
|----------------------5---------4--------|
|--0----0----0----0----3---------2--------|
|-----------------------------------------|
|
|  S S  S S  S S  S S  S S  S S  S S  S S
|-12-0----8-12-0----8-12-0----8-12-0----8-|
|------10--------10--------10--------10---|
|-----------------------------------------|
|-----------------------------------------|
|-----------------------------------------|
|-----------------------------------------|


  F5
       PM------------------------------
   E   E    E   E    E   E    E   E
|-------------------------------------|
|-------------------------------------|
|-------------------------------------|
|-------------------------------------|
|--3----------------------------------|
|--1---1----1---1----1---1----1---1---|
|
|  S S S S  S S S S  S S S S  S S S S
|-12-0---7-12-0---7-12-0---7-12-0---7-|
|------9--------9--------9--------9---|
|-------------------------------------|
|-------------------------------------|
|-------------------------------------|
|-------------------------------------|


  E
 -|
   E   Q        E    Q        Q
|-----------------------------------------|
|-----------------------------------------|
|-----------------------------------------|
|------6--------6----7--------9-----------|
|------7--------7----7--------7-----------|
|--0--------------------------------------|
|
|  S S S S  S S S S  S S S S  S S S T  T
|-12-0---7-12-0---7-12-0---7-12-0---7-20--|
|------9--------9--------9--------9-------|
|-----------------------------------------|
|-----------------------------------------|
|-----------------------------------------|
|-----------------------------------------|


 Pre-Chorus
  D5                  A5   G5   F5   E5               A5   G5   F5
        PM--------|                     PM--------|
    Q   E E E E E E   Q.   Q.   Q    Q  E E E E E E   Q.   Q.   Q
|-------------------|--------------|----------------|--------------|
|-------------------|--------------|----------------|--------------|
|---2---------------|--------------|----------------|--------------|
|---0---0-0-0-0-0-0-|-2------------|----------------|-2------------|
|-------------------|-0----5----3--|-2--------------|-0----5----3--|
|-------------------|------3----1--|-0--0-0-0-0-0-0-|------3----1--|
|
|   ~~~~                                PM--------|
|  +W                 Q.   Q.   Q    Q  E E E E E E   Q.   Q.   Q
|-(20)--------------|--------------|----------------|--------------|
|-------------------|--------------|----------------|--------------|
|-------------------|--------------|----------------|--------------|
|-------------------|-2------------|----------------|-2------------|
|-------------------|-0----5----3--|-2--------------|-0----5----3--|
|-------------------|------3----1--|-0--0-0-0-0-0-0-|------3----1--|


  D5               A5   G5   F5   E5               G#   A    B
     PM--------|                     PM--------|
  Q  E E E E E E   Q.   Q.   Q    Q  E E E E E E   Q.   Q.   Q
|----------------|--------------|----------------|--------------|
|----------------|--------------|----------------|-----------0--|
|-2--------------|--------------|----------------|-1----2-------|
|-0--0-0-0-0-0-0-|-2------------|----------------|--------------|
|----------------|-0----5----3--|-2--------------|--------------|
|----------------|------3----1--|-0--0-0-0-0-0-0-|--------------|
|
|    PM--------|                     PM--------|
| Q  E E E E E E   Q.   Q.   Q    Q  E E E E E E   Q.   Q.   Q
|----------------|--------------|----------------|--------------|
|----------------|--------------|----------------|-----------0--|
|-2--------------|--------------|----------------|-1----2-------|
|-0--0-0-0-0-0-0-|-2------------|----------------|--------------|
|----------------|-0----5----3--|-2--------------|--------------|
|----------------|------3----1--|-0--0-0-0-0-0-0-|--------------|


   Chorus
    A5                                 D5   C5     B5   G5
         PM|
    Q.   E E E E E   E E E E E E E E   H    H      H    H     4x
||-----------------|-----------------|-----------|------------||
||o----------------|---------------5-|-3---------|-----------o||
||-------------2-4-|-5-4-2-0-2-4-5---|-2---------|------------||
||--2----2-2-------|-----------------|-0----5----|-4----------||
||o-0----0-0-------|-----------------|------3----|-2----5----o||
||-----------------|-----------------|-----------|------3-----||
|
|        PM|
|   Q.   E E E E E   E E E E E E E E   H    H      H    H     4x
||-----------------|-----------------|-----------|------------||
||o----------------|-----------------|-3---------|-----------o||
||-----------------|-----------------|-2---------|------------||
||--2----2-2-------|---------------2-|-0----5----|-4----------||
||o-0----0-0---0-2-|-3-2-0---0-2-3---|------3----|-2----5----o||
||-----------------|-------3---------|-----------|------3-----||


   Out-Chorus
    A5                        C5 B5   F5                E                A5
      PM--------------------|           PM--------------|
    E E E E E E E E   E E E E Q  Q    E E E E E E E E   E Q  E Q  Q   4x W
||------------------|---------------|-----------------|---------------||------*|
||o-----------------|---------------|-----------------|--------------o||------*|
||--2---------------|---------------|-----------------|---------------||-2----*|
||--2---------------|---------5--4--|-----------------|---6--6-7--9---||-2----*|
||o-0-0-0-0-0-0-0-0-|-0-0-0-0-3--2--|-3---------------|---7--7-7--7--o||-0----*|
||------------------|---------------|-1-1-1-1-1-1-1-1-|-0-------------||------*|
|
|     PM--------------------|           PM--------------|
|   E E E E E E E E   E E E E Q  Q    E E E E E E E E   E Q  E Q  Q   4x W
||------------------|---------------|-----------------|---------------||------*|
||o-----------------|---------------|-----------------|--------------o||------*|
||--2---------------|---------------|-----------------|---------------||-2----*|
||--2---------------|---------5--4--|-----------------|---6--6-7--9---||-2----*|
||o-0-0-0-0-0-0-0-0-|-0-0-0-0-3--2--|-3---------------|---7--7-7--7--o||-0----*|
||------------------|---------------|-1-1-1-1-1-1-1-1-|-0-------------||------*|



Duration Legend
---------------
W - whole; H - half; Q - quarter; E - 8th; S - 16th; T - 32nd; X - 64th; a - acciaccatura
+ - note tied to previous; . - note dotted; .. - note double dotted
Uncapitalized letters represent notes that are staccato (1/2 duration)
Irregular groupings are notated above the duration line
Duration letters will always appear directly above the note/fret number it represents the
duration for.  Duration letters with no fret number below them represent rests.  Multi-
bar rests are notated in the form Wxn, where n is the number of bars to rest for.  Low
melody durations appear below the staff

Tablature Legend
----------------
 h   - hammer-on
 p   - pull-off
 b   - bend
 pb  - pre-bend
 r   - bend release (if no number after the r, then release immediately)
 /\  - slide into or out of (from/to "nowhere")
 s   - legato slide
 S   - shift slide
 - natural harmonic
[n]  - artificial harmonic
n(n) - tapped harmonic
 ~   - vibrato
 tr  - trill
 T   - tap
 TP  - trem. picking
 PM  - palm muting
\n/  - tremolo bar dip; n = amount to dip
 \n  - tremolo bar down
 n/  - tremolo bar up
/n\  - tremolo bar inverted dip
 =   - hold bend; also acts as connecting device for hammers/pulls
 <> - volume swell (louder/softer)
 x   - on rhythm slash represents muted slash
 o   - on rhythm slash represents single note slash

Misc Legend
-----------
 |  - bar
||  - double bar
||o - repeat start
o|| - repeat end
*|  - double bar (ending)
 :  - bar (freetime)
 $  - Segno
 &  - Coda
Tempo markers -  = BPM(8/16=s8/s16), where s8 = swing 8ths, s16 = swing 16ths

comments
We did not receive enough feedback on this tab! Please rate:
print report bad tab
1 2 3 4 5
I want to post or [tab]
guest
You may want to rate the tab now too:
select rating
Please do not post tabs as comments. Select "correction" instead!