Oops, an error
Loading. Please wait.

Blood Of My Enemies Tab

ver1
ver1

Whole song

Interactive

More versions @911Tabs.com
2,574 views 15 this week
no commentswrite comment
1 2 3 4 5
excellent!
x 1
Autoscroll
+/-
esc
set tempo
stop
Contributor
WARNING: You are trying to view
                                    content from Ultimate-Guitar.com
                                    in an unauthorized application,
                                    which is prohibited.

                                    Please use an official Ultimate
                                    Guitar Tabs application for iPhone,
                                    iPad or Android to access legitimate
                                    chords, guitar, bass, and drum tabs
                                    from Ultimate-Guitar.com database.

                                    Type "ultimate guitar tabs" in Apple
                                    App Store's or Android Market's
                                    search to find the application.
#----------------------------------PLEASE NOTE---------------------------------#
#This file is the author's own work and represents their interpretation of the #
#song. You may only use this file for private study, scholarship, or research. #
#------------------------------------------------------------------------------#

BLOOD OF MY ENEMIES
As recorded by Manowar
(From the 1984 Album HAIL TO ENGLAND)

Transcribed by David Harris
        

Words and Music by Manowar

Gtr I (E A D G B E) - 'acoustic'
Gtr II (E A D G B E) - 'l dist'
Gtr III (E A D G B E) - 'r dist'
Gtr IV (E A D G B E) - 'solo'

   Intro
    Q=85
    N.C.
   4/4
    Gtrs I, III
    Q.        Q    Q    E     +W
||----------<12>-----------|--------------|
||o------------------------|--------------|
||---------------------<5>-|-(<5>)--------|
||----------------<5>------|--------------|
||o------------------------|--------------|
||-------------------------|--------------|
|
|   Gtr II
|   E  H..                    +W
||-------------------------|--------------|
||o------------------------|--------------|
||-------------------------|--------------|
||-------------------------|--------------|
||o------------------------|--------------|
||--2--3-------------------|--(3)---------|


   +Q.         Q    Q    E     +W       3x
|------------<12>-------<7>-|-(<7>)-----||
|------------------<7>------|----------o||
|-(<5>)---------------------|-----------||
|---------------------------|-----------||
|---------------------------|----------o||
|---------------------------|-----------||
|
|   E   H..                    +W       3x
|---------------------------|-----------||
|---------------------------|----------o||
|---------------------------|-----------||
|---------------------------|-----------||
|---------------------------|----------o||
|---3---2-------------------|--(2)------||


  Q.        Q    Q    E     +W
|---------<12>-----------|--------------|
|------------------------|--------------|
|--------------------<5>-|-(<5>)--------|
|---------------<5>------|--------------|
|------------------------|--------------|
|------------------------|--------------|
|
| E  H..                    +W
|------------------------|--------------|
|------------------------|--------------|
|------------------------|--------------|
|------------------------|--------------|
|------------------------|--------------|
|-2--3-------------------|--(3)---------|


                                       Gtr III
   +Q.         Q    Q    E     +H        H
|------------<12>-------<7>-|-(<7>)----(<7>)----|
|------------------<7>------|-----------<7>-----|
|-(<5>)---------------------|-------------------|
|---------------------------|-------------------|
|---------------------------|-------------------|
|---------------------------|-------------------|
|
|                             Gtr II
|   E   H..                     W
|---------------------------|--<7>--------------|
|---------------------------|--<7>--------------|
|---------------------------|-------------------|
|---------------------------|-------------------|
|---------------------------|-------------------|
|---3---2-------------------|-------------------|


  Q=142
  N.C.       C  D   E
                   6/8
  Gtrs II, III
                       PM--------|      PM--------|
   +H.        E E   E  S S E E E E   E  S S E E E E
|-(<7>)-----------|----------------|----------------|
|-(<7>)-----------|----------------|----------------|
|---------------7-|-9\-------------|-9--------------|
|------------10-7-|-9\-------------|-9--------------|
|------------10-5-|-7\-------------|-7\-------------|
|-------------8---|----0-0-0-0-0-0-|----0-0-0-0-0-0-|


  E                           C  D   E
     PM--------|      PM----|           PM--------|      PM--------|
  E  S S E E E E   E  S S E E  E E   E  S S E E E E   E  S S E E E E
|----------------|-----------------|----------------|----------------|
|----------------|-----------------|----------------|----------------|
|-9--------------|-9-------------7-|-9\-------------|-9--------------|
|-9--------------|-9----------10-7-|-9\-------------|-9--------------|
|-7\-------------|-7\---------10-5-|-7\-------------|-7\-------------|
|----0-0-0-0-0-0-|----0-0-0-0--8---|----0-0-0-0-0-0-|----0-0-0-0-0-0-|


  E
     PM--------|      PM--------|
  E  S S E E E E   E  S S E E E E
|----------------|----------------|
|----------------|----------------|
|-9--------------|-9--------------|
|-9--------------|-9--------------|
|-7\-------------|-7\-------------|
|----0-0-0-0-0-0-|----0-0-0-0-0-0-|


 Verse
  G/EE             G/EE             G/EE             G/EE
     PM--------|      PM--------|      PM--------|      PM--------|
  E  S S E E E E   E  S S E E E E   E  S S E E E E   E  S S E E E E
|----------------|----------------|----------------|----------------|
|----------------|----------------|----------------|----------------|
|-4--------------|-4--------------|-4--------------|-4--------------|
|-5--------------|-5--------------|-5--------------|-5--------------|
|-7\-------------|-7\-------------|-7\-------------|-7\-------------|
|----0-0-0-0-0-0-|----0-0-0-0-0-0-|----0-0-0-0-0-0-|----0-0-0-0-0-0-|


    G/EE             G/EE             G/EE             G/EE
       PM--------|      PM--------|      PM--------|      PM--------|
    E  S S E E E E   E  S S E E E E   E  S S E E E E   E  S S E E E E
||-----------------|----------------|----------------|-----------------|
||o----------------|----------------|----------------|-----------------|
||--4--------------|-4--------------|-4--------------|-4---------------|
||--5--------------|-5--------------|-5--------------|-5---------------|
||o-7\-------------|-7\-------------|-7\-------------|-7\--------------|
||-----0-0-0-0-0-0-|----0-0-0-0-0-0-|----0-0-0-0-0-0-|----0-0-0-0-0-0--|


  C                                                  D
   Q.    Q.      Q.    Q.      Q.    Q.      H     E E  4x
|-------------|-------------|-------------|-------------||
|-------------|-------------|-------------|------------o||
|-------------|-------------|-------------|----------7--||
|-10----10----|-10----10----|-10----10----|-10----10-7--||
|-10----10----|-10----10----|-10----10----|-10----10-5-o||
|--8-----8----|--8-----8----|--8-----8----|--8-----8----||


  G/E             G/E             G/E             G/E
    PM--------|     PM--------|     PM--------|
  E S S E E E E   E S S E E E E   E S S E E E E   H     E E
|---------------|---------------|---------------|-----------|
|---------------|---------------|---------------|-----------|
|-4-------------|-4-------------|-4-------------|-4\--------|
|-5-------------|-5-------------|-5-------------|-5\--------|
|-7-------------|-7-------------|-7-------------|-7\--------|
|---0-0-0-0-0-0-|---0-0-0-0-0-0-|---0-0-0-0-0-0-|-------0-2-|


 Chorus
  G    N.C.    D    N.C.  E    N.C.  D    N.C.
  H     E  E   H    E E   H    E E   H    E E
|------------|----------|----------|----------|
|------------|----------|----------|----------|
|------------|-7--------|-9--------|-7--------|
|-5----(5)---|-7--------|-9--------|-7--------|
|-5----(5)-2-|-5------5-|-7----5-3-|-5----3-2-|
|-3-----3----|------8---|----------|----------|


  C    N.C.  B         E
                         PM--------------------|
  H    E E   H.        E S S E E S S E   E S S E E E E
|----------|---------|-----------------|----------------|
|----------|---------|-----------------|----------------|
|-5--------|-4-------|-----------------|----------------|
|-5--------|-4-------|-9---------------|----------------|
|-3----2-0-|-2-------|-7-7-7-7-7-7-7-7-|-7-7-7-7-7------|
|----------|---------|-0-0-0-0-0-0-0-0-|-0-0-0-0-0-0-2--|


  G          N.CD    N.C.  E    N.C.  D    N.C.  C    N.C.  B
  H     E  E    H    E E   H    E E   H    E E   H    E E   H.
|-------------|----------|----------|----------|----------|---------|
|-------------|----------|----------|----------|----------|---------|
|-------------|-7--------|-9--------|-7--------|-5--------|-4-------|
|-5----(5)----|-7--------|-9--------|-7--------|-5--------|-4-------|
|-5----(5)-2--|-5------5-|-7----5-3-|-5----3-2-|-3----2-0-|-2-------|
|-3-----3-----|------8---|----------|----------|----------|---------|


  E                                                     G/E   C  D
  PM------------------------------------------------|
  E S S E E S S E   E S S E E S S E   E S S E E S S E   H      E E
|-----------------|-----------------|-----------------|---------------|
|-----------------|-----------------|-----------------|---------------|
|-----------------|-----------------|-----------------|-4\-------7----|
|-----------------|-----------------|-----------------|-5\----10-7----|
|-----------------|-----------------|-----------------|-7\----10-5----|
|-0-0-0-0-0-0-0-0-|-0-0-0-0-0-0-0-0-|-0-0-0-0-0-0-0-0-|--------8------|


   Verse 2
    G/E             G/E             G/G/E           G/E
      PM--------|     PM--------|     PM--------|     PM--------|
    E S S E E E E   E S S E E E E   E S S E E E E   E S S E E E E   3x
||----------------|---------------|---------------|-----------------||
||o---------------|---------------|---------------|----------------o||
||--4-------------|-4-------------|-4-------------|-4---------------||
||--5-------------|-5-------------|-5-------------|-5---------------||
||o-7-------------|-7-------------|-7-------------|-7--------------o||
||----0-0-0-0-0-0-|---0-0-0-0-0-0-|---0-0-0-0-0-0-|---0-0-0-0-0-0---||


  C
   Q.    Q.      Q.    Q.      Q.    Q.      H     E E
|-------------|-------------|-------------|------------|
|-------------|-------------|-------------|------------|
|-------------|-------------|-------------|----------7-|
|-10----10----|-10----10----|-10----10----|-10----10-7-|
|-10----10----|-10----10----|-10----10----|-10----10-5-|
|--8-----8----|--8-----8----|--8-----8----|--8-----8---|


  G/E             G/EE             G/E             G/E
  Gtr IV
                                                              |-----5-----|
  W               W                W                H         S  S  S  S  S
|---------------|----------------|---------------|-----------12-------------|
|---------------|----------------|---------------|-15b17--------15-12-------|
|---------------|----------------|---------------|--------------------14-12-|
|---------------|----------------|---------------|--------------------------|
|---------------|----------------|---------------|--------------------------|
|---------------|----------------|---------------|--------------------------|
|
| Gtrs II, III
|   PM--------|      PM--------|     PM--------|
| E S S E E E E   E  S S E E E E   E S S E E E E    q     H
|---------------|----------------|---------------|--------------------------|
|---------------|----------------|---------------|--------------------------|
|-4-------------|-4--------------|-4-------------|--4-----------------------|
|-5-------------|-5--------------|-5-------------|--5-----------------------|
|-7-------------|-7\-------------|-7-------------|--7\----------------------|
|---0-0-0-0-0-0-|----0-0-0-0-0-0-|---0-0-0-0-0-0-|--------------------------|


  G/E      E
   |-------5-------|  |------5------|
   S  S  S    S    S  S  S  S    S  S  S  S  S  S
|----------------------------------------------------|
|------------15---12----12---------------------------|
|----14-12-----------14----14---12-14-12----12-14b16-|
|-14-------------------------------------14----------|
|----------------------------------------------------|
|----------------------------------------------------|
|
|          PM-------------------------------|
|  E       S    S     E       E        E     E
|----------------------------------------------------|
|----------------------------------------------------|
|--4-------------------------------------------------|
|--5-------------------------------------------------|
|--7-------------------------------------------------|
|----------0----0-----0-------0--------0-----0-------|


  G/E      E
   |--------6:5---------|  |-------6:5--------|
   S  S  S    S    S    S  S  S    S  S    S  S    E
|-----------------------------------------------------|
|-15-12-15---12--------12-----------------------------|
|-----------------14------14-12-----------------/[14]-|
|---------------------------------14-12---14-12-------|
|-----------------------------------------------------|
|-----------------------------------------------------|
|
|          PM-----------------------------------|
|  E       S    S    E          E       E          E
|-----------------------------------------------------|
|-----------------------------------------------------|
|--4--------------------------------------------------|
|--5--------------------------------------------------|
|--7--------------------------------------------------|
|----------0----0----0----------0-------0----------0--|


  G/E      E
   |-------5-------|  |------5------|  |------5------|
   S  S  S    S    S  S  S  S    S  S  S  S  S    S  S
|------------------------------------------------------|
|------------------------------------------------------|
|-14-12-14---12------------12--------------------------|
|-----------------14-12-14------14-12------------12----|
|-------------------------------------14-12-14------14-|
|------------------------------------------------------|
|
|          PM----------------------------------|
|  E       S    S     E       E        E       E
|------------------------------------------------------|
|------------------------------------------------------|
|--4---------------------------------------------------|
|--5---------------------------------------------------|
|--7---------------------------------------------------|
|----------0----0-----0-------0--------0-------0-------|


  G/E      E
   |-------5-------|
   S  S  S    S    S  S  S  S  E       E    S
|-------------------------------------12---15-|
|--------------------------12-15b17-----------|
|--------------------12-14--------------------|
|-12-14-12--------12--------------------------|
|------------14-------------------------------|
|---------------------------------------------|
|
|          PM----------------------------|
|  E       S    S     E     E       E    E
|---------------------------------------------|
|---------------------------------------------|
|--4------------------------------------------|
|--5------------------------------------------|
|--7------------------------------------------|
|----------0----0-----0-----0-------0----0----|


  G/E   E
            |-------5-------|
   S  S  S  S  S    S  S    S  S  S  S  S  S
|-12h15p12h15p12h==15p12h==15-------12-------|
|-----------------------------12-15----15-12-|
|--------------------------------------------|
|--------------------------------------------|
|--------------------------------------------|
|--------------------------------------------|
|
|        PM----------------------------|
|  E     S  S    E       E        E     E
|--------------------------------------------|
|--------------------------------------------|
|--4-----------------------------------------|
|--5-----------------------------------------|
|--7-----------------------------------------|
|--------0--0----0-------0--------0-----0----|


  G/E      EE
   S  E.          S  S  S  S  E.      S
|---------------------------------------|
|-------------------------15-15b17r==12-|
|-14-14b16r======12-14-12---------------|
|---------------------------------------|
|---------------------------------------|
|---------------------------------------|
|
|            PM--------------------|
|  E         S S  E     E     E    E
|---------------------------------------|
|---------------------------------------|
|--4------------------------------------|
|--5------------------------------------|
|--7------------------------------------|
|------------0-0--0-----0-----0----0----|


  G/E   E                                    G/E         E
               |------5------|
   S  S  S  S  S  S  S    S  S  S  S  S  S    S      +E     E.    Q   E
|------------------------------------------|----------------------------|
|-15-12----12----12------------12-15-------|----------------------------|
|-------14----14----14---12-14-------14-12-|-12b14==(12)r==12----11-----|
|------------------------------------------|----------------------------|
|------------------------------------------|----------------------------|
|------------------------------------------|----------------------------|
|
|        PM--------------------------|                   PM-----------|
|  E     S  S  E       E        E     E       E          S  S  E  E E E
|------------------------------------------|----------------------------|
|------------------------------------------|----------------------------|
|--4---------------------------------------|--4-------------------------|
|--5---------------------------------------|--5-------------------------|
|--7---------------------------------------|--7-------------------------|
|--------0--0--0-------0--------0-----0----|-------------0--0--0--0-0-0-|


  C                                                              D
                                                         ~~
   E E  E  E E  E    E E  E  E E  E    E E  E  E E  E    H     E  E
|-----------------|-----------------|----------2h3-/5-|-/7----------|
|-----------------|-----------------|--1h3-/5---------|-------12s15-|
|-----------------|----------0h2-/4-|-----------------|-------------|
|-----------------|--0h2-/4---------|-----------------|-------------|
|----------0h2-/3-|-----------------|-----------------|-------------|
|--0h2-/3---------|-----------------|-----------------|-------------|
|
|  Q.      Q.        Q.      Q.        Q.      Q.        H     E  E
|-----------------|-----------------|-----------------|-------------|
|-----------------|-----------------|-----------------|-------------|
|-----------------|-----------------|-----------------|-----------7-|
|-10------10------|-10------10------|-10------10------|-10----10--7-|
|-10------10------|-10------10------|-10------10------|-10----10--5-|
|--8-------8------|--8-------8------|--8-------8------|--8-----8----|


  G/E      E
   |----------8:6-----------|  |------6-------|
   S  S  S    S  S  S    S  S  S  S  S  S  S  S  E
|-----------------------------------------------------|
|-15p12h15p==12h15p12h==15p12h15p12h15p12h15p12-15b17-|
|-----------------------------------------------------|
|-----------------------------------------------------|
|-----------------------------------------------------|
|-----------------------------------------------------|
|
|          PM-----------------------------------|
|  E       S     S    E        E        E        E
|-----------------------------------------------------|
|-----------------------------------------------------|
|--4--------------------------------------------------|
|--5--------------------------------------------------|
|--7--------------------------------------------------|
|----------0-----0----0--------0--------0--------0----|


  G/E   E
         |---3---|  |--3--|  |--3--|  |--3--|  |--3--|
   E     S  S    S  S  S  S  S  S  S  S  S  S  S  S  S
|-15b17-12-15---12----12-------------------------------|
|------------------15----15-12-15-12----12----15-12-15-|
|------------------------------------14----14----------|
|------------------------------------------------------|
|------------------------------------------------------|
|------------------------------------------------------|
|
|        PM-----------------------------------|
|  E     S    S     E        E        E        E
|------------------------------------------------------|
|------------------------------------------------------|
|--4---------------------------------------------------|
|--5---------------------------------------------------|
|--7---------------------------------------------------|
|--------0----0-----0--------0--------0--------0-------|


  G/E      E                          G/E  E
   |--3--|  |---3---|
   S  S  S  S  S    S  E  Q.           +Q       +Q         +Q
|-----------------------------------|-----------------------------|
|-12----12--------------------------|-----------------------------|
|----14----14-12------12-14b16======|=(14)r====(14)b16====(14)r---|
|------------------14---------------|-----------------------------|
|-----------------------------------|-----------------------------|
|-----------------------------------|-----------------------------|
|
|           PM--------------------|        PM-------------------|
|  E        S    S     E  E     E E     E  S S   E      E   E   E
|-----------------------------------|-----------------------------|
|-----------------------------------|-----------------------------|
|--4--------------------------------|---4-------------------------|
|--5--------------------------------|---5-------------------------|
|--7--------------------------------|---7-------------------------|
|-----------0----0-----0--0-----0-0-|------0-0---0------0---0---0-|


  C
   Q.      Q.        E      +S   +S   E  Q.
|-----------------|-----------------------------|
|-22b24---22b24---|-22b24==(22)r(22)-22-22b24---|
|-----------------|-----------------------------|
|-----------------|-----------------------------|
|-----------------|-----------------------------|
|-----------------|-----------------------------|
|
|  Q.      Q.        Q.                  Q.
|-----------------|-----------------------------|
|-----------------|-----------------------------|
|-----------------|-----------------------------|
|-10------10------|-10------------------10------|
|-10------10------|-10------------------10------|
|--8-------8------|--8-------------------8------|


                                D
   Q.      Q.        H.
|-22b24---22b24---|-22b24----------|
|-----------------|----------------|
|-----------------|----------------|
|-----------------|----------------|
|-----------------|----------------|
|-----------------|----------------|
|
|  Q.      Q.        H        E E
|-----------------|----------------|
|-----------------|----------------|
|-----------------|-------------7--|
|-10------10------|-10-------10-7--|
|-10------10------|-10-------10-5--|
|--8-------8------|--8--------8----|


  G/E      E
   |-------5-------|  |------5------|  |------5------|
   S  S  S    S    S  S  S  S    S  S  S  S  S    S  S
|------------------------------------------------------|
|-12-13-12---13------13-12------12---------------------|
|-----------------14-------14------14-12-11-14---12-11-|
|------------------------------------------------------|
|------------------------------------------------------|
|------------------------------------------------------|
|
|          PM----------------------------------|
|  E       S    S     E       E        E       E
|------------------------------------------------------|
|------------------------------------------------------|
|--4---------------------------------------------------|
|--5---------------------------------------------------|
|--7---------------------------------------------------|
|----------0----0-----0-------0--------0-------0-------|


  G/E    E                                  G/E   E             G/E     N.C.
   S   S  S  S  S     S  S  S  S  S  S  S    H.                  H      Q
|-----------------------------------------|-------------------|-12\---------|
|--------------------15-------------------|-------------------|-------------|
|-----11-12-14-14b16----14-12----12-14-12-|-14b16-------------|-------------|
|-14\-------------------------14----------|-------------------|-------------|
|-----------------------------------------|-------------------|-------------|
|-----------------------------------------|-------------------|-------------|
|
|         PM------------------------|             PM--------|
|  E      S  S  E        E     E     E       E    S S E E E E    q   Q  E E
|-----------------------------------------|-------------------|-------------|
|-----------------------------------------|-------------------|-------------|
|--4--------------------------------------|--4----------------|--4----------|
|--5--------------------------------------|--5----------------|--5----------|
|--7--------------------------------------|--7----------------|--7----------|
|---------0--0--0--------0-----0-----0----|-------0-0-0-0-0-0-|---------0-2-|


  G           N.CD     N.C.  E     N.C.  C     N.C.
  H.             H.          H.          H.
|--------------|-----------|-----------|-----------|
|--------------|-----------|-----------|-----------|
|--------------|-----------|-----------|-----------|
|--------------|-----------|-----------|-----------|
|--------------|-----------|-----------|-----------|
|--------------|-----------|-----------|-----------|
|
| H      E  E    H     E E   H     E E   H     E E
|--------------|-----------|-----------|-----------|
|--------------|-----------|-----------|-----------|
|--------------|-7---------|-9---------|-7---------|
|-5-----(5)----|-7---------|-9---------|-7---------|
|-5-----(5)-2--|-5-----3-5-|-7-----5-3-|-5-----3-2-|
|-3------3-----|-----------|-----------|-----------|


  C     N.C.  B         E
  H.          H.        H.                 H.
|-----------|---------|------------------|----------------|
|-----------|---------|------------------|----------------|
|-----------|---------|------------------|----------------|
|-----------|---------|------------------|----------------|
|-----------|---------|------------------|----------------|
|-----------|---------|------------------|----------------|
|
|                          PM---------------------|
| H     E E   H.        E  S S E E S S E   E  S S E E E E
|-----------|---------|------------------|----------------|
|-----------|---------|------------------|----------------|
|-5---------|-4-------|------------------|----------------|
|-5---------|-4-------|-9----------------|----------------|
|-3-----2-0-|-2-------|-7--7-7-7-7-7-7-7-|-7--7-7-7-7-----|
|-----------|---------|-0--0-0-0-0-0-0-0-|-0--0-0-0-0-0-2-|


  G           N.CD     N.C.  E     N.C.  D     N.C.  C     N.C.
  H.             H.          H.          H.          H.
|--------------|-----------|-----------|-----------|-----------|
|--------------|-----------|-----------|-----------|-----------|
|--------------|-----------|-----------|-----------|-----------|
|--------------|-----------|-----------|-----------|-----------|
|--------------|-----------|-----------|-----------|-----------|
|--------------|-----------|-----------|-----------|-----------|
|
| H      E  E    H     E E   H     E E   H     E E   H     E E
|--------------|-----------|-----------|-----------|-----------|
|--------------|-----------|-----------|-----------|-----------|
|--------------|-7---------|-9---------|-7---------|-5---------|
|-5-----(5)----|-7---------|-9---------|-7---------|-5---------|
|-5-----(5)-2--|-5-----3-5-|-7-----5-3-|-5-----3-2-|-3-----2-0-|
|-3------3-----|-----------|-----------|-----------|-----------|


  B         E
                                                ~~~~~~~~~~~~~~~~
  H.         E      E     E  E     E    e    S  E.      +E   Q.
|---------|-------------------------------|----------------------------|
|---------|-------------------------------|----------------------------|
|---------|-14b16==14r---12-14b16-14---12-|-12--------------12\--------|
|---------|-------------------------------|----14------(14)------------|
|---------|-------------------------------|----------------------------|
|---------|-------------------------------|----------------------------|
|
|                   PM---------------------------------|
| H.         E      S  S  E  E     S S  E    E     S S   E   E  E E
|---------|-------------------------------|----------------------------|
|---------|-------------------------------|----------------------------|
|-4-------|-------------------------------|----------------------------|
|-4-------|--9----------------------------|----------------------------|
|-2-------|--7------7--7--7--7-----7-7--7-|--7-----7-7---7---7---------|
|---------|--0------0--0--0--0-----0-0--0-|--0-----0-0---0---0--0-2----|


  G           N.CD     N.C.  E     N.C.  D     N.C.  C     N.C.
  H.             H.          H.          H.          H.
|--------------|-----------|-----------|-----------|-----------|
|--------------|-----------|-----------|-----------|-----------|
|--------------|-----------|-----------|-----------|-----------|
|--------------|-----------|-----------|-----------|-----------|
|--------------|-----------|-----------|-----------|-----------|
|--------------|-----------|-----------|-----------|-----------|
|
| H      E  E    H     E E   H     E E   H     E E   H     E E
|--------------|-----------|-----------|-----------|-----------|
|--------------|-----------|-----------|-----------|-----------|
|--------------|-7---------|-9---------|-7---------|-5---------|
|-5-----(5)----|-7---------|-9---------|-7---------|-5---------|
|-5-----(5)-2--|-5-----3-5-|-7-----5-3-|-5-----3-2-|-3-----2-0-|
|-3------3-----|-----------|-----------|-----------|-----------|


  B         E
                                          ~~~~~~~~~~~~
  H.         Q.          Q.            S  E.      +E   Q.
|---------|-17b19-------17b19-------|-15--------------17b19--------|
|---------|-------------------------|----17------(17)--------------|
|---------|-------------------------|------------------------------|
|---------|-------------------------|------------------------------|
|---------|-------------------------|------------------------------|
|---------|-------------------------|------------------------------|
|
|                 PM-----------------------------|
| H.         E    S S E  E    S S E    E     S S   E   E    E E
|---------|-------------------------|------------------------------|
|---------|-------------------------|------------------------------|
|-4-------|-------------------------|------------------------------|
|-4-------|--9----------------------|------------------------------|
|-2-------|--7----7-7-7--7----7-7-7-|--7-----7-7---7---7-----------|
|---------|--0----0-0-0--0----0-0-0-|--0-----0-0---0---0----0-2----|


  G           N.CD     N.C.  E     N.C.  D     N.C.  C     N.C.
  H.             H.          H.          H.          H.
|--------------|-----------|-----------|-----------|-----------|
|--------------|-----------|-----------|-----------|-----------|
|--------------|-----------|-----------|-----------|-----------|
|--------------|-----------|-----------|-----------|-----------|
|--------------|-----------|-----------|-----------|-----------|
|--------------|-----------|-----------|-----------|-----------|
|
| H      E  E    H     E E   H     E E   H     E E   H     E E
|--------------|-----------|-----------|-----------|-----------|
|--------------|-----------|-----------|-----------|-----------|
|--------------|-7---------|-9---------|-7---------|-5---------|
|-5-----(5)----|-7---------|-9---------|-7---------|-5---------|
|-5-----(5)-2--|-5-----3-5-|-7-----5-3-|-5-----3-2-|-3-----2-0-|
|-3------3-----|-----------|-----------|-----------|-----------|


  B         E
  H.         Q      E     Q      E       Q      E     Q    E
|---------|---------------------------|-------------------------|
|---------|-15-----------15-----------|-15-----------15---------|
|---------|--------14b16--------14b16-|--------14b16------14b16-|
|---------|---------------------------|-------------------------|
|---------|---------------------------|-------------------------|
|---------|---------------------------|-------------------------|
|
|              PM------------------------------|
| H.         E S S  E     E S S  E       E S S  E     E E  E
|---------|---------------------------|-------------------------|
|---------|---------------------------|-------------------------|
|-4-------|---------------------------|-------------------------|
|-4-------|--9------------------------|-------------------------|
|-2-------|--7-7-7--7-----7-7-7--7----|--7-7-7--7-----7---------|
|---------|--0-0-0--0-----0-0-0--0----|--0-0-0--0-----0-0--2----|


  G           N.CD     N.C.  E     N.C.  D     N.C.
  H.             H.          H.          H.
|--------------|-----------|-----------|-----------|
|--------------|-----------|-----------|-----------|
|--------------|-----------|-----------|-----------|
|--------------|-----------|-----------|-----------|
|--------------|-----------|-----------|-----------|
|--------------|-----------|-----------|-----------|
|
| H      E  E    H     E E   H     E E   H     E E
|--------------|-----------|-----------|-----------|
|--------------|-----------|-----------|-----------|
|--------------|-7---------|-9---------|-7---------|
|-5-----(5)----|-7---------|-9---------|-7---------|
|-5-----(5)-2--|-5-----3-5-|-7-----5-3-|-5-----3-2-|
|-3------3-----|-----------|-----------|-----------|


  C     N.C.  B         E
  H.          H.        E E   E E E   E    E  E    E  Q.
|-----------|---------|-----------------|------------12------|
|-----------|---------|---------8-8---8-|-12-12---12---------|
|-----------|---------|-9-9---9---------|--------------------|
|-----------|---------|-----------------|--------------------|
|-----------|---------|-----------------|--------------------|
|-----------|---------|-----------------|--------------------|
|
|                         PM----------------------|
| H     E E   H.        E S S E E S S E    E  S S  E  E  E E
|-----------|---------|-----------------|--------------------|
|-----------|---------|-----------------|--------------------|
|-5---------|-4-------|-----------------|--------------------|
|-5---------|-4-------|-9---------------|--------------------|
|-3-----2-0-|-2-------|-7-7-7-7-7-7-7-7-|--7--7-7--7--7------|
|-----------|---------|-0-0-0-0-0-0-0-0-|--0--0-0--0--0--0-2-|


  G           N.CD     N.C.  E     N.C.  D     N.C.  C     N.C.  B
  H.             H.          H.          H.          H.          H.
|--------------|-----------|-----------|-----------|-----------|-------|
|--------------|-----------|-----------|-----------|-----------|-------|
|--------------|-----------|-----------|-----------|-----------|-------|
|--------------|-----------|-----------|-----------|-----------|-------|
|--------------|-----------|-----------|-----------|-----------|-------|
|--------------|-----------|-----------|-----------|-----------|-------|
|
| H      E  E    H     E E   H     E E   H     E E   H     E E   H.
|--------------|-----------|-----------|-----------|-----------|-------|
|--------------|-----------|-----------|-----------|-----------|-------|
|--------------|-7---------|-9---------|-7---------|-5---------|-4-----|
|-5-----(5)----|-7---------|-9---------|-7---------|-5---------|-4-----|
|-5-----(5)-2--|-5-----3-5-|-7-----5-3-|-5-----3-2-|-3-----2-0-|-2-----|
|-3------3-----|-----------|-----------|-----------|-----------|-------|


  C                                                  D   E
                                             ~~
   Q.    Q.      Q.    Q.      Q.    Q.      H     E E   H.        +H.
|-------------|-------------|-------------|--8---------|---------|--------*|
|-------------|-------------|--------8----|------------|---------|--------*|
|-------------|-------------|--9----------|----------7-|-9-------|-(9)----*|
|-------------|-------10----|-------------|-------10-7-|-9-------|-(9)----*|
|--------7----|-10----------|-------------|-------10-5-|-7-------|-(7)----*|
|--8----------|-------------|-------------|--------8---|---------|--------*|
|
|  Q.    Q.      Q.    Q.      Q.    Q.      H     E E   H.        +H.
|-------------|-------------|-------------|------------|---------|--------*|
|-------------|-------------|-------------|------------|---------|--------*|
|-------------|-------------|-------------|----------7-|-9-------|-(9)----*|
|-10----10----|-10----10----|-10----10----|-10----10-7-|-9-------|-(9)----*|
|-10----10----|-10----10----|-10----10----|-10----10-5-|-7-------|-(7)----*|
|--8-----8----|--8-----8----|--8-----8----|--8-----8---|---------|--------*|



Duration Legend
---------------
W - whole; H - half; Q - quarter; E - 8th; S - 16th; T - 32nd; X - 64th; a - acciaccatura
+ - note tied to previous; . - note dotted; .. - note double dotted
Uncapitalized letters represent notes that are staccato (1/2 duration)
Irregular groupings are notated above the duration line
Duration letters will always appear directly above the note/fret number it represents the
duration for.  Duration letters with no fret number below them represent rests.  Multi-
bar rests are notated in the form Wxn, where n is the number of bars to rest for.  Low
melody durations appear below the staff

Tablature Legend
----------------
 h   - hammer-on
 p   - pull-off
 b   - bend
 pb  - pre-bend
 r   - bend release (if no number after the r, then release immediately)
 /\  - slide into or out of (from/to "nowhere")
 s   - legato slide
 S   - shift slide
<n> - natural harmonic
[n]  - artificial harmonic
n(n) - tapped harmonic
 ~   - vibrato
 tr  - trill
 T   - tap
 TP  - trem. picking
 PM  - palm muting
\n/  - tremolo bar dip; n = amount to dip
 \n  - tremolo bar down
 n/  - tremolo bar up
/n\  - tremolo bar inverted dip
 =   - hold bend; also acts as connecting device for hammers/pulls
 <> - volume swell (louder/softer)
 x   - on rhythm slash represents muted slash
 o   - on rhythm slash represents single note slash

Misc Legend
-----------
 |  - bar
||  - double bar
||o - repeat start
o|| - repeat end
*|  - double bar (ending)
 :  - bar (freetime)
 $  - Segno
 &  - Coda
Tempo markers - <E/E./Q/Q./H/H.> = BPM(8/16=s8/s16), where s8 = swing 8ths, s16 = swing 16ths

comments
We did not receive enough feedback on this tab! Please rate:
print report bad tab
1 2 3 4 5
I want to post or [tab]
guest
You may want to rate the tab now too:
select rating
Please do not post tabs as comments. Select "correction" instead!