Oops, an error
Loading. Please wait.

Hail And Kill Tab

ver2
ver2

Whole song

Interactive

More versions @911Tabs.com
9,481 views 15 this week
3 commentsread comments
1 2 3 4 5
worth learning
x 2
Autoscroll
+/-
esc
set tempo
stop
Contributor
WARNING: You are trying to view
                                    content from Ultimate-Guitar.com
                                    in an unauthorized application,
                                    which is prohibited.

                                    Please use an official Ultimate
                                    Guitar Tabs application for iPhone,
                                    iPad or Android to access legitimate
                                    chords, guitar, bass, and drum tabs
                                    from Ultimate-Guitar.com database.

                                    Type "ultimate guitar tabs" in Apple
                                    App Store's or Android Market's
                                    search to find the application.
#----------------------------------PLEASE NOTE---------------------------------#
#This file is the author's own work and represents their interpretation of the #
#song. You may only use this file for private study, scholarship, or research. #
#------------------------------------------------------------------------------#

HAIL AND KILL
As recorded by Manowar
(From the 1988 Album KINGS OF METAL)

Transcribed by Sergio Miguélez(elmomias@hotmail.com)
	

Words and Music by Joey DeMaio & Ross The Boss

E5
0 2 2 x x x
	
C5
x 3 5 5 x x
	
E5(type 2)
x 7 9 9 x x
	
D5
x 5 7 7 x x

E5(type 3)
0 7 9 x x x
	
G5
x 10 12 12 x x
	
F#5
x 9 11 11 x x
	
G5(type 2)
x x 5 7 8 x

Gtr I (E A D G B E) - 'Guitar 1'
Gtr II (E A D G B E) - 'Guitar 2'
Gtr III (E A D G B E) - 'Guitar 3'
Gtr IV (E A D G B E) - 'Acoustic'

   Intro
    Q=120
    E5
   4/4
    Gtr I
    W                            +W
    |                             |
    /                             /

    Gtr II
    Q   E   E   +Q     E   E     +Q     E   E   +Q     Q
||----------------------------|----------------------------|
||o--------<7>-(<7>)------<5>-|-(<5>)------<7>-(<7>)-------|
||-----<5>------------<5>-----|--------<5>------------<5>--|
||----------------------------|----------------------------|
||o---------------------------|----------------------------|
||----------------------------|----------------------------|
|
|   Gtr III
|           ~~~~~~~~~      ~~~~~~~~~~~      ~~~~~~~~~
|   Q   E   E   +Q     E   E     +Q     E   E   +Q     Q
||----------------------------|----------------------------|
||o-----8---7---(7)----8------|---------8---7---(7)----8---|
||----------------------------|----------------------------|
||-------------------------9--|--(9)-----------------------|
||o---------------------------|----------------------------|
||----------------------------|----------------------------|


  W                            +W
  |                             |
  /                             /

  Q   E   E   +Q     E   E     +Q     E   E   +Q     Q
|---------------------------|-----------------------------|
|--------<7>-(<7>)------<5>-|-(<5>)------<7>-(<7>)--------|
|----<5>------------<5>-----|--------<5>------------<7>---|
|---------------------------|-----------------------------|
|---------------------------|-----------------------------|
|---------------------------|-----------------------------|
|
|         ~~~~~~~~~      ~~~~~~~~~~~      ~~~~~~~~~
| Q   E   E   +Q     E   E     +Q     E   E   +Q     Q
|------------------------7--|--(7)------------------------|
|-----8---7---(7)----8------|---------8---7---(7)---------|
|---------------------------|------------------------7----|
|---------------------------|-----------------------------|
|---------------------------|-----------------------------|
|---------------------------|-----------------------------|


  1.
  C5
  W                            +W
  |                             |
  /                             /

  Q   E   E   +Q     E   E     +Q     E   E   +Q     Q
|---------------------------|----------------------------|
|--------<7>-(<7>)------<5>-|-(<5>)------<7>-(<7>)-------|
|----<5>------------<5>-----|--------<5>------------<5>--|
|---------------------------|----------------------------|
|---------------------------|----------------------------|
|---------------------------|----------------------------|
|
|         ~~~~~~~~~      ~~~~~~~~~~~      ~~~~~~~~~
| Q   E   E   +Q     E   E     +Q     E   E   +Q     Q
|---------------------------|----------------------------|
|-----8---7---(7)----8------|---------8---7---(7)----8---|
|---------------------------|----------------------------|
|------------------------9--|--(9)-----------------------|
|---------------------------|----------------------------|
|---------------------------|----------------------------|


  E E  Q        H                W
  | |                            |
  / /                            /

  Q    E   E   +Q     E   E     +Q     E   E   +Q     Q
|----------------------------|-----------------------------||
|---------<7>-(<7>)------<5>-|-(<5>)------<7>-(<7>)-------o||
|-----<5>------------<5>-----|--------<5>------------<7>---||
|----------------------------|-----------------------------||
|----------------------------|----------------------------o||
|----------------------------|-----------------------------||
|
|          ~~~~~~~~~      ~~~~~~~~~~~      ~~~~~~~~~
| Q    E   E   +Q     E   E     +Q     E   E   +Q     Q
|-------------------------7--|--(7)------------------------||
|------8---7---(7)----8------|---------8---7---(7)--------o||
|----------------------------|------------------------7----||
|----------------------------|-----------------------------||
|----------------------------|----------------------------o||
|----------------------------|-----------------------------||


  2.
  E5(typD52) C5                           E5
                             3/4         4/4
  E E E E Q  Q    +W          +H.         W
  |     |    |     |           |          |
  /     /    /     /           /          /

                                          Gtr IV
  W                W           W          E E E E E E E E
|---------------|-----------|----------||---------0--------|
|---------------|-----------|----------||-----------0------|
|---------------|-----------|----------||-----0-------0----|
|---------------|-----------|----------||-------2-------2--|
|---------------|-----------|----------||---2--------------|
|---------------|-----------|----------||-0----------------|


                      Pre-Verse
  E5                   Em                                  D
  +W                   W                 W                 W
   |
   /

   E E E E E E E E     E E E E E E E E   E E E E E E E E   E E E E E E E E
|----------0-------||----------0-------|---------0-------|-----2---2-------|
|------------0-----||o-----------0-----|-----------0-----|-------3---3-----|
|--0---0-------0---||--0---0-------0---|-0---0-----------|---2-----------2-|
|----2---2-------2-||----2---2-------2-|---2---2---------|-0-----------0---|
|------------------||o-----------------|---------------2-|-----------------|
|------------------||------------------|-------------0---|-----------------|


  1.,2.
                    G       Bm        Em      Bm        C
  E E E E E E E E   E E E E E E E E   E E E E E E E E   E E E E E E E E
|-----2---2-------|-3-------2-------|-0-------2-------|-----0---0-------|
|-------3---3-----|---0---0---0---0-|---0---0---0---0-|-------1---1---1-|
|---2-----------2-|-----0-----------|-----0-----------|-------------0---|
|-0-----------0---|-------------4---|-------------4---|---2-------------|
|-----------------|-----------------|-----------------|-3---------------|
|-----------------|-----------------|-----------------|-----------------|


                      3.
                      D                    G       Bm        Em      Bm
                              |-3-|
  E E E E E E E E  3x E E E E S S S E Q    E E E E E E E E   E E E E E E E E
|-----0---0--------||-----2---2h3p2-0-2--|-3-------2-------|-0-------2---------|
|-------1---1---1-o||-------3------------|---0---0---0---0-|---0---0---0---0---|
|-------------0----||---2----------------|-----0-----------|-----0-------------|
|---2--------------||-0------------------|-------------4---|-------------4-----|
|-3---------------o||--------------------|-----------------|-------------------|
|------------------||--------------------|-----------------|-------------------|


                                                                 Faster Q=190
  C                                                              E5
                                                                 Gtr II
  E E E E E E E E    Q  +Q   +H       +W           +W            W
|-----0---0-------|-^0--(0)--(0)----|-(0)--------|-(0)--------||------|
|-------1---1---1-|-^1--(1)--(1)----|-(1)--------|-(1)--------||------|
|-------------0---|-^0--(0)--(0)----|-(0)--------|-(0)--------||------|
|---2-------------|-^2--------------|------------|------------||-2----|
|-3---------------|-^3--------------|------------|------------||-2----|
|-----------------|-----------------|------------|------------||-0----|


                                                 Verse
                                    G5  D5        E5
  Gtr III
                /                          |
   W            W           +H..          +E      W
|------------|--7---------|-(7)-----------(7)-||-------|
|------------|--8---------|-(8)-----------(8)-||o------|
|------------|------------|-------------------||-------|
|------------|------------|-------------------||-------|
|------------|------------|-------------------||o------|
|------------|------------|-------------------||-------|
|
| Gtr II
| +W           +W           +H       Q  Q         W
|------------|------------|-------------------||-------|
|------------|------------|-------------------||o------|
|------------|------------|---------12--7-----||-------|
|-(2)--------|-(2)--------|-(2)-----12--7-----||--9----|
|-(2)--------|-(2)--------|-(2)-----10--5-----||o-7----|
|-(0)--------|-(0)--------|-(0)---------------||--0----|


               D5                          G5    F#5
  Gtr II
  +W           W          +H..       S S    H     H
|------------|----------|----------------|-------------|
|------------|----------|----------------|-------------|
|------------|-7--------|-(7)--------x-x-|-12----11----|
|-(9)--------|-7--------|-(7)--------x-x-|-12----11----|
|-(7)--------|-5--------|-(5)--------x-x-|-10-----9----|
|-(0)--------|----------|----------------|-------------|


              1.
  E5   D/F#    C5
  Gtr II
                           \7
  W            W           W
|------------|----------|-------------||
|------------|----------|------------o||
|------------|----------|--5----------||
|------------|----------|-------------||
|------------|----------|------------o||
|------------|----------|-------------||
|
| Gtr III
| H     H      W          +W
|------------|----------|-------------||
|------------|----------|------------o||
|-9----------|-5--------|-(5)---------||
|-9----12----|-5--------|-(5)---------||
|-7-----9----|-3--------|-(3)--------o||
|------------|----------|-------------||


  2.
   \0.5/   \0.5/   \0.5/        \0.5/   \0.5/     \0.5/   \0.5/   \0.5/      \1.5
   Q       E      +E      +Q    E      +E        +E      +E      +E      E  +H
|---------------------------------------------|--------------------------------------|
|---------------------------------------------|--------------------------------------|
|-12------12-----(12)----(12)--12-----(12)----|-(12)----(12)----(12)----12-(12)------|
|---------------------------------------------|--------------------------------------|
|---------------------------------------------|--------------------------------------|
|---------------------------------------------|--------------------------------------|
|
|  W                                             +W
|---------------------------------------------|--------------------------------------|
|---------------------------------------------|--------------------------------------|
|--5------------------------------------------|--(5)---------------------------------|
|--5------------------------------------------|--(5)---------------------------------|
|--3------------------------------------------|--(3)---------------------------------|
|---------------------------------------------|--------------------------------------|


  $
  E5                      D5                          G5    F#5
  W          +W           W          +H..       S S    H     H
|----------|------------|----------|----------------|-------------|
|----------|------------|----------|----------------|-------------|
|----------|------------|-7--------|-(7)--------x-x-|-12----11----|
|-9--------|-(9)--------|-7--------|-(7)--------x-x-|-12----11----|
|-7--------|-(7)--------|-5--------|-(5)--------x-x-|-10-----9----|
|-0--------|-(0)--------|----------|----------------|-------------|


                                          Chorus
  E5   D5     C5                           E5(type 2)       D5
                                           Gtr I
  W           W          W                 H          +Q.   E
                                           |           |    |
                                           /           /    /

                                           Gtr II
  H    H      W          Q  Q  E E E E     E  E   Q   +Q.   E
|-----------|----------|---------------||---------------------|
|-----------|----------|---------------||o--------------------|
|-9----7----|-5--------|-5-------------||---------------------|
|-9----7----|-5--------|-5-----------0-||--9h10---9---(9)---7-|
|-7----5----|-3--------|-3-----0-2-3---||o-7-(7)-(7)--(7)---5-|
|-----------|----------|---------------||---------------------|


                                      1.              2.190
  D5           C5           E5(type 2)                E5(typeC5)D5
  +H           H            W          +W             +H     Q  Q
   |           |            |           |              |     |  |
   /           /            /           /              /     /  /

  +E   E   Q   E  E   Q     W          +W             +H     Q  Q
|-------------------------|----------|-------------||--------------|
|-------------------------|----------|------------o||--------------|
|-------------------------|----------|-------------||--------------|
|-(7)h=9---7---5h=7---5---|-9--------|-(9)---------||-(9)----5--7--|
|-(5)-(5)-(5)--3-(3)-(3)--|-7--------|-(7)--------o||-(7)----3--5--|
|-------------------------|----------|-------------||--------------|


                                                To C
    E5(type 2)         D5               C5
    H..                E   +H           H
    |                  |    |           |
    /                  /    /           /

    E    E   Q   +Q.   E   +E   E   Q   E  E   Q
||-----------------------|-------------------------|
||o----------------------|-------------------------|
||-----------------------|-------------------------|
||--9h==10---9---(9)---7-|-(7)h=9---7---5h=7---5---|
||o-7---(7)-(7)--(7)---5-|-(5)-(5)-(5)--3-(3)-(3)--|
||-----------------------|-------------------------|


            1.                  2.
 oda
  E5(type 2)
  W          +W                  W
  |           |
  /           /

                                       \1.5
  W          +W             a a  Q    +H.
|----------|-------------||--------------------||
|----------|------------o||--------------------||
|----------|-------------||---x-<5>--(<5>)-----||
|-9--------|-(9)---------||-x------------------||
|-7--------|-(7)--------o||--------------------||
|----------|-------------||--------------------||


 Verse
  E5                            D5                          G5
  W            +H..       S S   W          +H..       S S    H     H
|----------||-----------------|----------|----------------|-------------|
|----------||o----------------|----------|----------------|-------------|
|----------||-------------x-x-|-7--------|-(7)--------x-x-|-12----11----|
|-9--------||--(9)--------x-x-|-7--------|-(7)--------x-x-|-12----11----|
|-7--------||o-(7)--------x-x-|-5--------|-(5)--------x-x-|-10-----9----|
|-0--------||--(0)------------|----------|----------------|-------------|


              1.
  E5   D/F#    C5                                       E5
  H     H       W                  +W                     W
|------------|------------------|---------------------|-----------------||
|------------|------------------|---------------------|----------------o||
|-9----------|--5---------------|--(5)----------------|-----------------||
|-9----12----|--5---------------|--(5)----------------|---9-------------||
|-7-----9----|--3---------------|--(3)----------------|---7------------o||
|------------|------------------|---------------------|---0-------------||
|
| Gtr III
|                     \3.5          /2.5__________________|
|                                            ~~~~~
| W             Q    +H.           +Q       +H.          +S   S H..
|------------|------------------|---------------------|-----------------||
|------------|-<5>--(<5>)-------|-(<5>)----(<5>)------|-(<5>)----------o||
|------------|------------------|---------------------|-----------------||
|------------|------------------|---------------------|-----------------||
|------------|------------------|---------------------|----------------o||
|------------|------------------|---------------------|-----------------||


  2.
                                   D.S. al Coda
  C5
  W                    +W
|--------------------|---------------------------||
|--------------------|---------------------------||
|-5------------------|-(5)-----------------------||
|-5------------------|-(5)-----------------------||
|-3------------------|-(3)-----------------------||
|--------------------|---------------------------||
|
| PM-------------------------------------------|
| E E S S E E S S Q     S  S E S S E E S S S S E
|--------------------|---------------------------||
|--------------------|---------------------------||
|--------------------|---------------------------||
|--------------------|---------------------------||
|-x-x-x---x-x-x-x----|--x--x-x-x-x-x-x-x-x-x-x-x-||
|-x-x-x---x-x-x-x----|--x--x-x-x-x-x-x-x-x-x-x-x-||


                   Guitar Solo
  &
  E5(type 3)
  Gtr I
   Q     Q  H        W             +W
   |                 |              |
   /                 /              /

  Gtr III
   \7
                     ~~~~~
   W                 W              E  E  E     +E   S  S  S  S  S  S  E
|-19b21----------||--------------|---------------------------------------|
|----------------||-12-----------|---------------------------------------|
|----------------||-14b16--------|-12-14-14b16r(14)-14-12----------------|
|----------------||--------------|------------------------14-12----------|
|----------------||--------------|------------------------------14-13-12-|
|----------------||--------------|---------------------------------------|


  D5
   W
   |
   /

   S  S  S  S  S  S  S  S  S  S  S  S  S  S  S  S
|--------------------------------------------------|
|--------------------------------------------------|
|-16p14-14-14-17p14-14-14-19p14-14-14-16p14-14-14--|
|--------------------------------------------------|
|--------------------------------------------------|
|--------------------------------------------------|


  D5
   W
   |
   /

   S  S  S  S  S  S  S  S  S  S  S  S  S  S  S  S
|-------------------------------------------------|
|-------------------------------------------------|
|-16p14-14-14-17p14-14-14-19p14-14-14-16p14-14-14-|
|-------------------------------------------------|
|-------------------------------------------------|
|-------------------------------------------------|


  G5                      F#5
   H                       H
   |                       |
   /                       /

   S  S  S  S  S  S  S  S  S  S  S  S  S  S  S  S
|-------------------------------------------------|
|-------------------------12-12-12-12-13-13-13-13-|
|-12-12-12-12-14-14-14-14-------------------------|
|-------------------------------------------------|
|-------------------------------------------------|
|-------------------------------------------------|


  E5(type 2)              D5                        C5
   H                       H                         W
   |                       |                         |
   /                       /                         /

   S  S  S  S  S  S  S  S  S  S  S  S  S  S  S  S    W
|-------------12-12-12-12-14-14-14-14-15-15-15-15-|-17b19----|
|-15-15-15-15-------------------------------------|----------|
|-------------------------------------------------|----------|
|-------------------------------------------------|----------|
|-------------------------------------------------|----------|
|-------------------------------------------------|----------|


  C5                                                  E5(type 3)
   W                                                  W            +W
   |                                                  |             |
   /                                                  /             /

                                                                    /
                                                      ~~~
   E     +E      S  S  S  S  S  S  S  S  S  S  S  S   W             W
|-17b19r(17)b19-15h17p15----------------------------|------------|--0----|
|------------------------15h17p15-------------------|------------|--0----|
|---------------------------------14-16-14----------|-2b4--------|--0----|
|------------------------------------------17-16-14-|------------|-------|
|---------------------------------------------------|------------|-------|
|---------------------------------------------------|------------|-------|


  D5
   W                                      +W
   |                                       |
   /                                       /

   |
                                                             ~~
   |--3--|             |--3--|  |--3--|
   E  E  E  E     +E   E  E  E  E  E  E    S  S  S  S  E  E  H
|---------------------------------------|-------------------------|
|-15h17p15-15b17r(15)-15p12-------------|-------------------15----|
|---------------------------14-12h14p12-|-14h15p14p12-14p12-------|
|---------------------------------------|-------------------------|
|---------------------------------------|-------------------------|
|---------------------------------------|-------------------------|


  G5(type 2)              F#5
   H                       H
   |                       |
   /                       /

   S  S  S  S  S  S  S  S  S  S  S  S  S  S  S  S
|-------------------------------------------------|
|-13p12h15p12h13p12h15p12h13p12h15p12h13p12h15p12-|
|-------------------------------------------------|
|-------------------------------------------------|
|-------------------------------------------------|
|-------------------------------------------------|


  E5(type 2)                  D5
   H                            H
   |                            |
   /                            /

                      \4                          \1.5
   S  S  S  S  S  S   S    S    S    S    S    S  Q
|----------12-------<24>-<24>-<24>-<24>-<24>-<24>-------|
|-15p13p12----15p12-------------------------------------|
|-------------------------------------------------0-----|
|-------------------------------------------------------|
|-------------------------------------------------------|
|-------------------------------------------------------|


  C5
  W
  |
  /

  T     T     T     T
  |-3-| |-3-| |-3-| |-3-|
  E E E E E E E E E E E E
|-------------------------|
|-------------------------|
|-9p5p0-9p5p0-9p5p0-9p5p0-|
|-------------------------|
|-------------------------|
|-------------------------|


  C5
  +W
   |
   /

   T      T      T      T
   |-3--| |-3--| |-3--| |-3--|
   E  E E E  E E E  E E E  E E
|------------------------------|
|------------------------------|
|--9/p5p0-9/p5p0-9/p5p0-9/p5p0-|
|------------------------------|
|------------------------------|
|------------------------------|


  E5(type 3)
  W                                    +W
  |                                     |
  /                                     /

  \1
                      T       T         T       T       T
                      |-3--|  |-3--|    |-3--|  |-3--|  |-3--|
  Q   T  T T  T S  S  E  E E  E  E E    E  E E  E  E E  E  E E  E  E
|-0----------------------------------|-------------------------------|
|------------------------------------|-------------------------------|
|-----9h12p9h12p9h12-16p12p9-16p12p9-|-16p12p9-17p12p9-16p12p9-16h24-|
|------------------------------------|-------------------------------|
|------------------------------------|-------------------------------|
|------------------------------------|-------------------------------|


  D5                                     G5          F#5
  W           +W                           H          H
  |            |                           |          |
  /            /                           /          /

  \3
                                     ~~~~~~~~~
  W            Q      E  E  E  E  E  E    +Q    E  E  E  E  E  E
|-0---------|-17b19--17-15-17-15----15-|-(15)--------------------|
|-----------|--------------------17----|-------17----15----------|
|-----------|--------------------------|----------14----14-12-14-|
|-----------|--------------------------|-------------------------|
|-----------|--------------------------|-------------------------|
|-----------|--------------------------|-------------------------|


  E5(type 2)  D5      C5
   H           H       W
   |           |       |
   /           /       /

               ~~
   E  E  E  E  H       E     E  E     E  E     E  E     E
|-------------------|-------12-------12-------12-------12-|
|-------------------|-15b17----15b17----15b17----15b17----|
|-12----14-12-------|-------------------------------------|
|----14-------14----|-------------------------------------|
|-------------------|-------------------------------------|
|-------------------|-------------------------------------|


                       E5(type 3)
  +W                    W
   |                    |
   /                    /

                ~~
   Q      E  E  H       Q      Q      Q      Q
|-17b19--17-15-------|-----------------------------|
|--------------17----|-----------------------------|
|--------------------|-[2]b4--[2]b4--[2]b4--[2]b4--|
|--------------------|-----------------------------|
|--------------------|-----------------------------|
|--------------------|-----------------------------|


  E5(type 3)                    D5
   W                             W
   |                             |
   /                             /

                                 |---3----| |---3----|  |-3--|     |-3--|
   E    +E  E E  E    +E  E E    E    +E  E E  E    +E  E E  E    +E  E E
|-----------------------------|-------------------------------------------|
|-----------------------------|-------------------------------------------|
|-[2]b4r(2)p0---[2]b4r(2)p0---|-[2]b4r(2)p0---[2]b4r(2)p0---[2]b4r(2)p0---|
|-------------2-------------2-|-------------2-------------2-------------2-|
|-----------------------------|-------------------------------------------|
|-----------------------------|-------------------------------------------|


                        G5          F#5
  +W                     H           H
   |                     |           |
   /                     /           /

               ~
   E E E E E E E +E      E  E  E  E  E  E  E  E
|---------------------|-15-14-12----------------|
|---------------------|----------15-13-12-------|
|--4-7-5--------------|-------------------14-12-|
|--------7-5-4--------|-------------------------|
|--------------7-(7)/-|-------------------------|
|---------------------|-------------------------|


  E5(type 2)  D5            E5(type 3)
   H           H             W           +W
   |           |             |            |
   /           /             /            /

                             \7           /         |
                                                    ~~~~
   E  E  E  E  E  E  E  E    W            H.       +Q
|-------------------------|------------|-12-------(12)--||
|-------------------------|------------|-12-------(12)--||
|-14-12-------------------|------------|----------------||
|-------14-12-------------|------------|----------------||
|-------------14-13-12----|------------|----------------||
|----------------------15-|-12---------|----------------||


 Interlude
  W          W          W          W
|----------|----------|----------|------|
|----------|----------|----------|------|
|----------|----------|----------|------|
|----------|----------|----------|------|
|----------|----------|----------|------|
|----------|----------|----------|------|


    E5
    Gtr I
    W                            +W
    |                             |
    /                             /

    Gtr III
    Q   E   E   +Q     E   E     +Q     E   E   +Q     Q
||----------------------------|----------------------------|
||o--------<7>-(<7>)------<5>-|-(<5>)------<7>-(<7>)-------|
||-----<5>------------<5>-----|--------<5>------------<5>--|
||----------------------------|----------------------------|
||o---------------------------|----------------------------|
||----------------------------|----------------------------|
|
|   Gtr II
|           ~~~~~~~~~      ~~~~~~~~~~~      ~~~~~~~~~
|   Q   E   E   +Q     E   E     +Q     E   E   +Q     Q
||----------------------------|----------------------------|
||o-----8---7---(7)----8------|---------8---7---(7)----8---|
||----------------------------|----------------------------|
||-------------------------9--|--(9)-----------------------|
||o---------------------------|----------------------------|
||----------------------------|----------------------------|


  E5
  W                            +W
  |                             |
  /                             /

  Q   E   E   +Q     E   E     +Q     E   E   +Q     Q
|---------------------------|-----------------------------|
|--------<7>-(<7>)------<5>-|-(<5>)------<7>-(<7>)--------|
|----<5>------------<5>-----|--------<5>------------<7>---|
|---------------------------|-----------------------------|
|---------------------------|-----------------------------|
|---------------------------|-----------------------------|
|
|         ~~~~~~~~~      ~~~~~~~~~~~      ~~~~~~~~~
| Q   E   E   +Q     E   E     +Q     E   E   +Q     Q
|------------------------7--|--(7)------------------------|
|-----8---7---(7)----8------|---------8---7---(7)---------|
|---------------------------|------------------------7----|
|---------------------------|-----------------------------|
|---------------------------|-----------------------------|
|---------------------------|-----------------------------|


  C5
  W                            +W
  |                             |
  /                             /

  Q   E   E   +Q     E   E     +Q     E   E   +Q     Q
|---------------------------|----------------------------|
|--------<7>-(<7>)------<5>-|-(<5>)------<7>-(<7>)-------|
|----<5>------------<5>-----|--------<5>------------<5>--|
|---------------------------|----------------------------|
|---------------------------|----------------------------|
|---------------------------|----------------------------|
|
|         ~~~~~~~~~      ~~~~~~~~~~~      ~~~~~~~~~
| Q   E   E   +Q     E   E     +Q     E   E   +Q     Q
|---------------------------|----------------------------|
|-----8---7---(7)----8------|---------8---7---(7)----8---|
|---------------------------|----------------------------|
|------------------------9--|--(9)-----------------------|
|---------------------------|----------------------------|
|---------------------------|----------------------------|


 1.
  W                            +W
  |                             |
  /                             /

  Q   E   E   +Q     E   E     +Q     E   E   +Q     Q
|---------------------------|-----------------------------||
|--------<7>-(<7>)------<5>-|-(<5>)------<7>-(<7>)-------o||
|----<5>------------<5>-----|--------<5>------------<7>---||
|---------------------------|-----------------------------||
|---------------------------|----------------------------o||
|---------------------------|-----------------------------||
|
|         ~~~~~~~~~      ~~~~~~~~~~~      ~~~~~~~~~
| Q   E   E   +Q     E   E     +Q     E   E   +Q     Q
|------------------------7--|--(7)------------------------||
|-----8---7---(7)----8------|---------8---7---(7)--------o||
|---------------------------|------------------------7----||
|---------------------------|-----------------------------||
|---------------------------|----------------------------o||
|---------------------------|-----------------------------||


  2.
  C5
  Q   H.         W
  |
  /

  \7
  W             +W
|-------------|--------|
|-------------|--------|
|-------------|--------|
|-------------|--------|
|-------------|--------|
|-8-----------|-(8)----|


   Verse
    E5                          D5                      G5          F#5
    W          +H..       S S   W          +W            E  E  E  E E E E E
||-----------|----------------|----------|------------|----------------------|
||o----------|----------------|----------|------------|----------------------|
||-----------|------------x-x-|-7--------|-(7)--------|----------------------|
||--9--------|-(9)--------x-x-|-7--------|-(7)--------|----------------------|
||o-7--------|-(7)--------x-x-|-5--------|-(5)--------|-10-10-10-10-9-9-9-9--|
||--0--------|-(0)------------|----------|------------|----------------------|


                   1.
  E5      D5        C5
  E E E E E E E E   W          +W
|-----------------|----------|---------||
|-----------------|----------|--------o||
|-----------------|-5--------|-(5)-----||
|-----------------|-5--------|-(5)-----||
|-7-7-7-7-5-5-5-5-|-3--------|-(3)----o||
|-----------------|----------|---------||


  2.
   W
|-------------------------------------------------|
|-------------------------------------------------|
|--5----------------------------------------------|
|--5----------------------------------------------|
|--3----------------------------------------------|
|-------------------------------------------------|
|
| Gtr II
|  S  S  S  S  S  S  S  S  S  S  S  S  S  S  S  S
|-17p12-12-12-15p12-12-12-14p12-12-12-15p12-12-12-|
|-------------------------------------------------|
|-------------------------------------------------|
|-------------------------------------------------|
|-------------------------------------------------|
|-------------------------------------------------|


                                        E5
  +W                                    W          +H..       S S
|-------------------------------------|----------|------------------|
|-------------------------------------|----------|------------------|
|-(5)---------------------------------|----------|------------x-x---|
|-(5)---------------------------------|-9--------|-(9)--------x-x---|
|-(3)---------------------------------|-7--------|-(7)--------x-x---|
|-------------------------------------|-0--------|-(0)--------------|
|
|  S  S  S  S  S   S   S   S   Q   Q    W           W
|-14p12-12-12-20-(20)-20-(20)-20\-----|----------|------------------|
|-------------------------------------|----------|------------------|
|-------------------------------------|----------|------------------|
|-------------------------------------|----------|------------------|
|-------------------------------------|----------|------------------|
|-------------------------------------|----------|------------------|


  D5                      G           F#
  W          +W            E  E  E  E E E E E
|----------|------------|---------------------|
|----------|------------|---------------------|
|-7--------|-(7)--------|---------------------|
|-7--------|-(7)--------|---------------------|
|-5--------|-(5)--------|-10-10-10-10-9-9-9-9-|
|----------|------------|---------------------|


  E       D         C5
  E E E E E E E E   W          Q  Q  E E E E
|-----------------|----------|----------------||
|-----------------|----------|----------------||
|-----------------|-5--------|-5--------------||
|-----------------|-5--------|-5-----------0--||
|-7-7-7-7-5-5-5-5-|-3--------|-3-----0-2-3----||
|-----------------|----------|----------------||


   Out-Chorus
    E5(type 3)         D5               C5           E5(type 3)
    Gtr I
    H..                E   +H           H            W          +W
    |                  |    |           |            |           |
    /                  /    /           /            /           /

    E    E   Q   +Q.   E   +E   E   Q   E  E   Q     W          +W
||-----------------------|-------------------------|----------|--------|
||o----------------------|-------------------------|----------|--------|
||-----------------------|-------------------------|----------|--------|
||--9h==10---9---(9)---7-|-(7)h=9---7---5h=7---5---|-9--------|-(9)----|
||o-7---(7)-(7)--(7)---5-|-(5)-(5)-(5)--3-(3)-(3)--|-7--------|-(7)----|
||-----------------------|-------------------------|----------|--------|


  E5(type 3)         D5               C5           E5(type 3)       C5 D5
  H..                E   +H           H            W          +H    Q  Q
  |                  |    |           |            |           |    |  |
  /                  /    /           /            /           /    /  /

  E    E   Q   +Q.   E   +E   E   Q   E  E   Q     W           H    Q  Q   4x
|----------------------|-------------------------|----------|--------------||
|----------------------|-------------------------|----------|-------------o||
|----------------------|-------------------------|----------|--------------||
|-9h==10---9---(9)---7-|-(7)h=9---7---5h=7---5---|-9--------|--9----5--7---||
|-7---(7)-(7)--(7)---5-|-(5)-(5)-(5)--3-(3)-(3)--|-7--------|--7----3--5--o||
|----------------------|-------------------------|----------|--------------||



Duration Legend
---------------
W - whole; H - half; Q - quarter; E - 8th; S - 16th; T - 32nd; X - 64th; a - acciaccatura
+ - note tied to previous; . - note dotted; .. - note double dotted
Uncapitalized letters represent notes that are staccato (1/2 duration)
Irregular groupings are notated above the duration line
Duration letters will always appear directly above the note/fret number it represents the
duration for.  Duration letters with no fret number below them represent rests.  Multi-
bar rests are notated in the form Wxn, where n is the number of bars to rest for.  Low
melody durations appear below the staff

Tablature Legend
----------------
 h   - hammer-on
 p   - pull-off
 b   - bend
 pb  - pre-bend
 r   - bend release (if no number after the r, then release immediately)
 /\  - slide into or out of (from/to "nowhere")
 s   - legato slide
 S   - shift slide
<n> - natural harmonic
[n]  - artificial harmonic
n(n) - tapped harmonic
 ~   - vibrato
 tr  - trill
 T   - tap
 TP  - trem. picking
 PM  - palm muting
\n/  - tremolo bar dip; n = amount to dip
 \n  - tremolo bar down
 n/  - tremolo bar up
/n\  - tremolo bar inverted dip
 =   - hold bend; also acts as connecting device for hammers/pulls
 <> - volume swell (louder/softer)
 x   - on rhythm slash represents muted slash
 o   - on rhythm slash represents single note slash

Misc Legend
-----------
 |  - bar
||  - double bar
||o - repeat start
o|| - repeat end
*|  - double bar (ending)
 :  - bar (freetime)
 $  - Segno
 &  - Coda
Tempo markers - <E/E./Q/Q./H/H.> = BPM(8/16=s8/s16), where s8 = swing 8ths, s16 = swing 16ths

comments
We did not receive enough feedback on this tab! Please rate:
print report bad tab
1 2 3 4 5
3 comments total.
0 reply
CommanderBrave wrote on January 13 2009, 04:43 pm

this tab is so bad arranged.
cant tell where to play what parts.

0 reply
isabiggles wrote on August 20 2009, 07:27 am

Agreed, it's accurate but impossible to read, recommend you change it.

0 reply
The Fourth wrote on August 10 2014, 07:08 am

Lack of formatting.

I want to post or [tab]
guest
You may want to rate the tab now too:
select rating
Please do not post tabs as comments. Select "correction" instead!