Oops, an error
Loading. Please wait.

Kings Of Metal Tab

ver1
ver1

Album

Whole song

Interactive

More versions @911Tabs.com
6,430 views 42 this week
2 commentsread comments
1 2 3 4 5
worth learning
x 3
Autoscroll
+/-
esc
set tempo
stop
Contributor
NEW! There's an official Ultimate Guitar app which is ideal
for learning songs when you're away from computer. Get the app
WARNING: You are trying to view
                                    content from Ultimate-Guitar.com
                                    in an unauthorized application,
                                    which is prohibited.

                                    Please use an official Ultimate
                                    Guitar Tabs application for iPhone,
                                    iPad or Android to access legitimate
                                    chords, guitar, bass, and drum tabs
                                    from Ultimate-Guitar.com database.

                                    Type "ultimate guitar tabs" in Apple
                                    App Store's or Android Market's
                                    search to find the application.
Manowar - Kings of Metal Album Tabs
Collected by ironmaidendude

Hi! I collected some tabs to make this album tab collection. There are usernames of 
who made these tabs

Tabs:
1) Wheels of Fire - tabbed by Mastol
2) Kings of Metal - tabbed by unregistered
3) Heart of Steel - tabbed by unregistered
4) Sting of the Bumblebee - tabbed by MAIDENAUS0526
6) Kingdom Come - tabbed by unregistered
7) Pleasure Slave - tabbed by unregistered
8) Hail and Kill - tabbed by unregistered
10) Blood of the Kings - tabbed by ozbath

P.S. There are no tracks 5) 'The Crown and The Ring' and 9) 'The Warrior's Prayer', 'cos 
has no guitar and TWP is storytelling track.


1) Wheels of Fire

     E  S S S S S S E  S S S S S S    E  S S S S S S E  E  E  E
E||--------------------------------|-----------------------------|
B||--------------------------------|-----------------------------|
G||--------------------------------|-----------------------------|
D||--5--------------5--------------|--5--------------------------|
A||--5--------------5--------------|--5--------------------------|
E||--3--0-0-0-0-0-0-3--0-0-0-0-0-0-|--3--0-0-0-0-0-0-6--5--3--0--|


  E  S S S S S S E  S S S S S S    E  S S S S S S E  E  E  E
--------------------------------|-----------------------------|
--------------------------------|-----------------------------|
--------------------------------|-----------------------------|
--5--------------5--------------|--5--------------------------|
--5--------------5--------------|--5--------------------------|
--3--0-0-0-0-0-0-3--0-0-0-0-0-0-|--3--0-0-0-0-0-0-6--5--3--0--|


  E  S S S S S S E  S S S S S S    E  S S S S S S E  E  E  E
--------------------------------|-----------------------------|
--------------------------------|-----------------------------|
--------------------------------|-----------------------------|
--5--------------5--------------|--5--------------------------|
--5--------------5--------------|--5--------------------------|
--3--0-0-0-0-0-0-3--0-0-0-0-0-0-|--3--0-0-0-0-0-0-6--5--3--0--|


  E  S S S S S S E  S S S S S S    H        H
--------------------------------|--------------------|
--------------------------------|--------------------|
--------------------------------|--4--------L--------|
--5--------------5--------------|--4--------L--------|
--5--------------5--------------|--2--------L--------|
--3--0-0-0-0-0-0-3--0-0-0-0-0-0-|--------------------|


  S S S S S S S S S S S S S S S S    S S S S S S S S S S S S S S S S
----------------------------------|----------------------------------|
----------------------------------|----------------------------------|
----------------------------------|----------------------------------|
----------------------------------|----------------------------------|
----------------------------------|----------------------------------|
--0-0-0-0-0-0-0-0-0-0-0-0-0-0-0-0-|--0-0-0-0-0-0-0-0-0-0-0-0-0-0-0-0-|


  S S S S S S S S S S S S S S S S    S S S S S S S S S S S S S S S S
----------------------------------|----------------------------------|
----------------------------------|----------------------------------|
----------------------------------|----------------------------------|
----------------------------------|----------------------------------|
----------------------------------|----------------------------------|
--0-0-0-0-0-0-0-0-0-0-0-0-0-0-0-0-|--0-0-0-0-0-0-0-0-0-0-0-0-0-0-0-0-|


  S S S S S S S S S S S S S S S S    S S S S S S S S S S S S S S S S
----------------------------------|----------------------------------|
----------------------------------|----------------------------------|
----------------------------------|----------------------------------|
----------------------------------|----------------------------------|
----------------------------------|----------------------------------|
--0-0-0-0-0-0-0-0-0-0-0-0-0-0-0-0-|--0-0-0-0-0-0-0-0-0-0-0-0-0-0-0-0-|


  S S S S S S S S S S S S S S S S    S S S S S S S S S S S S S S S S
----------------------------------|----------------------------------|
----------------------------------|----------------------------------|
----------------------------------|----------------------------------|
----------------------------------|----------------------------------|
----------------------------------|----------------------------------|
--3-3-3-3-3-3-3-3-3-3-3-3-3-3-3-3-|--7-7-7-7-7-7-7-7-7-7-7-7-7-7-7-7-|


  S S S S S S S S S S S S S S S S    S S S S S S S S S S S S S S S S
----------------------------------|----------------------------------|
----------------------------------|----------------------------------|
----------------------------------|----------------------------------|
----------------------------------|----------------------------------|
----------------------------------|----------------------------------|
--0-0-0-0-0-0-0-0-0-0-0-0-0-0-0-0-|--0-0-0-0-0-0-0-0-0-0-0-0-0-0-0-0-|


  H        H           H        H           H        H
--------------------|--------------------|--------------------|
--------------------|--------------------|--------------------|
-----------5--------|-----------7--------|-----------5--------|
--2--------5--------|--5--------7--------|--2--------5--------|
--2--------3--------|--5--------5--------|--2--------3--------|
--0-----------------|--3-----------------|--0-----------------|


  W                   H        H           H        H
-------------------|--------------------|--------------------|
-------------------|--------------------|--------------------|
--7----------------|-----------5--------|-----------7--------|
--7----------------|--2--------5--------|--5--------7--------|
--5----------------|--2--------3--------|--5--------5--------|
-------------------|--0-----------------|--3-----------------|


  H        H           W                   W
--------------------|-------------------|-------------------|
--------------------|-------------------|-------------------|
-----------5--------|--7----------------|--4----------------|
--2--------5--------|--7----------------|--4----------------|
--2--------3--------|--5----------------|--2----------------|
--0-----------------|-------------------|-------------------|


  S S S S S S S S S S S S S S S S    S S S S S S S S S S S S S S S S
----------------------------------|----------------------------------|
----------------------------------|----------------------------------|
----------------------------------|----------------------------------|
----------------------------------|----------------------------------|
----------------------------------|----------------------------------|
--0-0-0-0-0-0-0-0-0-0-0-0-0-0-0-0-|--0-0-0-0-0-0-0-0-0-0-0-0-0-0-0-0-|


  S S S S S S S S S S S S S S S S    S S S S S S S S S S S S Q
----------------------------------|-------------------------------|
----------------------------------|-------------------------------|
----------------------------------|-------------------------------|
----------------------------------|--------------------------5----|
----------------------------------|--------------------------5----|
--0-0-0-0-0-0-0-0-0-0-0-0-0-0-0-0-|--0-0-0-0-0-0-0-0-0-0-0-0-3----|


  S S S S S S S S S S S S S S S S    S S S S S S S S S S S S S S S S
----------------------------------|----------------------------------|
----------------------------------|----------------------------------|
----------------------------------|----------------------------------|
----------------------------------|----------------------------------|
----------------------------------|----------------------------------|
--0-0-0-0-0-0-0-0-0-0-0-0-0-0-0-0-|--0-0-0-0-0-0-0-0-0-0-0-0-0-0-0-0-|


  S S S S S S S S S S S S S S S S    S S S S S S S S S S S S Q
----------------------------------|-------------------------------|
----------------------------------|-------------------------------|
----------------------------------|-------------------------------|
----------------------------------|--------------------------3----|
----------------------------------|--------------------------3----|
--0-0-0-0-0-0-0-0-0-0-0-0-0-0-0-0-|--0-0-0-0-0-0-0-0-0-0-0-0-1----|


  S S S S S S S S S S S S S S S S    S S S S S S S S S S S S S S S S
----------------------------------|----------------------------------|
----------------------------------|----------------------------------|
----------------------------------|----------------------------------|
----------------------------------|----------------------------------|
----------------------------------|----------------------------------|
--0-0-0-0-0-0-0-0-0-0-0-0-0-0-0-0-|--0-0-0-0-0-0-0-0-0-0-0-0-0-0-0-0-|


  S S S S S S S S S S S S S S S S    S S S S S S S S S S S S Q
----------------------------------|-------------------------------|
----------------------------------|-------------------------------|
----------------------------------|-------------------------------|
----------------------------------|--------------------------5----|
----------------------------------|--------------------------5----|
--0-0-0-0-0-0-0-0-0-0-0-0-0-0-0-0-|--0-0-0-0-0-0-0-0-0-0-0-0-3----|


  S S S S S S S S S S S S S S S S    S S S S S S S S S S S S S S S S
----------------------------------|----------------------------------|
----------------------------------|----------------------------------|
----------------------------------|----------------------------------|
----------------------------------|----------------------------------|
----------------------------------|----------------------------------|
--0-0-0-0-0-0-0-0-0-0-0-0-0-0-0-0-|--0-0-0-0-0-0-0-0-0-0-0-0-0-0-0-0-|


  S S S S S S S S S S S S S S S S    S S S S S S S S S S S S S S S S
----------------------------------|----------------------------------|
----------------------------------|----------------------------------|
----------------------------------|----------------------------------|
----------------------------------|----------------------------------|
----------------------------------|----------------------------------|
--3-3-3-3-3-3-3-3-3-3-3-3-3-3-3-3-|--7-7-7-7-7-7-7-7-7-7-7-7-7-7-7-7-|


  S S S S S S S S S S S S S S S S    S S S S S S S S S S S S S S S S
----------------------------------|----------------------------------|
----------------------------------|----------------------------------|
----------------------------------|----------------------------------|
----------------------------------|----------------------------------|
----------------------------------|----------------------------------|
--0-0-0-0-0-0-0-0-0-0-0-0-0-0-0-0-|--0-0-0-0-0-0-0-0-0-0-0-0-0-0-0-0-|


  H        H           H        H           H        H
--------------------|--------------------|--------------------|
--------------------|--------------------|--------------------|
-----------5--------|-----------7--------|-----------5--------|
--2--------5--------|--5--------7--------|--2--------5--------|
--2--------3--------|--5--------5--------|--2--------3--------|
--0-----------------|--3-----------------|--0-----------------|


  W                   H        H           H        H
-------------------|--------------------|--------------------|
-------------------|--------------------|--------------------|
--7----------------|-----------5--------|-----------7--------|
--7----------------|--2--------5--------|--5--------7--------|
--5----------------|--2--------3--------|--5--------5--------|
-------------------|--0-----------------|--3-----------------|


  H        H           W                   W
--------------------|-------------------|-------------------|
--------------------|-------------------|-------------------|
-----------5--------|--7----------------|--4----------------|
--2--------5--------|--7----------------|--4----------------|
--2--------3--------|--5----------------|--2----------------|
--0-----------------|-------------------|-------------------|


  S S S S S S S S S S S S S S S S    S S S S S S S S S S S S S S S S
----------------------------------|----------------------------------|
----------------------------------|----------------------------------|
----------------------------------|----------------------------------|
----------------------------------|----------------------------------|
----------------------------------|----------------------------------|
--0-0-0-0-0-0-0-0-0-0-0-0-0-0-0-0-|--0-0-0-0-0-0-0-0-0-0-0-0-0-0-0-0-|


  S S S S S S S S S S S S S S S S    S S S S S S S S S S S S Q
----------------------------------|-------------------------------|
----------------------------------|-------------------------------|
----------------------------------|-------------------------------|
----------------------------------|--------------------------5----|
----------------------------------|--------------------------5----|
--0-0-0-0-0-0-0-0-0-0-0-0-0-0-0-0-|--0-0-0-0-0-0-0-0-0-0-0-0-3----|


  S S S S S S S S S S S S S S S S    S S S S S S S S S S S S S S S S
----------------------------------|----------------------------------|
----------------------------------|----------------------------------|
----------------------------------|----------------------------------|
----------------------------------|----------------------------------|
----------------------------------|----------------------------------|
--0-0-0-0-0-0-0-0-0-0-0-0-0-0-0-0-|--0-0-0-0-0-0-0-0-0-0-0-0-0-0-0-0-|


  S S S S S S S S S S S S S S S S    S S S S S S S S S S S S Q
----------------------------------|-------------------------------|
----------------------------------|-------------------------------|
----------------------------------|-------------------------------|
----------------------------------|--------------------------3----|
----------------------------------|--------------------------3----|
--0-0-0-0-0-0-0-0-0-0-0-0-0-0-0-0-|--0-0-0-0-0-0-0-0-0-0-0-0-1----|


  S S S S S S S S S S S S S S S S    S S S S S S S S S S S S S S S S
----------------------------------|----------------------------------|
----------------------------------|----------------------------------|
----------------------------------|----------------------------------|
----------------------------------|----------------------------------|
----------------------------------|----------------------------------|
--0-0-0-0-0-0-0-0-0-0-0-0-0-0-0-0-|--0-0-0-0-0-0-0-0-0-0-0-0-0-0-0-0-|


  S S S S S S S S S S S S S S S S    S S S S S S S S S S S S Q
----------------------------------|-------------------------------|
----------------------------------|-------------------------------|
----------------------------------|-------------------------------|
----------------------------------|--------------------------5----|
----------------------------------|--------------------------5----|
--0-0-0-0-0-0-0-0-0-0-0-0-0-0-0-0-|--0-0-0-0-0-0-0-0-0-0-0-0-3----|


  S S S S S S S S S S S S S S S S    S S S S S S S S S S S S S S S S
----------------------------------|----------------------------------|
----------------------------------|----------------------------------|
----------------------------------|----------------------------------|
----------------------------------|----------------------------------|
----------------------------------|----------------------------------|
--0-0-0-0-0-0-0-0-0-0-0-0-0-0-0-0-|--0-0-0-0-0-0-0-0-0-0-0-0-0-0-0-0-|


  S S S S S S S S S S S S S S S S    S S S S S S S S S S S S S S S S
----------------------------------|----------------------------------|
----------------------------------|----------------------------------|
----------------------------------|----------------------------------|
----------------------------------|----------------------------------|
----------------------------------|----------------------------------|
--3-3-3-3-3-3-3-3-3-3-3-3-3-3-3-3-|--7-7-7-7-7-7-7-7-7-7-7-7-7-7-7-7-|


  S S S S S S S S S S S S S S S S    S S S S S S S S S S S S S S S S
----------------------------------|----------------------------------|
----------------------------------|----------------------------------|
----------------------------------|----------------------------------|
----------------------------------|----------------------------------|
----------------------------------|----------------------------------|
--0-0-0-0-0-0-0-0-0-0-0-0-0-0-0-0-|--0-0-0-0-0-0-0-0-0-0-0-0-0-0-0-0-|


  H        H           H        H           H        H
--------------------|--------------------|--------------------|
--------------------|--------------------|--------------------|
-----------5--------|-----------7--------|-----------5--------|
--2--------5--------|--5--------7--------|--2--------5--------|
--2--------3--------|--5--------5--------|--2--------3--------|
--0-----------------|--3-----------------|--0-----------------|


  W                   H        H           H        H
-------------------|--------------------|--------------------|
-------------------|--------------------|--------------------|
--7----------------|-----------5--------|-----------7--------|
--7----------------|--2--------5--------|--5--------7--------|
--5----------------|--2--------3--------|--5--------5--------|
-------------------|--0-----------------|--3-----------------|


  H        H           W                   W
--------------------|-------------------|-------------------|
--------------------|-------------------|-------------------|
-----------5--------|--7----------------|--4----------------|
--2--------5--------|--7----------------|--4----------------|
--2--------3--------|--5----------------|--2----------------|
--0-----------------|-------------------|-------------------|


  S S S S E  E  S S S S E  E     W
------------------------------|-------------------|
------------------------------|-------------------|
------------------------------|-------------------|
------------------------------|-------------------|
------------------------------|-------------------|
--0-0-0-0-0--0--0-0-0-0-0--0--|-------------------|


  S S S S E  E  S S S S E  E     W
------------------------------|-------------------|
------------------------------|-------------------|
------------------------------|-------------------|
------------------------------|-------------------|
------------------------------|-------------------|
--0-0-0-0-0--0--0-0-0-0-0--0--|-------------------|


  S S S S S S S S S S S S S S S S    E  E  E  E  E  E  E  E
----------------------------------|--------------------------|
----------------------------------|--------------------------|
----------------------------------|--------------------------|
----------------------------------|--------------------------|
----------------------------------|--------------------------|
--0-0-0-0-0-0-0-0-0-0-0-0-0-0-0-0-|--3--2--0--3--2--0--3--0--|


  S S S S S S S S S S S S S S S S    E  E  E  E  E  E  E  E
----------------------------------|--------------------------|
----------------------------------|--------------------------|
----------------------------------|--------------------------|
----------------------------------|--------------------------|
----------------------------------|--------------------------|
--0-0-0-0-0-0-0-0-0-0-0-0-0-0-0-0-|--3--2--0--3--2--0--3--0--|


  S S S S S S S S S S S S S S S S    E  E  E  E  E  E  E  E
----------------------------------|--------------------------|
----------------------------------|--------------------------|
----------------------------------|--------------------------|
----------------------------------|--------------------------|
----------------------------------|--------------------------|
--0-0-0-0-0-0-0-0-0-0-0-0-0-0-0-0-|--3--2--0--3--2--0--3--0--|


  S S S S S S S S S S S S S S S S    E  E  E  E  E  E  E  E
----------------------------------|--------------------------|
----------------------------------|--------------------------|
----------------------------------|--------------------------|
----------------------------------|--------------------------|
----------------------------------|--------------------------|
--0-0-0-0-0-0-0-0-0-0-0-0-0-0-0-0-|--3--2--0--3--2--0--3--0--|


  S S S S S S S S S S S S S S S S    S S S S S S S S S S S S S S S S
----------------------------------|----------------------------------|
----------------------------------|----------------------------------|
----------------------------------|----------------------------------|
----------------------------------|----------------------------------|
----------------------------------|----------------------------------|
--3-3-3-3-3-3-3-3-3-3-3-3-3-3-3-3-|--7-7-7-7-7-7-7-7-7-7-7-7-7-7-7-7-|


  S S S S S S S S S S S S S S S S    S S S S S S S S S S S S S S S S
----------------------------------|----------------------------------|
----------------------------------|----------------------------------|
----------------------------------|----------------------------------|
----------------------------------|----------------------------------|
----------------------------------|----------------------------------|
--0-0-0-0-0-0-0-0-0-0-0-0-0-0-0-0-|--0-0-0-0-0-0-0-0-0-0-0-0-0-0-0-0-|


  E  E  E  E  E  E  E  E     S S S S S S S S S S S S S S S S
--------------------------|----------------------------------|
--------------------------|----------------------------------|
--------------------------|----------------------------------|
--------------------------|----------------------------------|
--------------------------|----------------------------------|
--3--2--0--3--2--0--3--0--|--0-0-0-0-0-0-0-0-0-0-0-0-0-0-0-0-|


  E  E  E  E  E  E  E  E     S S S S S S S S S S S S S S S S
--------------------------|----------------------------------|
--------------------------|----------------------------------|
--------------------------|----------------------------------|
--------------------------|----------------------------------|
--------------------------|----------------------------------|
--3--2--0--3--2--0--3--0--|--0-0-0-0-0-0-0-0-0-0-0-0-0-0-0-0-|


  E  E  E  E  E  E  E  E     S S S S S S S S S S S S S S S S
--------------------------|----------------------------------|
--------------------------|----------------------------------|
--------------------------|----------------------------------|
--------------------------|----------------------------------|
--------------------------|----------------------------------|
--3--2--0--3--2--0--3--0--|--0-0-0-0-0-0-0-0-0-0-0-0-0-0-0-0-|


  E  E  E  E  E  E  E  E     S S S S S S S S S S S S S S S S
--------------------------|----------------------------------|
--------------------------|----------------------------------|
--------------------------|----------------------------------|
--------------------------|----------------------------------|
--------------------------|----------------------------------|
--3--2--0--3--2--0--3--0--|--3-3-3-3-3-3-3-3-3-3-3-3-3-3-3-3-|


  S S S S S S S S S S S S S S S S    S S S S S S S S S S S S S S S S
----------------------------------|----------------------------------|
----------------------------------|----------------------------------|
----------------------------------|----------------------------------|
----------------------------------|----------------------------------|
----------------------------------|----------------------------------|
--7-7-7-7-7-7-7-7-7-7-7-7-7-7-7-7-|--0-0-0-0-0-0-0-0-0-0-0-0-0-0-0-0-|


  S S S S S S S S S S S S S S S S    E  E  E  E  E  E  E  E
----------------------------------|--------------------------|
----------------------------------|--------------------------|
----------------------------------|--------------------------|
----------------------------------|--------------------------|
----------------------------------|--------------------------|
--0-0-0-0-0-0-0-0-0-0-0-0-0-0-0-0-|--3--2--0--3--2--0--3--0--|


  S S S S S S S S S S S S S S S S    E  E  E  E  E  E  E  E
----------------------------------|--------------------------|
----------------------------------|--------------------------|
----------------------------------|--------------------------|
----------------------------------|--------------------------|
----------------------------------|--------------------------|
--0-0-0-0-0-0-0-0-0-0-0-0-0-0-0-0-|--3--2--0--3--2--0--3--0--|


  S S S S S S S S S S S S S S S S    E  E  E  E  E  E  E  E
----------------------------------|--------------------------|
----------------------------------|--------------------------|
----------------------------------|--------------------------|
----------------------------------|--------------------------|
----------------------------------|--------------------------|
--0-0-0-0-0-0-0-0-0-0-0-0-0-0-0-0-|--3--2--0--3--2--0--3--0--|


  S S S S S S S S S S S S S S S S    E  E  E  E  E  E  E  E
----------------------------------|--------------------------|
----------------------------------|--------------------------|
----------------------------------|--------------------------|
----------------------------------|--------------------------|
----------------------------------|--------------------------|
--0-0-0-0-0-0-0-0-0-0-0-0-0-0-0-0-|--3--2--0--3--2--0--3--0--|


  S S S S S S S S S S S S S S S S    S S S S S S S S S S S S S S S S
----------------------------------|----------------------------------|
----------------------------------|----------------------------------|
----------------------------------|----------------------------------|
----------------------------------|----------------------------------|
----------------------------------|----------------------------------|
--3-3-3-3-3-3-3-3-3-3-3-3-3-3-3-3-|--7-7-7-7-7-7-7-7-7-7-7-7-7-7-7-7-|


  S S S S S S S S S S S S S S S S    S S S S S S S S S S S S S S S S
----------------------------------|----------------------------------|
----------------------------------|----------------------------------|
----------------------------------|----------------------------------|
----------------------------------|----------------------------------|
----------------------------------|----------------------------------|
--0-0-0-0-0-0-0-0-0-0-0-0-0-0-0-0-|--0-0-0-0-0-0-0-0-0-0-0-0-0-0-0-0-|


  S S S S S S S S S S S S S S S S    S S S S S S S S S S S S Q
----------------------------------|-------------------------------|
----------------------------------|-------------------------------|
----------------------------------|-------------------------------|
----------------------------------|--------------------------5----|
----------------------------------|--------------------------5----|
--0-0-0-0-0-0-0-0-0-0-0-0-0-0-0-0-|--0-0-0-0-0-0-0-0-0-0-0-0-3----|


  S S S S S S S S S S S S S S S S    S S S S S S S S S S S S S S S S
----------------------------------|----------------------------------|
----------------------------------|----------------------------------|
----------------------------------|----------------------------------|
----------------------------------|----------------------------------|
----------------------------------|----------------------------------|
--0-0-0-0-0-0-0-0-0-0-0-0-0-0-0-0-|--0-0-0-0-0-0-0-0-0-0-0-0-0-0-0-0-|


  S S S S S S S S S S S S S S S S    S S S S S S S S S S S S Q
----------------------------------|-------------------------------|
----------------------------------|-------------------------------|
----------------------------------|-------------------------------|
----------------------------------|--------------------------3----|
----------------------------------|--------------------------3----|
--0-0-0-0-0-0-0-0-0-0-0-0-0-0-0-0-|--0-0-0-0-0-0-0-0-0-0-0-0-1----|


  S S S S S S S S S S S S S S S S    S S S S S S S S S S S S S S S S
----------------------------------|----------------------------------|
----------------------------------|----------------------------------|
----------------------------------|----------------------------------|
----------------------------------|----------------------------------|
----------------------------------|----------------------------------|
--0-0-0-0-0-0-0-0-0-0-0-0-0-0-0-0-|--0-0-0-0-0-0-0-0-0-0-0-0-0-0-0-0-|


  S S S S S S S S S S S S S S S S    S S S S S S S S S S S S Q
----------------------------------|-------------------------------|
----------------------------------|-------------------------------|
----------------------------------|-------------------------------|
----------------------------------|--------------------------5----|
----------------------------------|--------------------------5----|
--0-0-0-0-0-0-0-0-0-0-0-0-0-0-0-0-|--0-0-0-0-0-0-0-0-0-0-0-0-3----|


  S S S S S S S S S S S S S S S S    S S S S S S S S S S S S S S S S
----------------------------------|----------------------------------|
----------------------------------|----------------------------------|
----------------------------------|----------------------------------|
----------------------------------|----------------------------------|
----------------------------------|----------------------------------|
--0-0-0-0-0-0-0-0-0-0-0-0-0-0-0-0-|--0-0-0-0-0-0-0-0-0-0-0-0-0-0-0-0-|


  S S S S S S S S S S S S S S S S    S S S S S S S S S S S S S S S S
----------------------------------|----------------------------------|
----------------------------------|----------------------------------|
----------------------------------|----------------------------------|
----------------------------------|----------------------------------|
----------------------------------|----------------------------------|
--3-3-3-3-3-3-3-3-3-3-3-3-3-3-3-3-|--7-7-7-7-7-7-7-7-7-7-7-7-7-7-7-7-|


  S S S S S S S S S S S S S S S S    S S S S S S S S S S S S S S S S
----------------------------------|----------------------------------|
----------------------------------|----------------------------------|
----------------------------------|----------------------------------|
----------------------------------|----------------------------------|
----------------------------------|----------------------------------|
--0-0-0-0-0-0-0-0-0-0-0-0-0-0-0-0-|--0-0-0-0-0-0-0-0-0-0-0-0-0-0-0-0-|


  H        H           H        H           H        H
--------------------|--------------------|--------------------|
--------------------|--------------------|--------------------|
-----------5--------|-----------7--------|-----------5--------|
--2--------5--------|--5--------7--------|--2--------5--------|
--2--------3--------|--5--------5--------|--2--------3--------|
--0-----------------|--3-----------------|--0-----------------|


  W                   H        H           H        H
-------------------|--------------------|--------------------|
-------------------|--------------------|--------------------|
--7----------------|-----------5--------|-----------7--------|
--7----------------|--2--------5--------|--5--------7--------|
--5----------------|--2--------3--------|--5--------5--------|
-------------------|--0-----------------|--3-----------------|


  H        H           W                   H        H
--------------------|-------------------|--------------------|
--------------------|-------------------|--------------------|
-----------5--------|--7----------------|-----------5--------|
--2--------5--------|--7----------------|--2--------5--------|
--2--------3--------|--5----------------|--2--------3--------|
--0-----------------|-------------------|--0-----------------|


  H        H           H        H           W
--------------------|--------------------|-------------------|
--------------------|--------------------|-------------------|
-----------7--------|-----------5--------|--7----------------|
--5--------7--------|--2--------5--------|--7----------------|
--5--------5--------|--2--------3--------|--5----------------|
--3-----------------|--0-----------------|-------------------|


  H        H           H        H           H        H
--------------------|--------------------|--------------------|
--------------------|--------------------|--------------------|
-----------5--------|-----------7--------|-----------5--------|
--2--------5--------|--5--------7--------|--2--------5--------|
--2--------3--------|--5--------5--------|--2--------3--------|
--0-----------------|--3-----------------|--0-----------------|


  W                   W                   E  S S S S S S E  S S S S S S
-------------------|-------------------|--------------------------------|
-------------------|-------------------|--------------------------------|
--7----------------|--4----------------|--------------------------------|
--7----------------|--4----------------|--5--------------5--------------|
--5----------------|--2----------------|--5--------------5--------------|
-------------------|-------------------|--3--0-0-0-0-0-0-3--0-0-0-0-0-0-|


  E  S S S S S S E  E  E  E     E  S S S S S S E  S S S S S S
-----------------------------|--------------------------------|
-----------------------------|--------------------------------|
-----------------------------|--------------------------------|
--5--------------------------|--5--------------5--------------|
--5--------------------------|--5--------------5--------------|
--3--0-0-0-0-0-0-6--5--3--0--|--3--0-0-0-0-0-0-3--0-0-0-0-0-0-|


  E  S S S S S S E  E  E  E     E  S S S S S S E  S S S S S S
-----------------------------|--------------------------------|
-----------------------------|--------------------------------|
-----------------------------|--------------------------------|
--5--------------------------|--5--------------5--------------|
--5--------------------------|--5--------------5--------------|
--3--0-0-0-0-0-0-6--5--3--0--|--3--0-0-0-0-0-0-3--0-0-0-0-0-0-|


  E  S S S S S S E  E  E  E     S S S S E  E  S S S S E  E
-----------------------------|------------------------------|
-----------------------------|------------------------------|
-----------------------------|------------------------------|
--5--------------------------|------------------------------|
--5--------------------------|------------------------------|
--3--0-0-0-0-0-0-6--5--3--0--|--0-0-0-0-0--0--0-0-0-0-0--0--|


  W                   S S S S E  E  S S S S E  E     W
-------------------|------------------------------|-------------------||
-------------------|------------------------------|-------------------||
-------------------|------------------------------|-------------------||
-------------------|------------------------------|-------------------||
-------------------|------------------------------|-------------------||
-------------------|--0-0-0-0-0--0--0-0-0-0-0--0--|-------------------||


2) Kings of Metal

Riff1:
------

G  e -------3--2--------- |
U  B -------3--3--------- |
I  G -------0--2--------- |
T  D -2-----0--0--------- |
A  A -2------------------ |
R  E -0------------------ |
1

G  e -------------------- |
U  B -------------------- |
I  G -------------------- |
T  D -9-----12-7--------- |
A  A -7-----10-5--------- |
R  E -0------------------ |
2


Riff2:
------

G  e --------------------3--2--------------- |
U  B --------------------3--3--------------- |
I  G --------------------0--2--------------- |
T  D -2-----2------------0--0--2------------ |
A  A -2-----2--5--5 / 7--------2------------ |
R  E -0-----0--3--3 / 5--------0------------ |
1

G  e --------------------------------------- |
U  B --------------------------------------- |
I  G --------------------------------------- |
T  D -9-----9--12-12/ 14-14-7--9------------ |
A  A -7-----7--10-10/ 12-12-5--7------------ |
R  E -0------------------------------------- |
2


Riff3:
------

G  e ------------------------------------------------- |
U  B ------------------------------------------------- |
I  G -2--------8p7--------8p7--------8p7--2----------- |
T  D -2--------7----------7----------7----2----------- |
A  A -0--0000-------0000-------0000-------0----------- |
R  E ------------------------------------------------- |
1        PM-|       PM-|       PM-|

G  e ------------------------------------------------- |
U  B ------------------------------------------------- |
I  G -9-----------------------------------2----------- |
T  D -7-----------------------------------2----------- |
A  A -0-----------------------------------0----------- |
R  E ------------------------------------------------- |
2

Riff4:
------

e ---------------------------------------------- |
B ---------------------------------------------- |
G ---------------------------------------------- |
D --9--------12---------14--------9------------- |
A --7--------10---------12--------7------------- |
E ---------------------------------------------- |

Riff5:
------

e ---------------------------------------------- |
B ---------------------------------------------- |
G ---------------------------------------------- |
D --2--------7--------2--------7---------------- |
A --2--------7--------2--------7---------------- |
E --0--------5--------0--------5---------------- |


Lyrics:
-------
[Riff 1]
Manowar Manowar Living On the Road
[Riff 2]
When We're In Town Speakers Explode
[Riff 2]
We Don't Attract Wimps 'Cause We're Too Loud
[Riff 3]
Just True Metal People That's Manowar's Croud
[Riff 2]

w/ [Riff 4] (2x)
They Wanna Keep Us Down
But They Can't Last
When We Get Up We 're Gonna Kick Your Ass
Gonna Keep On Burnin'
We Always Will
Other Bands Play Manowar Kill
Other Bands Play Manowar Kill


w/ [same as above]

We Like It Hard, We Like It Fast
We Got The Biggest Amp, Man They Blast
True Metal People Wanna Rock Not Pose
Wearin' Jeans And Leather,Not Cracker Jack Clothes

They Wanna Keep Us Down
But They Can't Last
When We Get Up When
We 're Gonna Kick Your Ass
Gonna Keep On Burnin'
We Always Will
Other Bands Play Manowar Kill
Other Bands Play Manowar Kill

[Solo] w/ [Riff 5]

We're The Kings Of Metal Comin' To Town
When We Light Up, Have The Roof Nailed Down
Don't Try To Tell Us That We're Too Loud
'Cause There Ain't No Way That We Ever Turn Down

They Wanna Keep Us Down
But They Can't Last
When We Get Up When We 're Gonna Kick Your Ass
Gonna Keep On Burnin'
We Always Will
Other Bands Play Manowar Kill

w/ [Riff 5]

We're The Kings Of Metal Kick Your Ass
Comin' To Town Manowar Kills


3) Heart of Steel

  Bm                                   A       F#m      Bm
Build a fire a thousand miles away to light my long way home
                                          A                  Bm
I ride a comet my trail is long to stay, silence is a heavy stone

D              E        Bm
  I fight the world and take all they can give
           D         A          Bm
There are times my heart hangs low
 D              E              Bm
Born to walk against the wind, born to hear my name
    D               A         Bm      C#m
No matter where I stand I'm alone

F#m           D     E             A
   Stand and fight live by your heart
Bm                 D       A             E  (a  g#)
 Always one more try, I'm not afraid to die
F#m           D     E             A
   Stand and fight say what you feel
 Bm           D         A         E
Born with a heart of steel

Burn the bridge behind you, leave no retreat
There's only one way home
And those who laugh and crowd the path and cut each others throat
Will fall like melting snow

They'll watch us rise with fire in our ice
They'll bow their heads their hearts will hang low
And we'll laugh and they will kneel and know this heart of steel
Was too hard to break too hard to hold

Stand and fight...

 Bm            D        C#m
 Born with a heart of steel
 D            E        F#m
Born with a heart of steel


4) Sting of the Bumblebee (Bass Solo)

I-21-20-19-18-17-16-15-14-13-12-11-10------|I
I------------------------------------------|I
I------------------------------------------|L
I------------------------------------------|I

I-9-8-7-6-7-6-5-4-5-4-3-2------------|I
I-------------------------6-5-4-3----|I
I------------------------------------|I
I------------------------------------|I

I------------------------------------|I
I-5-4-3-2----------------------------|I
I---------8-7-6-5-6-5-4-3------------|I
-------------------------7-6-5-4-----|I

I--2------|I
I--2------|I
I--0------|I


I-----------------------------------I-------|  x2
I-------------------------------------------|I
I-7-6-5-4-5-4-3-2-7-6-5-4-5-4-3-2-----------|I
I-------------------------------------------|I

I-9-8-7-6-7-6-5-4--9-8-7-6-7-6-5-4-----|I
I--------------------------------------|I
I--------------------------------------|I
I--------------------------------------|I

I-21-20-19-18-19-18-17-16-21-20-19-18-19-18-17-16----------|I
I----------------------------------------------------I-----| x2
I----------------------------------------------------------|I
I----------------------------------------------------------|I

 (play the notes while sliding your finger down the fretboard)
I-21/0---------------------------------|I
I-----4-3-2-1-0------------------------|I
I---------------4-3-2-1-0--------------|I
I-------------------------4-3-2-1-0----|I

I-------------------------------0/21----|I
I---------------------0-1-2-3-4---------|I
I-----------0-1-2-3-4-------------------|I
I-0-1-2-3-4-----------------------------|I

I--------------------------------------|I
I--------------------------------------|I
I-7-6-5-4-5-4-3-2-7-6-5-4-5-4-3-2------|I
I--------------------------------------|I

I-------------------------------------|I
I-------------------------------------|I
I-7-6-5-4--8-7-6-7-6-5-4--4-5-6-I-----| x2
I---------7--------------7------------|I

I--------------------------------------|I
I--------------------------------------|I
I-7-6-5-4-5-4-3-2-3-4-5-6-7-6-5-4------|I
I--------------------------------------|I


I--------------------------------------|I
I----------------------------4-5-7-----|I
I-7-6-5-4-5-4-3-2-3-4-5-6-7------------|I
I--------------------------------------|I

I-------------------------------------|I
I-7-6-5-4--8-7-6-7-6-5-4--4-5-6-I-----| x2
I---------7--------------7------------|I
I-------------------------------------|I

I---------------------------------------|I
I-7-6-5-4-5-4-3-2-3-4-5-6-7-6-5-4-I-----| x2
I---------------------------------------|I
I---------------------------------------|I

I---------------------------------------|I
I-7-7-7-7-7-7-7-7-8-8-8-8-8-8-8-8-I-----| x2
I---------------------------------------|I
I---------------------------------------|I

I--------------------------------------|I
I-7-8-7-6-7-8-7-6-7-8-7-6-7-8-7-6------|I
I--------------------------------------|I
I--------------------------------------|I

I--------------------------------------------|I
I-7-8-9-10-11-10-9-8-7-8-9-10-11-10-9-8------|I
I--------------------------------------------|I
I--------------------------------------------|I

I-7-7-7-7-7-7-7-7-8-8-8-8-8-8-8-8-I-----| x2
I---------------------------------------|I
I---------------------------------------|I
I---------------------------------------|I

I-7-8-7-6-7-8-7-6-7-8-7-6-7-8-7-6------|I
I--------------------------------------|I
I--------------------------------------|I
I--------------------------------------|I

I-7-8-9-10-11-10-9-8-7-8-9-10-11-10-9-8------|I
I--------------------------------------------|I
I--------------------------------------------|I
I--------------------------------------------|I

I-7-6-5-4--8-7-6-7-6-5-4--4-5-6-I-----| x2
I---------7--------------7------------|I
I-------------------------------------|I
I-------------------------------------|I


 then u can end it however you want but i usualy do this

I-7-7-7-7-7-7-7-7-8-8-8-8-8-8-8-8-I-----| x2
I---------------------------------------|I
I---------------------------------------|I
I---------------------------------------|I

I--------------------------------------|I
I-7-8-7-6-7-8-7-6-7-8-7-6-7-8-7-6------|I
I--------------------------------------|I
I--------------------------------------|I

I-8-9-8-7-9-10-9-8-10-11-10-9-11-12-11-10------|I
I----------------------------------------------|I
I----------------------------------------------|I
I----------------------------------------------|I

I-12-13-12-11-13-14-13-12-14-15-14-13-15-16-15-14-------|I
I-------------------------------------------------------|I
I-------------------------------------------------------|I
I-------------------------------------------------------|I

I-16-17-16-15-17-18-17-16-18-19-18-17-19-20-19-18-------|I
I-------------------------------------------------------|I
I-------------------------------------------------------|I
I-------------------------------------------------------|I

(play the notes while sliding your finger down the fretboard)
I-20-21/0----------------------------------|I
I---------4-3-2-1-0------------------------|I
I-------------------4-3-2-1-0--------------|I
I-----------------------------4-3-2-1-0----|I

I-------------------------------0/21----|I
I---------------------0-1-2-3-4---------|I
I-----------0-1-2-3-4-------------------|I
I-0-1-2-3-4-----------------------------|I


6) Kingdom Come

G

G
See the white lights
G
The light within
E
Be your own disciple
E
Fan the sparks of will
    B                 C
For all of us waiting
                  G
Your kingdom will come

G
Rays of power shining
G                   F#
Rays of magic fall
E
All the golden voice
E
That speaks within us all
    B                  C
For all of us waiting
                  G      G   A   B   B C
Your kingdom will come
        G        G   A   B   B C
Kingdom come

G ........

Fear the white lights
The light within
Yeah it burns of fire
If tries a man to win
But all of us waiting
Your kingdom will come
Kingdom come

Words of power
Calling to us all
Holding us together
While other kingdoms fall
No longer waiting
Our kingdom has come
Kingdom come

SOLO

Kingdom coming
Now the kingdom falls
The rightful are waiting
With all ...(?)
Wait and receive
The weight of the power

Ohh
  Kingdom come
.
.
.


7) Pleasure Slave

     Main Riff:
     Q.         S S S  S E   E  S  S    S S E  E  E   H
E||----------------------------------|-------------------------|
B||----------------------------------|-------------------------|
G||----------------------------------|-------------------------|
D||-------------0--------------------|--2---2--L--7\--4--------|
A||--2------------3-2p-0-------------|--0---0--L--5\--2--------|
E||--0-------------------3~--0--2h-3-|-------------------------|


  Q.     S S S  S E   E  S  S    S S E  E  E   Q    E.    S
------------------------------|-----------------------------|
------------------------------|-----------------------------|
------------------------------|-----------------------------|
---------0--------------------|--2---2--L--7\--4----L-------|
--2--------3-2p-0-------------|--0---0--L--5\--2----L-------|
--0---------------3~--0--2h-3-|-------------------------/12-|


   E   E  E.  S S  S E   E  S  S    S S E  E  E   Q    E.    S
---------------------------------|-----------------------------|
---------------------------------|-----------------------------|
---------------------------------|-----------------------------|
---------------------------------|--2---2--L--7\--4----L-------|
----------2---3-2p-0-------------|--0---0--L--5\--2----L-------|
--12\--0--0----------3~--0--2h-3-|-------------------------/12-|


   E   E  E.  S S  S E   E  S  S    S S E  E  E   H
---------------------------------|-------------------------|
---------------------------------|-------------------------|
---------------------------------|-------------------------|
---------------------------------|--2---2--L--7\--4--------|
----------2---3-2p-0-------------|--0---0--L--5\--2--------|
--12\--0--0----------3~--0--2h-3-|-------------------------|


  Verse 1: ( Slight P.M.---> )
  S                            S S S S S S S S S S S S S S S
-------------------------------------------------------------|
-------------------------------------5---------------7-------|
---------------------------------5-----5---------7-----7-----|
-------------------------------5---5-----5-----7---7-----7---|
--3----------------------------------------3-5-------------5-|
-------------------------------------------------------------|


                        ( Slight P.M.---> )
  H.           E  E     S                   S S S S S S S S S S S S S S S
---------------------|----------------------------------------------------|
---------------------|----------------------------5---------------7-------|
--9------------9--7--|------------------------5-----5---------7-----7-----|
--9------------9--7--|----------------------5---5-----5-----7---7-----7---|
--7------------7--5--|--3-------------------------------3-5-------------5-|
---------------------|----------------------------------------------------|


                        ( Slight P.M.---> )
  H.           E  E     S                   S S S S S S S S S S S S S S S
---------------------|----------------------------------------------------|
---------------------|----------------------------5---------------7-------|
--9------------9--7--|------------------------5-----5---------7-----7-----|
--9------------9--7--|----------------------5---5-----5-----7---7-----7---|
--7------------7--5--|--3-------------------------------3-5-------------5-|
---------------------|----------------------------------------------------|


     >       >
  S  E.   S  E.   H           W                   S S S S S S S S Q    Q
---------------------------|-------------------|----------------------------|
---------------------------|-------------------|----------------------------|
--9-(x)---7-(x)---5--------|--7----------------|----------------------------|
--9-(x)---7-(x)---5--------|--7----------------|----------------------------|
--7-(x)---5-(x)---3--------|--5----------------|--2-2-2-2-2-2-2-2-2---------|
---------------------------|-------------------|--0-0-0-0-0-0-0-0-0---------|


  Main Riff:
  Q.         S S S  S E   E  S  S    S S E  E  E   H
----------------------------------|-------------------------|
----------------------------------|-------------------------|
----------------------------------|-------------------------|
-------------0--------------------|--2---2--L--7\--4--------|
--2------------3-2p-0-------------|--0---0--L--5\--2--------|
--0-------------------3~--0--2h-3-|-------------------------|


  Q.     S S S  S E   E  S  S    S S E  E  E   Q    E.    S
------------------------------|-----------------------------|
------------------------------|-----------------------------|
------------------------------|-----------------------------|
---------0--------------------|--2---2--L--7\--4----L-------|
--2--------3-2p-0-------------|--0---0--L--5\--2----L-------|
--0---------------3~--0--2h-3-|-------------------------/12-|


   E   E  E.  S S  S E   E  S  S    S S E  E  E   Q    E.    S
---------------------------------|-----------------------------|
---------------------------------|-----------------------------|
---------------------------------|-----------------------------|
---------------------------------|--2---2--L--7\--4----L-------|
----------2---3-2p-0-------------|--0---0--L--5\--2----L-------|
--12\--0--0----------3~--0--2h-3-|-------------------------/12-|


   E   E  E.  S S  S E   E  S  S    S S E  E  E   H
---------------------------------|-------------------------|
---------------------------------|-------------------------|
---------------------------------|-------------------------|
---------------------------------|--2---2--L--7\--4--------|
----------2---3-2p-0-------------|--0---0--L--5\--2--------|
--12\--0--0----------3~--0--2h-3-|-------------------------|


  Verse 2: ( Slight P.M.---> )
  S                            S S S S S S S S S S S S S S S
-------------------------------------------------------------|
-------------------------------------5---------------7-------|
---------------------------------5-----5---------7-----7-----|
-------------------------------5---5-----5-----7---7-----7---|
--3----------------------------------------3-5-------------5-|
-------------------------------------------------------------|


                        ( Slight P.M.---> )
  H.           E  E     S                   S S S S S S S S S S S S S S S
---------------------|----------------------------------------------------|
---------------------|----------------------------5---------------7-------|
--9------------9--7--|------------------------5-----5---------7-----7-----|
--9------------9--7--|----------------------5---5-----5-----7---7-----7---|
--7------------7--5--|--3-------------------------------3-5-------------5-|
---------------------|----------------------------------------------------|


                        ( Slight P.M.---> )
  H.           E  E     S                   S S S S S S S S S S S S S S S
---------------------|----------------------------------------------------|
---------------------|----------------------------5---------------7-------|
--9------------9--7--|------------------------5-----5---------7-----7-----|
--9------------9--7--|----------------------5---5-----5-----7---7-----7---|
--7------------7--5--|--3-------------------------------3-5-------------5-|
---------------------|----------------------------------------------------|


     >       >
  S  E.   S  E.   H           W
---------------------------|-------------------|
---------------------------|-------------------|
--9-(x)---7-(x)---5--------|--7----------------|
--9-(x)---7-(x)---5--------|--7----------------|
--7-(x)---5-(x)---3--------|--5----------------|
---------------------------|-------------------|


                       Woman be my SLAVE... !
  S S S S S S S S Q    Q                         H
----------------------------------------------|-----------|
----------------------------------------------|-----------|
----------------------------------------------|-----------|
----------------------------------------------|-----------|
--2-2-2-2-2-2-2-2-2---------------------------|-----------|
--0-0-0-0-0-0-0-0-0---------------------------|-----------|


  Main Riff:
  Q.         S S S  S E   E  S  S    S S E  E  E   H
----------------------------------|-------------------------|
----------------------------------|-------------------------|
----------------------------------|-------------------------|
-------------0--------------------|--2---2--L--7\--4--------|
--2------------3-2p-0-------------|--0---0--L--5\--2--------|
--0-------------------3~--0--2h-3-|-------------------------|


  Q.     S S S  S E   E  S  S    S S E  E  E   Q    E.    S
------------------------------|-----------------------------|
------------------------------|-----------------------------|
------------------------------|-----------------------------|
---------0--------------------|--2---2--L--7\--4----L-------|
--2--------3-2p-0-------------|--0---0--L--5\--2----L-------|
--0---------------3~--0--2h-3-|-------------------------/12-|


   E   E  E.  S S  S E   E  S  S    S S E  E  E   Q    E.    S
---------------------------------|-----------------------------|
---------------------------------|-----------------------------|
---------------------------------|-----------------------------|
---------------------------------|--2---2--L--7\--4----L-------|
----------2---3-2p-0-------------|--0---0--L--5\--2----L-------|
--12\--0--0----------3~--0--2h-3-|-------------------------/12-|


                                                              Rhy. Fill:
   E   E  E.  S S  S E   E  S  S    S S E  E  E   H           W
---------------------------------|-------------------------|-------------------|
---------------------------------|-------------------------|-------------------|
---------------------------------|-------------------------|-------------------|
---------------------------------|--2---2--L--7\--4--------|-------------------|
----------2---3-2p-0-------------|--0---0--L--5\--2--------|--2----------------|
--12\--0--0----------3~--0--2h-3-|-------------------------|--0----------------|


  W                   W                   H           S  E.   H.
-------------------|-------------------|-----------|-----------------------|
-------------------|-------------------|-----------|-----------------------|
-------------------|-------------------|-----------|-----------------------|
-------------------|-------------------|-----------|-----------------------|
--L----------------|--2----------------|--L--------|--2-(x)----------------|
--L----------------|--0----------------|--L--------|--0-(x)----------------|


  Solo Rhythm:
  Q.           S S S  S E   E  S  S    S S E  E  E   H
------------------------------------|-------------------------|
------------------------------------|-------------------------|
------------------------------------|-------------------------|
---------------0--------------------|--2---2--L--7\--4--------|
--2--------------3-2p-0-------------|--0---0--L--5\--2--------|
--0---------------------3~--0--2h-3-|-------------------------|


  Q.     S S S  S E   E  S  S    S S E  E  E   Q    E.    S
------------------------------|-----------------------------|
------------------------------|-----------------------------|
------------------------------|-----------------------------|
---------0--------------------|--2---2--L--7\--4----L-------|
--2--------3-2p-0-------------|--0---0--L--5\--2----L-------|
--0---------------3~--0--2h-3-|-------------------------/12-|


   E   E  E.  S S  S E   E  S  S    S S E  E  E   Q    E.    S
---------------------------------|-----------------------------|
---------------------------------|-----------------------------|
---------------------------------|-----------------------------|
---------------------------------|--2---2--L--7\--4----L-------|
----------2---3-2p-0-------------|--0---0--L--5\--2----L-------|
--12\--0--0----------3~--0--2h-3-|-------------------------/12-|


   E   E  E.  S S  S E   E  S  S    S S E  E  E   H
---------------------------------|-------------------------|
---------------------------------|-------------------------|
---------------------------------|-------------------------|
---------------------------------|--2---2--L--7\--4--------|
----------2---3-2p-0-------------|--0---0--L--5\--2--------|
--12\--0--0----------3~--0--2h-3-|-------------------------|


  Outro:
  Q.     S S S  S E   E  S  S    S S E  E  E   H
------------------------------|-------------------------|
------------------------------|-------------------------|
------------------------------|-------------------------|
---------0--------------------|--2---2--L--7\--4--------|
--2--------3-2p-0-------------|--0---0--L--5\--2--------|
--0---------------3~--0--2h-3-|-------------------------|


  Q.     S S S  S E   E  S  S    S S E  E  E   Q    E.    S
------------------------------|-----------------------------|
------------------------------|-----------------------------|
------------------------------|-----------------------------|
---------0--------------------|--2---2--L--7\--4----L-------|
--2--------3-2p-0-------------|--0---0--L--5\--2----L-------|
--0---------------3~--0--2h-3-|-------------------------/12-|


   E   E  E.  S S  S E   E  S  S    S S E  E  E   Q    E.    S
---------------------------------|-----------------------------|
---------------------------------|-----------------------------|
---------------------------------|-----------------------------|
---------------------------------|--2---2--L--7\--4----L-------|
----------2---3-2p-0-------------|--0---0--L--5\--2----L-------|
--12\--0--0----------3~--0--2h-3-|-------------------------/12-|


   E   E  E.  S S  S E   E  S  S    S S E  E  E   H
---------------------------------|-------------------------|
---------------------------------|-------------------------|
---------------------------------|-------------------------|
---------------------------------|--2---2--L--7\--4--------|
----------2---3-2p-0-------------|--0---0--L--5\--2--------|
--12\--0--0----------3~--0--2h-3-|-------------------------|


  Ending:
  Q.      S S S  S E   E  S  S    S S E  E  E  E  E  Q       W
-------------------------------|--------------------------|-------------------|
-------------------------------|--------------------------|-------------------|
-------------------------------|--------------------------|-------------------|
----------0--------------------|--2---2--L--7--L--4--L----|--L----------------|
--2---------3-2p-0-------------|--0---0--L--5--L--2--L----|--L----------------|
--0----------------3~--0--2h-3-|--------------------------|-------------------|


  W                   W                   H.           E.    S
-------------------|-------------------|-----------------------|
-------------------|-------------------|-----------------------|
-------------------|-------------------|-----------------------|
--L----------------|--L----------------|--L------------L-------|
--L----------------|--L----------------|--L------------L-------|
-------------------|-------------------|-------------------/12-|


   E   E  H.              W                   W
-----------------------|-------------------|-------------------|
-----------------------|-------------------|-------------------|
-----------------------|-------------------|-------------------|
-----------------------|-------------------|-------------------|
----------2------------|--L----------------|--L----------------|
--12\--0--0------------|--L----------------|--L----------------|


  W
-------------------||
-------------------||
-------------------||
-------------------||
-------------------||
-------------------||


8) Hail and Kill

Acoustic part:

 Em
|-----------------|-----------------|-----------------|-----------------|
|-----------------|-----------------|-----------------|-----------------|
|-----------------|-----------------|-----------------|-------4---4-----|
|-----------------|-----------------|-----------------|-----5---5---4-5-|
|-----------------|-----------------|-----------------|-----------------|
|-----------------|-----------------|-----------------|-----------------|

  D                                   G       D?        C       D
|-------2---2-----|-------2---2-----|-3---------------|-----------------|
|-----3---3-------|-----3---3-------|---3---3---0---0-|-----------------|
|---2---------2---|-------------2---|-----4---2-------|-----------------|
|---------------4-|---------------4-|-------------0---|-----------------|
|-5---------------|-5---------------|-----------------|-----------------|
|-----------------|-----------------|-3---------------|-----------------|

  C
|-----------------|-----------------|-----------------|-----------------|
|-----------------|-----------------|-----------------|-----------------|
|-----------------|-----------------|-----------------|-----------------|
|-----------------|-----------------|-----------------|-----------------|
|-----------------|-----------------|-----------------|-----------------|
|-----------------|-----------------|-----------------|-----------------|


 Brothers I am calling from the valley of the kings
  with nothing to atone
 Dark march lies ahead, together we will ride like
  thunder from the sky
 May your swords stay wet like young girl in her prime
 Hold your hammers high


 Em                                 D
 Blood and death are waiting like a raven in the sky
 G D   C    D  C
 I was born to die
 Em                         D
 Hear me while I live, As I look into your eyes
 G    D     C    D C
 None shall hear a lie
 Em                    D
 Power and dominon are taken by the will
    G      D     C    D   C
 By divine right hail and kill

  CHORUS:

 Em D C Em                         Em D C Em
         Hail, hail, hail and kill,          Hail and kill
         Hail, hail, hail and kill,          Hail and kill

 My father was a wolf
 I'm the kinsman of the slain
 Sworn to rise again
 I will bring salvation, punishment and pain
 The hammer of hate is our faith
 Power and dominon are taken by the will
 By divine right hail and kill

 CHORUS

 Rip their flesh, Burn their hearts
 Stab them in the eyes
 Rape their women as they cry
 Kill their servants, Burn their homes
 Till there's no blood left to spill
 Hail and kill
 Power and dominon are taken by the will
 By divine right hail and kill


10) Blood of the Kings

          C5                   G5                   D5                   E5
      x 3 5 5 x x          3 5 5 x x x          x 5 7 7 x x          x 7 9 9 x x

Gtr I (E A D G B E) - 'Rythm'
Gtr II (E A D G B E) - 'lead'

 Intro
  Q=154
                 E5       D5         C5       B5
 4/4
  Gtr II
|------------||--------------------|-------------------|
|------------||o-------------------|-------------------|
|------------||--12-------11-------|--9-------8--------|
|------------||--12-------12-------|-10-------9--------|
|------------||o-------------------|-------------------|
|------------||--------------------|-------------------|
|
| Gtr I
|        PM|          PM|      PM|        PM|     PM|
|------------||--------------------|-------------------|
|------------||o-------------------|-------------------|
|------------||--------------------|-------------------|
|------------||---9--------7-------|--5-------4--------|
|------------||o--7--------5-------|--3-------2--------|
|--------0-0-||-------0-0------0-0-|------0-0-----0-0--|


  1.,2.                                                     3.
  E5                                                        A5      G5
                                                         3x
|---------------------------|----------------------------||------------------|
|---------------------------|---------------------------o||------------------|
|-9-------------------------|----------------------------||-5-------4--------|
|-9-------------------------|----------------------------||-7-------5--------|
|---------------------------|---------------------------o||------------------|
|---------------------------|----------------------------||------------------|
|
|   PM----|   PM----|   PM|     PM----|   PM----|   PM|         PM|     PM|
|                                                        3x
|---------------------------|----------------------------||------------------|
|---------------------------|---------------------------o||------------------|
|---------------------------|----------------------------||------------------|
|-9---------9---------9-----|-9---------9---------9------||-2----------------|
|-7---------7---------7-----|-7---------7---------7-----o||-0-------5--------|
|---0-0-0-0---0-0-0-0---0-0-|---0-0-0-0---0-0-0-0---0-0--||-----0-0-3---0-0--|


  F5      A5     B5
|--------------|-----------------|
|--------------|-----------------|
|-2-------2----|-4---------------|
|-3-------2----|-4---------------|
|--------------|-----------------|
|--------------|-----------------|
|
|     PM|        PM----------------|
|--------------|-------------------|
|--------------|-------------------|
|--------------|-------------------|
|---------2----|-4-4-4-4-4-4-4-4---|
|-3-------0----|-2-2-2-2-2-2-2-2---|
|-1---0-0------|-------------------|


|-------------------|--------------------------|
|-------------------|--------------------------|
|-(4)---------------|--------------------------|
|-(4)---------------|--------------0-----------|
|-------------------|--------0-2-3---3-2-0-----|
|-------------------|-0-2--3---------------3-2-|
|
|------------------------------------------------|
|-------------------|----------------------------|
|-------------------|----------------------------|
|-------------------|----------------------------|
|--4--4-4-4-4-4-4-4-|-4--------------------------|
|--2--2-2-2-2-2-2-2-|-2--------------------------|
|-------------------|----------------------------|


                      E5
                        PM----|   PM----|   PM|     PM----|   PM----|   PM-----|
|------------------||---------------------------|------------------------------|
|------------------||---------------------------|------------------------------|
|------------------||---------------------------|------------------------------|
|-------------2----||-9---------9---------9-----|-9---------9---------9--------|
|-------0-2-3------||-7---------7---------7-----|-7---------7---------7--------|
|-0-2-3------------||---0-0-0-0---0-0-0-0---0-0-|---0-0-0-0---0-0-0-0---0-0----|


|-------------------------------12-14-15-14-12----|
|----------------------12-14-15----------------15-|
|-------------11-12-14----------------------------|
|----11-12-14-------------------------------------|
|-14----------------------------------------------|
|-------------------------------------------------|
|
| Gtr I
|        PM------|         PM------|         PM-----|
|---------------------------------------------------|
|---------------------------------------------------|
|---------------------------------------------------|
|--9-----------------9-----------------9------------|
|--7-----------------7-----------------7------------|
|--------0--0--0--0--------0--0--0--0--------0--0---|


                                        ~~
|-------------------------------------------------------||
|-14-12-------------------------------------------------||
|-------14-12---11--------------------------------------||
|------------------14-12---11---------------------------||
|-----------------------------14-12-10------------------||
|--------------------------------------12---------------||
|
|        PM--------------|              PM----|   PM-------|
|----------------------------------------------------------|
|----------------------------------------------------------|
|----------------------------------------------------------|
|--9---------------------------9----------------9----------|
|--7---------------------------7----------------7----------|
|--------0----0-----0----0--------------0-0-0-0---0-0------|


   Verse 1st & 2nd
    E5         Em/G       B5         B
||-----------|-0--------|----------|-2----|
||o----------|-0--------|----------|-4----|
||-----------|-0--------|-4--------|-4----|
||--2--------|----------|-4--------|------|
||o-2--------|----------|-2--------|------|
||--0--------|----------|----------|------|


  E5         Em/G       B5
                                         ~
|----------|-0--------|----------------|-------------|
|----------|-0--------|----------------|-------------|
|----------|-0--------|-4----(4)-------|-------------|
|-2--------|----------|-4----(4)-------|-------------|
|-2--------|----------|-2----(2)---0-2-|-3--2--0-----|
|-0--------|----------|----------------|----------3--|


  E5         Em/G       B5         B
|----------|-0--------|----------|-2----|
|----------|-0--------|----------|-4----|
|----------|-0--------|-4--------|-4----|
|-2--------|----------|-4--------|------|
|-2--------|----------|-2--------|------|
|-0--------|----------|----------|------|


  E5         Em/G       B5
                                         ~~~~~~~
|----------|-0--------|----------------|---------------|
|----------|-0--------|----------------|---------------|
|----------|-0--------|-4----(4)-------|---------------|
|-2--------|----------|-4----(4)-------|---------------|
|-2--------|----------|-2----(2)---0-2-|-3--[2]--0-----|
|-0--------|----------|----------------|------------3--|


                Chorus
                 E5
  ~     ~          PM----|   PM----|   PM|     PM----|   PM----|   PM----|
|-------------||---------------------------|-----------------------------|
|-------------||---------------------------|-----------------------------|
|-------------||---------------------------|-----------------------------|
|-------------||-9---------9---------9-----|-9---------9---------9-------|
|-2--0--------||-7---------7---------7-----|-7---------7---------7-------|
|-------3--2--||---0-0-0-0---0-0-0-0---0-0-|---0-0-0-0---0-0-0-0---0-0---|


  C5   G5     D5   E5
                            PM----|   PM----|   PM----|
|-----------|-----------|-----------------------------|
|-----------|-----------|-----------------------------|
|-5---------|-7----9----|-----------------------------|
|-5----5----|-7----9----|-9---------9---------9-------|
|-3----5----|-5----7----|-7---------7---------7-------|
|------3----|-----------|---0-0-0-0---0-0-0-0---0-0---|


    PM----|   PM----|   PM------|
|-------------------------------|
|-------------------------------|
|-------------------------------|
|-9---------9---------9---------|
|-7---------7---------7---------|
|---0-0-0-0---0-0-0-0---0-0-----|


  1.,2.
  C5   G5     D5   E5     C5   G5     D5
|-----------|-----------|-----------|----------|
|-----------|-----------|-----------|----------|
|-5---------|-7----9----|-5---------|-7--------|
|-5----5----|-7----9----|-5----5----|-7--------|
|-3----5----|-5----7----|-3----5----|-5--------|
|------3----|-----------|------3----|----------|


  E5
    PM----|   PM----|   PM|     PM----|   PM----|   PM----|
|---------------------------|-----------------------------|
|---------------------------|-----------------------------|
|---------------------------|-----------------------------|
|-9---------9---------9-----|-9---------9---------9-------|
|-7---------7---------7-----|-7---------7---------7-------|
|---0-0-0-0---0-0-0-0---0-0-|---0-0-0-0---0-0-0-0---0-0---|


    PM----|   PM----|   PM|     PM----|   PM----|   PM|
                                                            3x
|---------------------------|-------------------------------||
|---------------------------|------------------------------o||
|---------------------------|-------------------------------||
|-9---------9---------9-----|-9---------9---------9---------||
|-7---------7---------7-----|-7---------7---------7--------o||
|---0-0-0-0---0-0-0-0---0-0-|---0-0-0-0---0-0-0-0---0-0-----||


                                Guitar Solo
  3.
  C5  G5    D5  E5    C5  G5     D5
  |   |     |   |     |   |       |
  /   /     /   /     /   /       /

  Gtr II
                                  /      \7
|---------|---------|---------||-------------|
|---------|---------|---------||-15----------|
|---------|---------|---------||-------------|
|---------|---------|---------||-------------|
|---------|---------|---------||-------------|
|---------|---------|---------||---------0---|


  E5
    PM----|      PM------|     PM|       PM-------|     PM----|     PM----|
|----------------------------------|--------------------------------------|
|----------------------------------|--------------------------------------|
|----------------------------------|--------------------------------------|
|-9----------9--------------9------|--9-------------9-----------9---------|
|-7----------7--------------7------|--7-------------7-----------7---------|
|---0-0-0-0------0--0-0--0-----0-0-|-----0-0-0----0-----0-0-0-0-----0-0---|
|
| Gtr II
| |          /        \7    |         |      \1.5                     |
|----------------------------------|---------5h===8p5h8p5h8p5h8p5h8p5h8-|
|-----------15-(15)----------------|------------------------------------|
|----------------------------------|------------------------------------|
|----------------------------------|------------------------------------|
|----------------------------------|------------------------------------|
|-0-------------------0----(0)-----|-(0)--------------------------------|


            PM----|   PM----|   PM|          PM----|   PM----|     PM-----|
|-----------------------------------|-------------------------------------|
|-----------------------------------|-------------------------------------|
|-----------------------------------|-------------------------------------|
|------9------------9---------9-----|--9-------------9---------9----------|
|------7------------7---------7-----|--7-------------7---------7----------|
|-----------0-0-0-0---0-0-0-0---0-0-|--------0-0-0-0---0-0-0-0-----0--0---|
|
|      |
|-----17b19-------------------------|-19b21======================(19)---|
|---x-------------------------------|-----------------------------------|
|-x---------------------------------|-----------------------------------|
|-----------------------------------|-----------------------------------|
|-----------------------------------|-----------------------------------|
|-----------------------------------|-----------------------------------|


  E
    |  ||||||||||||| |    |      | |   |   | |    |   |  | |    | |  | |  |||
    o  ///////////// /    /      / /   /   / /    /   /  / /    / /  / /  ///

|-(19)------------------------|----------------------------------------------|
|-----------------------------|----------------------------------------------|
|-----------------------------|----------------------------------------------|
|-----------------------------|----------------------------------------------|
|-----------------------------|----------------------------------------------|
|-----------------------------|----------------------------------------------|
|
|   |
|   ~~~~                                                   ~~~~
|-----------------------------|----------------------------------------------|
|-----------------------------|----------------------------------------------|
|--16---------------14h16p=14s|=12--14--12--11h12p=11s9-11-9b11--(9)--(9)----|
|-----------------------------|----------------------------------------------|
|-----------------------------|----------------------------------------------|
|-----------------------------|----------------------------------------------|


  B
  | ||||||| |  |||||| |    | | | |  | | | |  | | | |  | | | |
  o /////// /  ////// /    / / / /  / / / /  / / / /  / / / /

  ~
|-----------------------|-------------------------------------|
|-----------------------|-------------------------------------|
|-8--------(8)--------8-|-11p8---8-11p8---8-11p8---8-11p8---8-|
|-------------------9---|------9--------9--------9--------9---|
|-----------------------|-------------------------------------|
|-----------------------|-------------------------------------|


  E
   |    ||||||| | ||| | | | |   | | | | | | | | | | | |  |  |||
   o    /////// / /// / / / /   / / / / / / / / / / / /  /  ///

   |
                                                         ~~~~
|-14b15--------14----12--12--|-12------------------------------|
|----------------------------|-----12--12----------------------|
|----------------------------|-------------12--12--11--(11)----|
|----------------------------|---------------------------------|
|----------------------------|---------------------------------|
|----------------------------|---------------------------------|


  B                                           AB  C      B     A     G
   |  |  |  |  |  |  |  |  |  |  |  |  |     |||    |     |     |     |
   o  /  /  /  /  /  /  /  /  /  /  /  /     /oo    o     o     o     o

|-------------------------------17-19-17b19=====|=(17)r--19-19-20-22-22--|
|----------------------17-19-20-----------------|------------------------|
|-------------16-17-19--------------------------|------------------------|
|----16-17-19-----------------------------------|------------------------|
|-19--------------------------------------------|------------------------|
|-----------------------------------------------|------------------------|


  E
   |    ||| |    || |  |    |    |    |    |    |    |    |
   o    /// /    // /  /    /    /    /    /    /    /    /

|-22b24----22b24---20-22-20--19-22-20--19-20-19--17-20-19--17-|
|-------------------------------------------------------------|
|-------------------------------------------------------------|
|-------------------------------------------------------------|
|-------------------------------------------------------------|
|-------------------------------------------------------------|


   |  |  |  |  |  |  |     |  |   | |  |  |  |  |  |
   /  /  /  /  /  /  /     /  /   / /  /  /  /  /  /

|-19-17-15-19-17-15-17b19===(17)r--15-17-15-17-15-14-|
|----------------------------------------------------|
|----------------------------------------------------|
|----------------------------------------------------|
|----------------------------------------------------|
|----------------------------------------------------|


  B
    |  |||||||  |  |||||| |   | | | | | | | | | | | | | |   |  |
    o  ///////  /  ////// /   / / / / / / / / / / / / / /   /  /

    \7                  |
                        PM----------------------------~-----------|
|---------------------------|-------------------------------------|
|---------------------------|-------------------------------------|
|-<16>--------(16)----------|-------------------------------------|
|-<17>--------(17)----------|-------------------------------------|
|---------------------------|-------------------------------------|
|-----------------------7-7-|-7-7-5-5-5-5-3-3-3-3-2-2-2--/(12)----|


  E
   |    ||||||| |    ||| |    |||   |    || |   |   | || | |||||||
   o    /////// /    /// /    ///   /    // /   /   / // / ///////

                                                         ~~
|-17b19--------------------------|--------------------------------|
|--------------17b19-------------|--------------------------------|
|-----------------------16b18----|-14b16---14-(14)-12-------------|
|--------------------------------|----------------------14--------|
|--------------------------------|--------------------------------|
|--------------------------------|--------------------------------|


  B                                         A      B
   |  |  | |   |   | | |   |   | | |   |   | |     |
   o  /  / /   /   / / /   /   / / /   /   / o     o

|---------------------------------------------------|
|---------------------------------------------------|
|-------------------------------11--12--14--14b16===|
|-------------------10--12--14----------------------|
|-------10--12--14----------------------------------|
|-12-14---------------------------------------------|


  C           B             A      G
    |         |               |    |
    o         o               o    o

                              ~~~~~
|-------------------------------------|
|-------------------------------------|
|-(14)r-14b16--14b16-14b16==(14)r-----|
|-------------------------------------|
|-------------------------------------|
|-------------------------------------|


  B          A       G       F#
  |          |       |       |
  o          o       o       o

  \1.5
|-8p===5h8p5h8p5h8p5h8p5h8p5h8p5h8p5-|
|------------------------------------|
|------------------------------------|
|------------------------------------|
|------------------------------------|
|------------------------------------|


  A
   |    |    |    |    |    |    |    |    |    |    |    |    |    |    |    |
   o    /    /    /    /    /    /    /    /    /    /    /    /    /    /    /

|-20-19--17-20-19--17-20-19--17-20-19--17-20-19--17-20-19--17-20-19--17-20-19--17--|
|----------------------------------------------------------------------------------|
|----------------------------------------------------------------------------------|
|----------------------------------------------------------------------------------|
|----------------------------------------------------------------------------------|
|----------------------------------------------------------------------------------|


  A
   |    |    |    |    |    |    |    |    |    |    |    |    |    |    |    |
   o    /    /    /    /    /    /    /    /    /    /    /    /    /    /    /

|-20-19--17-20-19--17-20-19--17-20-19--17-20-19--17-20-19--17-20-19--17-20-19--17-|
|---------------------------------------------------------------------------------|
|---------------------------------------------------------------------------------|
|---------------------------------------------------------------------------------|
|---------------------------------------------------------------------------------|
|---------------------------------------------------------------------------------|


  E
  |    |||||||||||||||
  o    ///////////////

  \0.5
  ~~~~
|-0--------------------|
|----------------------|
|----------------------|
|----------------------|
|----------------------|
|----------------------|


  E                     A
    |  |||||||||||||||   | ||||| | | | |||||||  | ||||| | | | |||||||
    o  ///////////////   o ///// / / / ///////  / ///// / / / ///////

    \1
                         ~~          ~~~~~~~~~~~~~          ~~
|-<12>----------------|-----------------------|----------------------|
|---------------------|-13------12------------|----------------------|
|---------------------|-------------14--------|-9--------------------|
|---------------------|-----------------------|--------12--10--------|
|---------------------|-----------------------|----------------------|
|---------------------|-----------------------|----------------------|


  B
  | |||||||||||||||   |
  o ///////////////   /

  ~
|------------------|-12-12-12-12-14-14-14-14-15-15-15-15-17-17-17-17-|
|------------------|-------------------------------------------------|
|------------------|-------------------------------------------------|
|-9----------------|-------------------------------------------------|
|------------------|-------------------------------------------------|
|------------------|-------------------------------------------------|


                           ~~
|-15-15-15-15-17-17-17-17-19----||
|-------------------------------||
|-------------------------------||
|-------------------------------||
|-------------------------------||
|-------------------------------||


   3rd Verse
    E5
      ~~~~
||--(19)-------------------------|----------------------------|
||o------------------------------|----------------------------|
||-------------------------------|----------------------------|
||-------------------------------|----------------------------|
||o------------------------------|----------------------------|
||-------------------------------|----------------------------|
|
|   Gtr I
|        PM----|   PM----|   PM|     PM----|   PM----|   PM-----|
||-------------------------------|------------------------------|
||o------------------------------|------------------------------|
||-------------------------------|------------------------------|
||----9----------9---------9-----|-9---------9---------9--------|
||o---7----------7---------7-----|-7---------7---------7--------|
||-------0-0-0-0---0-0-0-0---0-0-|---0-0-0-0---0-0-0-0---0-0----|


  B5
    PM----|   PM----|   PM|     PM----|   PM----|   PM----|
|---------------------------|-----------------------------|
|---------------------------|-----------------------------|
|---------------------------|-----------------------------|
|---------------------------|-----------------------------|
|-9---------9---------9-----|-9---------9---------9-------|
|-7-7-7-7-7-7-7-7-7-7-7-7-7-|-7-7-7-7-7-7-7-7-7-7-7-7-7---|


  E5
    PM----|   PM----|   PM|     PM----|   PM----|   PM----|
|---------------------------|-----------------------------|
|---------------------------|-----------------------------|
|---------------------------|-----------------------------|
|-9---------9---------9-----|-9---------9---------9-------|
|-7---------7---------7-----|-7---------7---------7-------|
|---0-0-0-0---0-0-0-0---0-0-|---0-0-0-0---0-0-0-0---0-0---|


  B5
    PM----|   PM----|   PM|   ~        ~            ~--------|
|---------------------------|--------------||----------------|
|---------------------------|-------------o||----------------|
|---------------------------|--------------||----------------|
|-4---------4---------4-----|--------------||----------------|
|-2-2-2-2-2-2-2-2-2-2-2-0-2-|-3--2--0-----o||-2--0-----------|
|---------------------------|----------3---||-------3--2-----|


 Chorus
  E5
    PM----|   PM----|   PM|     PM----|   PM----|   PM----|
|---------------------------|-----------------------------|
|---------------------------|-----------------------------|
|---------------------------|-----------------------------|
|-9---------9---------9-----|-9---------9---------9-------|
|-7---------7---------7-----|-7---------7---------7-------|
|---0-0-0-0---0-0-0-0---0-0-|---0-0-0-0---0-0-0-0---0-0---|


  C5   G5     D5   E5
                            PM----|   PM----|   PM----|
|-----------|-----------|-----------------------------|
|-----------|-----------|-----------------------------|
|-5---------|-7----9----|-----------------------------|
|-5----5----|-7----9----|-9---------9---------9-------|
|-3----5----|-5----7----|-7---------7---------7-------|
|------3----|-----------|---0-0-0-0---0-0-0-0---0-0---|


  E5                            C5   G5     D5   E5
    PM----|   PM----|   PM|
                                                       4x
|---------------------------||------------|------------||
|---------------------------||o-----------|-----------o||
|---------------------------||--5---------|-7----9-----||
|-9---------9---------9-----||--5----5----|-7----9-----||
|-7---------7---------7-----||o-3----5----|-5----7----o||
|---0-0-0-0---0-0-0-0---0-0-||-------3----|------------||


  C5   G5     D5
|-----------|----------||
|-----------|----------||
|-5---------|-7--------||
|-5----5----|-7--------||
|-3----5----|-5--------||
|------3----|----------||


 Outro
                 E5       D5         C5       B5
|------------||--------------------|------------------|
|------------||o-------------------|------------------|
|------------||--12-------11-------|--9-------8-------|
|------------||--12-------12-------|-10-------9-------|
|------------||o-------------------|------------------|
|------------||--------------------|------------------|
|
| Gtr I
|        PM|          PM|      PM|        PM|     PM|
|------------||--------------------|------------------|
|------------||o-------------------|------------------|
|------------||--------------------|------------------|
|------------||---9--------7-------|--5-------4-------|
|------------||o--7--------5-------|--3-------2-------|
|--------0-0-||-------0-0------0-0-|------0-0-----0-0-|


  1.,2.                                                     3.
  E5                                                        A5      G5
|---------------------------|----------------------------||------------------|
|---------------------------|---------------------------o||------------------|
|-9-------------------------|----------------------------||-5-------4--------|
|-9-------------------------|----------------------------||-7-------5--------|
|---------------------------|---------------------------o||------------------|
|---------------------------|----------------------------||------------------|
|
|   PM----|   PM----|   PM|     PM----|   PM----|   PM|         PM|     PM-----|
|---------------------------|----------------------------||--------------------|
|---------------------------|---------------------------o||--------------------|
|---------------------------|----------------------------||--------------------|
|-9---------9---------9-----|-9---------9---------9------||-2------------------|
|-7---------7---------7-----|-7---------7---------7-----o||-0-------5----------|
|---0-0-0-0---0-0-0-0---0-0-|---0-0-0-0---0-0-0-0---0-0--||-----0-0-3---0-0----|


                 H.=H                              Q=46
  F5      A5     B5
|--------------|-----------------|-------------------|
|--------------|-----------------|-------------------|
|-2-------2----|-4---------------|-(4)---------------|
|-3-------2----|-4---------------|-(4)---------------|
|--------------|-----------------|-------------------|
|--------------|-----------------|-------------------|
|
|     PM|        PM------------------------------------|
|--------------|-----------------|---------------------|
|--------------|-----------------|---------------------|
|--------------|-----------------|---------------------|
|---------2----|-4-4-4-4-4-4-4-4-|--4--4-4-4-4-4-4-4---|
|-3-------0----|-2-2-2-2-2-2-2-2-|--2--2-2-2-2-2-2-2---|
|-1---0-0------|-----------------|---------------------|


  Q=154
|------------|-----------|-----------|-----------|----------|
|------------|-----------|-----------|-----------|----------|
|------------|-----------|-----------|-----------|----------|
|-(4)--------|-----------|-----------|-----------|----------|
|-(2)--------|-2----3----|-0----2----|-3----0----|-2--3--0--|
|------------|-----------|-----------|-----------|----------|


|----------|----------|-------------|-------------|---------------|
|----------|----------|-------------|-------------|---------------|
|----------|----------|-------------|-------------|---------------|
|----------|----------|-------------|-------------|---------------|
|-2--3--0--|-2--3--0--|-2--3--0--2--|-3--0--2--3--|-0--2--3--0----|
|----------|----------|-------------|-------------|---------------|


|-------------|-------------|-------------|
|-------------|-------------|-------------|
|-------------|-------------|-------------|
|-------------|-------------|-------------|
|-2-3-0-2-3-0-|-2-3-0-2-3-0-|-2-3-0-2-3-0-|
|-------------|-------------|-------------|


|-------------------------|--------------------------|
|-------------------------|--------------------------|
|-------------------------|--------------------------|
|-------------------------|--------------------------|
|-2-3-0-2-3-0-2-3-0-2-3-0-|-2-3-0-2-3-0-2-3-0-2-3-0--|
|-------------------------|--------------------------|


|-------------------------|---------------------------------|
|-------------------------|---------------------------------|
|-------------------------|---------------------------------|
|-------------------------|---------------------------------|
|-2-3-0-2-3-0-2-3-0-2-3-0-|-2-3-0-2-3-0-2-3-0-2-3-0-2-3-0-2-|
|-------------------------|---------------------------------|


|---------------------------------|----------------------------------|
|---------------------------------|----------------------------------|
|---------------------------------|----------------------------------|
|---------------------------------|----------------------------------|
|-3-0-2-3-0-2-3-0-2-3-0-2-3-0-2-3-|-0-2-3-0-2-3-0-2-3-0-2-3-0-2-3-0--|
|---------------------------------|----------------------------------|


|-------------------------------------------------|
|-------------------------------------------------|
|-------------------------------------------------|
|-------------------------------------------------|
|-2-3-0-2-3-0-2-3-0-2-3-0-2-3-0-2-3-0-2-3-0-2-3-0-|
|-------------------------------------------------|


|--------------------------------------------------|
|--------------------------------------------------|
|--------------------------------------------------|
|--------------------------------------------------|
|-2-3-0-2-3-0-2-3-0-2-3-0-2-3-0-2-3-0-2-3-0-2-3-0--|
|--------------------------------------------------|


                                                              E5
|-------------------------------------------------|---------|------*|
|-------------------------------------------------|---------|------*|
|-------------------------------------------------|---------|------*|
|-------------------------------------------------|---------|-2----*|
|-2-3-0-2-3-0-2-3-0-2-3-0-2-3-0-2-3-0-2-3-0-2-3-0-|---------|-2----*|
|-------------------------------------------------|---------|-0----*|
comments
We did not receive enough feedback on this tab! Please rate:
print report bad tab
1 2 3 4 5
2 comments total.
0 reply
Curtis 14 wrote on August 22 2008, 10:01 am

you should add the solo in kings of metal

0 reply
Curtis 14 wrote on August 22 2008, 10:01 am

other than that though ill give it 4

I want to post or [tab]
guest
You may want to rate the tab now too:
select rating
Please do not post tabs as comments. Select "correction" instead!