Oops, an error
Loading. Please wait.

Feste Lariane Tab

3,091 views 9 this week
no commentswrite comment
1 2 3 4 5
please rate
add to favorites launch autoscroll
font size
0
reset
Autoscroll
+/-
esc
set tempo
stop
Contributor
WARNING: You are trying to view
                                    content from Ultimate-Guitar.com
                                    in an unauthorized application,
                                    which is prohibited.

                                    Please use an official Ultimate
                                    Guitar Tabs application for iPhone,
                                    iPad or Android to access legitimate
                                    chords, guitar, bass, and drum tabs
                                    from Ultimate-Guitar.com database.

                                    Type "ultimate guitar tabs" in Apple
                                    App Store's or Android Market's
                                    search to find the application.
Title: Feste Lariane 
(possibly taken from "Peruvian Air, Melodia Espaсola", 
arrangement by Luis Toribio Romero-1854-1893,
see http://www.guitarandluteissues.com/festa/festa.htm )
Composer: Luigi Mozzani (1869-1943)
Revision for Guitar by: Jean-Francois Delcamp - http://www.delcamp.net/
Tab by: Raul M.H. Bonde (1980-) 
Time: 3/4  Standard Tuning
**************************************************************************

1. q     q     q     cV--------------|cIV--------------|cV---------------|
   |  .  |  .  |  .  |  .  |  .  |  .  |  .  |  .  |  .  |  .  |  .  |  .
E|-0-----2-----4---|-5===========8---|-7-----5-----4---|-5===========5---|
B|-------3-----3---|-------5-----5---|-------6-----6---|-------5-----5---|
G|-------4-----4---|-------5-----5---|-------7-----7---|-------5-----5---|
D|-----------------|-----------------|-0===============|-----------------|
A|-----------------|-0===============|-----------------|-0===============|
E|-0===============|-----------------|-----------------|-----------------|


5.
   |  .  |  .  |  .  |  .  |  .  |  .  |  .  |  .  |  .  |  .  |  .  |  .
E|-1-----1-----1---|-0===========0---|-----------------|-----------------|
B|-------3-----3---|-------1-----1---|-3-----1-----0---|-----------------|
G|-------4-----4---|-------2-----2---|-------1-----1---|-2===============|
D|-0===============|-----------------|-------2-----2---|-------2---------|
A|-----------------|-----------------|-----------------|-0-----------3---|
E|-----------------|-0===============|-0===============|-----------------|

 
9.                   cV--------------|cIV--------------|cV---------------| 
   |  .  |  .  |  .  |  .  |  .  |  .  |  .  |  .  |  .  |  .  |  .  |  .
||-0-----2-----4---|-5===========8---|-7-----5-----4---|-5===========5---|
||----3-----3-----3|----5-----5-----5|----6-----6-----6|----5-----5-----5|
||*---4-----4-----4|----5-----5-----5|----7-----7-----7|----5-----5-----5|
||*----------------|-------7---------|-0---------------|-------7---------|
||-----------------|-0---------------|-----------------|-0---------------|
||-0---------------|-----------------|-----------------|-----------------|


13.
   |  .  |  .  |  .  |  .  |  .  |  .  |  .  |  .  |  .  |  .  |  .  |  .
E|-1-----1-----1---|-0===========0---|-----------------|-----------------|
B|----3-----3-----3|----1-----1-----1|-3-----1-----0---|-----------------|
G|----4-----4-----4|----2-----2-----2|----1-----1-----1|-2===============|
D|-0---------------|-------2---------|----2-----2-----2|-------2---------|
A|-----------------|-----------------|-----------------|-0-----------3---|
E|-----------------|-0---------------|-0---------------|-----------------|


17.1.______________
   |  .  |  .  |  .  |  .  |  .  |  .  |  .  |  .  |  .  |  .  |  .  |  .
E|-3-----3-----3---|-3===========3---|-1-----5-----3---|-0===========0---|
B|-------1-----1---|-------1-----1---|-------0-----0---|-------1-----1---|
G|-------0-----0---|-------0-----0---|-------0-----0---|-------0-----0---|
D|-----------------|-2===============|-0===============|-----------------|
A|-3===============|-----------------|-----------------|-3===============|
E|-----------------|-----------------|-----------------|-----------------|


21.cV   cIV   cVII  cV    CX    cV    CX    CIX--------|
   |  .  |  .  |  .  |  .  |  .  |  .  |  .  |  .  |  .  |  .  |  .  |  .
E|-8-----7---------|------12---------|------10---------|-0===========0---|
B|------------10---|-8-----------8---|-----------------|-------1---------|
G|-5-----4---------|-----------------|10----------10---|-------0--------*|
D|-7-----5-----7---|-5----10-----5---|-------9-----9---|----------------*|
A|-------------8---|-7----10-----7---|------10----10---|-3===========----|
E|-----------------|-----------------|10---------------|-----------------|


25.2._______________                    h. s s s s s s s e   e           
   |  .  |  .  |  .   |  .  |  .  |  .   |   .   |   .   |   .     
E|-1-----1-----1----|-0===========0----|-0=========0-4-7-13--12--|
B|-------3-----3----|-------1-----1----|---------0---------------|
G|-------4-----4----|-------2-----2----|-------1-----------------|
D|-0================|------------------|-----2-------------------|
A|------------------|------------------|-F-2---------------------|
E|------------------|-0================|-0=======================|


28.CV----------------||
   |  .  |  .  |  . 
E|-5----^5-----------||
B|------^5-----------||
G|------^5-----R-----||
D|------^7-----------||
A|------^7-----------||
E|------^5-----------||


1. q s s s q s s s q s s s
Variation I                  cV---------------------- cIV----------------------|
   |   .   |   .   |   .     |   .   |   .   |   .     |   .   |   .   |   . 
E|-0=======2=======4=======|-5===============8-------|-7=======5=======4=======|
B|-----3-------3-------3---|-----5-------5-------5---|-----6-------6-------6---|
G|---4---4---4---4---4---4-|---5---5---5---5---5---5-|---7---7---7---7---7---7-|
D|-------------------------|---------7---------------|-0=======----------------|
A|-------------------------|-0=======----------------|-------------------------|
E|-0======-----------------|-------------------------|-------------------------|


4.cV-----------------------
   |   .   |   .   |   .     |   .   |   .   |   .     |   .   |   .   |   . 
E|-5===============5-------|-1=======1=======1=======|-0===============0-------|
B|-----5-------5-------5---|-----3-------3-------3---|-----1-------1-------1---|
G|---5---5---5---5---5---5-|---4---4---4---4---4---4-|--2----2---2---2---2---2-|
D|---------7---------------|-0=======----------------|---------2---------------|
A|-0=======----------------|-------------------------|-------------------------|
E|-------------------------|-------------------------|-0=======----------------|


7.
  |   .   |   .   |   .     |   .   |   .   |   .      |   .   |   .   |   . 
|-------------------------|-------------------------||-0=======2=======4=======|
|-3=======1=======0=======|-------------------------||-----3-------3-------3---|
|-----1-------1-------1---|-2=======================||*--4---4---4---4---4---4-|
|---2---2---2---2---2---2-|-----2-------2-----------||*------------------------|
|-------------------------|-0-------3-------0=======||-------------------------|
|-0=======----------------|-------------------------||-0=======----------------|


10.cV---------------------- cIV---------------------- cV-----------------------
   |   .   |   .   |   .     |   .   |   .   |   .     |   .   |   .   |   . 
E|-5===============8-------|-7=======5=======4=======|-5===============5=======|
B|-----5-------5-------5---|-----6-------6-------6---|-----5-------5-------5---|
G|---5---5---5---5---5---5-|---7---7---7---7---7---7-|---5---5---5---5---5---5-|
D|---------7---------------|-0=======----------------|---------7---------------|
A|-0=======----------------|-------------------------|-0=======----------------|
E|-------------------------|-------------------------|-------------------------|


13.
   |   .   |   .   |   .     |   .   |   .   |   .     |   .   |   .   |   . 
E|-1=======1=======1=======|-0===============0-------|-------------------------|
B|-----3-------3-------3---|-----1-------1-------1---|-3=======1=======0=======|
G|---4---4---4---4---4---4-|---2---2---2---2---2---2-|-----1-------1-------1---|
D|-0=======----------------|---------2---------------|---2---2---2---2---2---2-|
A|-------------------------|-------------------------|-------------------------|
E|-------------------------|-0=======----------------|-0=======----------------|


16.			    1._______________________
   |   .   |   .   |   .     |   .   |   .   |   .     |   .   |   .   |   . 
E|-------------------------|-3=======3=======3=======|-3===============3-------|
B|-------------------------|-----1-------1-------1---|-----1-------1-------1---|
G|-2=======================|---0---0---0---0---0---0-|---0---0---0---0---0---0-|
D|-----2-------2-----------|-------------------------|---------2---------------|
A|-0-------3-------0=======|-3=======----------------|-3=======----------------|
E|-------------------------|-------------------------|-------------------------|


19.						       cV-----cIV------cVII----	
   |   .   |   .   |   .     |   .   |   .   |   .     |   .   |   .   |   . 
E|-1=======5=======3=======|-0===============0-------|-----8-------7-----------|
B|-----0-------0-------0---|-----1-------1-------1---|--------------------10---|
G|---0---0---0---0---0---0-|---0---0---0---0---0---0-|---5---5---4---4---------|
D|-0=======----------------|---------2---------------|-7=======5=======--7---7-|
A|-------------------------|-3=======----------------|-----------------8=======|
E|-------------------------|-------------------------|-------------------------|


22.cV-----cX------cV------ CIX----------------------
  |   .   |   .   |   .     |   .   |   .   |   .     |   .   |   .   |   . 
|------------12-----------|------------10-----------|-0===============0-------||
|-----8---------------8---|-------------------------|-----1-------1-------1---||
|-------------------------|----10--------------10---|---0---0---0---0---0---0*||
|---5---510---------5---5-|---9---9---9--9----9---9-|---------2--------------*||
|-7--------10-10--7=======|--------10======10=======|-3======-----------------||
|-------------------------|10======-----------------|-------------------------||


25.2.______________________
   |   .   |   .   |   .     |   .   |   .   |   .     
E|-1=======1=======1=======|-0===============0-------|
B|-----3-------3-------3---|-----1-------1-------1---|
G|---4---4---4---4---4---4-|---2---2---2---2---2---2-|
D|-0=======----------------|-------------------------|
A|-------------------------|---------2===============|
E|-------------------------|-0-----------------------|


27.h.s s s s s s s e   e    CV-----------------------||
   |   .   |   .   |   .     |   .   |   .   |   .      
E|-0=========0-4-7-13--12--|-5------^5---------------||
B|---------0---------------|--------^5---------------||
G|-------1-----------------|--------^5-------R-------||
D|-----2-------------------|--------^7---------------||
A|-F-2---------------------|--------^7---------------||
E|-0=======================|--------^5---------------||


1. etttetttetttetttetttettt
Variation II-Tremolo        cV-----------------------  cIV---------------------| 
   |ami.ami|ami.ami|ami.ami  |   .   |   .   |   .     |   .   |   .   |   . 
E|-t0--t0--t2--t2--t4--t4--|-t5--t5--t5--t5--t8--t8--|-t7--t7--t5--t5--t4--t4--|
B|-----0---3---0---3---4---|---------5-------5-------|---------6-------6-------|
G|-------------------------|-----5-------5-------5---|-----7-------7-------7---|
D|-------------------------|-------------------------|-0-----------------------|
A|-------------------------|-0-----------------------|-------------------------|
E|-0-----------------------|-------------------------|-------------------------|


4.cV-----------------------|
   |   .   |   .   |   .     |   .   |   .   |   .     |   .   |   .   |   . 
E|-t5--t5--t5--t5--t5--t5--|-t1--t1--t1--t1--t1--t1--|-t0--t0--t0--t0--t0--t0--|
B|---------5-------5-------|-----0---3---0---3---0---|---------1-------1-------|
G|-----5-------5-------5---|-------------------------|-----2-------2-------2---|
D|-------------------------|-0-----------------------|-------------------------|
A|-0-----------------------|-------------------------|-------------------------|
E|-------------------------|-------------------------|-0-----------------------|


7.
  |   .   |   .   |   .     |   .   |   .   |   .      |   .   |   .   |   . 
|-------------------------|-------------------------||-t0--t0--t2--t2--t4--t4--|
|-t3--t3--t1--t1--t0--t0--|-------------------------||-----0---3---0---3---0---|
|---------1-------1-------|-t2--t2--t2--t2--========||*------------------------|
|-----2-------2-------2---|-----2-------2-----------||*------------------------|
|-------------------------|-0-------3-------0=======||-------------------------|
|-0-----------------------|-------------------------||-0-----------------------|


10.cV---------------------- cIV---------------------- cV-----------------------| 
   |   .   |   .   |   .     |   .   |   .   |   .     |   .   |   .   |   . 
E|-t5--t5--t5--t5--t8--t8--|-t7--t7--t5--t5--t4--t4--|-t5--t5--t5--t5--t5--t5--|
B|---------5-------5-------|---------6-------6-------|---------5-------5-------|
G|-----5-------5-------5---|-----7-------7-------7---|-----5-------5-------5---|
D|-------------------------|-0-----------------------|-------------------------|
A|-0-----------------------|-------------------------|-0-----------------------|
E|-------------------------|-------------------------|-------------------------|


13.
   |   .   |   .   |   .     |   .   |   .   |   .     |   .   |   .   |   . 
E|-t1--t1--t1--t1--t1--t1--|-------------------------|-------------------------|
B|-----0---3---0---3---0---|-t3--t3--t1--t1--t0--t0--|-------------------------|
G|-------------------------|---------1-------1-------|-t2--t2--t2--t2--========|
D|-0-----------------------|-----2-------2-------2---|-----2-------2-----------|
A|-------------------------|-------------------------|-0-------3-------0=======|
E|-------------------------|-0-----------------------|-------------------------|


16.                        1.________________________ 
   |   .   |   .   |   .     |   .   |   .   |   .     |   .   |   .   |   . 
E|-t3--t3--t3--t3--t3--t3--|-t3-t3--t3--t3--t3--t3--|-t1--t1--t5--t5--t3--t3--|
B|---------1-------1-------|---------1-------1-------|---------0-------0-------|
G|-----0-------0-------0---|-----0-------0-------0---|-----0-------0-------0---|
D|-------------------------|-2-----------------------|-0-----------------------|
A|-3-----------------------|-------------------------|-------------------------|
E|-------------------------|-------------------------|-------------------------|


19.                         cV------cIV-----cVII-----------|
   |   .   |   .   |   .     |   .   |   .   |      .       
E|-t0--t0--t0--t0--t0--t0--|-t8--t8--t7--t7--t10----t10----|
B|---------1-------1-------|-------------------------------|
G|-----0-------0-------0---|-----5-------4-----------------|
D|-------------------------|-7-------5--------------7------|
A|-3-----------------------|-----------------8-------------|
E|-------------------------|-------------------------------|


21.cV------CX--------------cV------ CX------------CIX--------------------------|
   |   .    |       .      |   .     |      .      |      .      |      .         
E|----------t12-----t12------------|---------------t10----t10------------------|
B|-t8--t8------------------t8--t8--|-------------------------------------------|
G|---------------------------------|-t10----t10------------------t10----t10----|
D|-----5---10------------------5---|---------------9-------------9-------------|
A|-7---------------10------7-------|-------10------------10------------10------|
E|---------------------------------|10-----------------------------------------|


23.						     2.________________________ 		
  |   .   |   .   |   .     |   .   |   .   |   .      |   .   |   .   |   . 
|-t0--t0--t0--t0--t0--t0--|-t1--t1--t1--t1--t1--t1--||-t0--t0--t0--t0--t0--t0--|
|---------1-------1-------|-----0---3---0---3---0---||---------1-------1-------|
|-----0-------0-------0---|------------------------*||-----2-------2-------2---|
|-------------------------|-0----------------------*||-------------------------|
|-3-----------------------|-------------------------||-------------------------|
|-------------------------|-------------------------||-0-----------------------|


26.h.s s s s s s s e   e    CV-----------------------||
   |   .   |   .   |   .     |   .   |   .   |   .     
E|-0=========0-4-7-13--12--|-5------^5---------------||
B|---------0---------------|--------^5---------------||
G|-------1-----------------|--------^5---------------||
D|-----2-------------------|--------^7---------------||
A|-F-2---------------------|--------^7---------------||
E|-0=======================|--------^5---------------||
                                                 Fine
comments
We did not receive enough feedback on this tab! Please rate:
print report bad tab
1 2 3 4 5
I want to post or [tab]
guest
You may want to rate the tab now too:
select rating
Please do not post tabs as comments. Select "correction" instead!