Oops, an error
Loading. Please wait.

Como El Viento De Poniente Tab

ver1
ver1

Solo

Whole song

More versions @911Tabs.com
3,292 views 12 this week
no commentswrite comment
1 2 3 4 5
please rate
Autoscroll
+/-
esc
set tempo
stop
Contributor
Hey! There's an official Ultimate Guitar app which is ideal
for learning songs when you're away from computer. Get the app
WARNING: You are trying to view
                                    content from Ultimate-Guitar.com
                                    in an unauthorized application,
                                    which is prohibited.

                                    Please use an official Ultimate
                                    Guitar Tabs application for iPhone,
                                    iPad or Android to access legitimate
                                    chords, guitar, bass, and drum tabs
                                    from Ultimate-Guitar.com database.

                                    Type "ultimate guitar tabs" in Apple
                                    App Store's or Android Market's
                                    search to find the application.
Marea - Como el viento de poniente

By: samoth

RIFF 1
------

Guitarra 1
|----------------|----------------|----------------|
|----------------|----------------|----------------|
|----------------|----------------|----------------|
|-9--9-9---9---9-|-5--5-5---5---5-|-7--7-7---7---7-|
|-9--9-9---9---9-|-5--5-5---5---5-|-7--7-7---7---7-|
|-7--7---7---7---|-3--3-3-3---3---|-5--5-5-5---5---|

|-----------------------------|
|-----------------------------|
|------7--7---------7--7------|
|-9--9-7--7-7--9--9-7--7-7--9-|
|-9--9-5--5-7--9--9-5--5-7--9-|
|-7--7------5--7--7------5--7-|


Guitarra 2
|----------------|----------------|----------------|
|----------------|----------------|----------------|
|----------------|----------------|----------------|
|-9--9-9---9---9-|-5--5-5---5---5-|-7--7-7---7---7-|
|-9--9-9---9---9-|-5--5-5---5---5-|-7--7-7---7---7-|
|-7--7---7---7---|-3--3-3-3---3---|-5--5-5-5---5---|

|--------------------------------|
|--------------------------------|
|-----7---7----------7--7--------|
|-9--9---9---7-7-9--9--9---7-7-9-|
|--------------------------------|
|--------------------------------|



SOLO DE INTRODUCCION
--------------------

Guitarra 1: toca el riff 2

Guitarra 2
|------10-7-|
|-10^-------|
|-----------|
|-----------|
|-----------|
|-----------|

|--------------------------|
|-7------------------------|
|----9-7---7-----------7---|
|--------9---9-7---7-9---9-|
|----------------9---------|
|--------------------------|

|--------------------------|
|------------------7-------|
|------7---7-9-7-9---9-7-9-|
|-7--9---9-----------------|
|--------------------------|
|--------------------------|

|-13--12-10----10----------------------|
|-----------12----12-10----10-12-10-12-|
|-----------------------11-------------|
|--------------------------------------|
|--------------------------------------|
|--------------------------------------|

|-------------------------------------|
|-10/12--12-10----10------------------|
|--------------10----11-9----9--------|
|-------------------------12---9-12-9-|
|-------------------------------------|
|-------------------------------------|

|-------------------------------------|
|-10/12--12-10----10------------------|
|--------------10----11-9-----------9-|
|-------------------------9-12-9-12---|
|-------------------------------------|
|-------------------------------------|

|-------------------------------------|
|-10/12--12-10----10------------------|
|--------------10----11-9----9--------|
|-------------------------12---9-12-9-|
|-------------------------------------|
|-------------------------------------|



RIFF 2
------

Guitarras 1 y 2
|--------------------------------|--------------------------------|--------------------------------|
|--------------------------------|--------------------------------|--------------------------------|
|--------------------------------|--------------------------------|--------------------------------|
|-9--9-9-9-9-9-9-9-9-9-9-9-9-9-9-|-5--5-5-5-5-5-5-5-5-5-5-5-5-5-5-|-7--7-7-7-7-7-7-7-7-7-7-7-7-7-7-|
|-9--9-9-9-9-9-9-9-9-9-9-9-9-9-9-|-5--5-5-5-5-5-5-5-5-5-5-5-5-5-5-|-7--7-7-7-7-7-7-7-7-7-7-7-7-7-7-|
|-7--7-7-7-7-7-7-7-7-7-7-7-7-7-7-|-3--3-3-3-3-3-3-3-3-3-3-3-3-3-3-|-7--5-5-5-5-5-5-5-5-5-5-5-5-5-5-|
     . . . . . . . . . . . . . .      . . . . . . . . . . . . . .      . . . . . . . . . . . . . .

Guitarra 1
|------------------------------|
|------------------------------|
|---------------7--7-7---------|
|-9--9-9-9-9-9--7--7-7--7--7-7-|
|-9--9-9-9-9-9--5--5-5--7--7-7-|
|-7--7-7-7-7-7----------5--5-5-|
     . . . . .     . .     . .

Guitarra 2 (primera vez)
|--------------------------------------|
|--------------------------------------|
|---------------7----------------------|
|-9---------------9-----7--------------|
|-------------------------9-7----7-----|
|----------------------------------8-7-|
|
|(segunda vez)
|-------------------------------------------------|
|----------------------------10-------------------|
|--------------7---7----9^--------9^-----9-7-9^/0-|
|-9--------------9--------------------------------|
|-------------------------------------------------|
|-------------------------------------------------|

Guitarras 1 y 2
|--------------------------------|--------------------------------|--------------------------------|
|--------------------------------|--------------------------------|--------------------------------|
|--------------------------------|--------------------------------|--------------------------------|
|-9--9-9-9-9-9-9-9-9-9-9-9-9-9-9-|-5--5-5-5-5-5-5-5-5-5-5-5-5-5-5-|-7--7-7-7-7-7-7-7-7-7-7-7-7-7-7-|
|-9--9-9-9-9-9-9-9-9-9-9-9-9-9-9-|-5--5-5-5-5-5-5-5-5-5-5-5-5-5-5-|-7--7-7-7-7-7-7-7-7-7-7-7-7-7-7-|
|-7--7-7-7-7-7-7-7-7-7-7-7-7-7-7-|-3--3-3-3-3-3-3-3-3-3-3-3-3-3-3-|-7--5-5-5-5-5-5-5-5-5-5-5-5-5-5-|
     . . . . . . . . . . . . . .      . . . . . . . . . . . . . .      . . . . . . . . . . . . . .

|----------------------------|
|----------------------------|
|----------------------------|
|-9--9-9-9-9-9--5--5-5-5-5-5-|
|-9--9-9-9-9-9--5--5-5-5-5-5-|
|-7--7-7-7-7-7--3--3-3-3-3-3-|
     . . . . .

Guitarras 1 y 2
|--------------------------------|--------------------------------|--------------------------------|
|--------------------------------|--------------------------------|--------------------------------|
|--------------------------------|--------------------------------|--------------------------------|
|-9--9-9-9-9-9-9-9-9-9-9-9-9-9-9-|-5--5-5-5-5-5-5-5-5-5-5-5-5-5-5-|-7--7-7-7-7-7-7-7-7-7-7-7-7-7-7-|
|-9--9-9-9-9-9-9-9-9-9-9-9-9-9-9-|-5--5-5-5-5-5-5-5-5-5-5-5-5-5-5-|-7--7-7-7-7-7-7-7-7-7-7-7-7-7-7-|
|-7--7-7-7-7-7-7-7-7-7-7-7-7-7-7-|-3--3-3-3-3-3-3-3-3-3-3-3-3-3-3-|-7--5-5-5-5-5-5-5-5-5-5-5-5-5-5-|
     . . . . . . . . . . . . . .      . . . . . . . . . . . . . .      . . . . . . . . . . . . . .

Guitarra 1
|------------------------------|
|------------------------------|
|---------------7--7-7---------|
|-9--9-9-9-9-9--7--7-7--7--7-7-|
|-9--9-9-9-9-9--5--5-5--7--7-7-|
|-7--7-7-7-7-7----------5--5-5-|
     . . . . .     . .     . .

Guitarra 2 (primera vez)
|-10------------7-------7----------------|
|------------------10^-----10^-----------|
|------------------------------------9-7-|
|--------------------------------8/9-----|
|----------------------------------------|
|----------------------------------------|
|
|(segunda vez)
|------------------------------------------|
|-10^-----------7--------------------------|
|------------------9--------9-7------------|
|-----------------------7/9----------9-7/0-|
|--------------------------------7/9-------|
|------------------------------------------|

Guitarras 1 y 2
|--------------------------------|--------------------------------|--------------------------------|
|--------------------------------|--------------------------------|--------------------------------|
|--------------------------------|--------------------------------|--------------------------------|
|-9--9-9-9-9-9-9-9-9-9-9-9-9-9-9-|-5--5-5-5-5-5-5-5-5-5-5-5-5-5-5-|-7--7-7-7-7-7-7-7-7-7-7-7-7-7-7-|
|-9--9-9-9-9-9-9-9-9-9-9-9-9-9-9-|-5--5-5-5-5-5-5-5-5-5-5-5-5-5-5-|-7--7-7-7-7-7-7-7-7-7-7-7-7-7-7-|
|-7--7-7-7-7-7-7-7-7-7-7-7-7-7-7-|-3--3-3-3-3-3-3-3-3-3-3-3-3-3-3-|-7--5-5-5-5-5-5-5-5-5-5-5-5-5-5-|
     . . . . . . . . . . . . . .      . . . . . . . . . . . . . .      . . . . . . . . . . . . . .

|----------------------------|
|----------------------------|
|----------------------------|
|-9--9-9-9-9-9--5--5-5-5-5-5-|
|-9--9-9-9-9-9--5--5-5-5-5-5-|
|-7--7-7-7-7-7--3--3-3-3-3-3-|
     . . . . .


RIFF 3
------

Guitarra 1
|------------------------------|------------------------------|
|------------------------------|------------------------------|
|-7--7-7-7-7-7-7-7-7-7-7-7-7-7-|------------------------------|
|-7--7-7-7-7-7-7-7-7-7-7-7-7-7-|-7--7-7-7-7-7-7-7-7-7-7-7-7-7-|
|-5--5-5-5-5-5-5-5-5-5-5-5-5-5-|-7--7-7-7-7-7-7-7-7-7-7-7-7-7-|
|------------------------------|-5--5-5-5-5-5-5-5-5-5-5-5-5-5-|
     . . . . . . . . . . . . .      . . . . . . . . . . . . .

|------------------------------|------------------------------|
|------------------------------|------------------------------|
|------------------------------|------------------------------|
|-9--9-9-9-9-9-9-9-9-9-9-9-9-9-|-5--5-5-5-5-5-5-5-5-5-5-5-5-5-|
|-9--9-9-9-9-9-9-9-9-9-9-9-9-9-|-5--5-5-5-5-5-5-5-5-5-5-5-5-5-|
|-7--7-7-7-7-7-7-7-7-7-7-7-7-7-|-3--3-3-3-3-3-3-3-3-3-3-3-3-3-|
     . . . . . . . . . . . . .      . . . . . . . . . . . . .

Guitarra 2
|------------------------------|------------------------------|
|------------------------------|------------------------------|
|------------9---------------9-|------------------------------|
|-x-7------x------x-7------x---|------------9---------------9-|
|------------------------------|-x-7------x------x-7------x---|
|------------------------------|------------------------------|

|------------------------------|------------------------------|
|------------------------------|------------------------------|
|------------6---------------6-|------------------------------|
|-x-4------x------x-4------x---|------------7---------------7-|
|------------------------------|-x-5------x------x-5------x---|
|------------------------------|------------------------------|

Final del riff 3 (Guitarras 1 y 2)
|-----------------------------|
|-----------------------------|
|-----------------------------|
|-7-7-7-7-7-7-7-7-7-7-7-7-7-7-|
|-7-7-7-7-7-7-7-7-7-7-7-7-7-7-|
|-5-5-5-5-5-5-5-5-5-5-5-5-5-5-|


RIFF 1

RIFF 2

RIFF 3

SOLO
----
Guitarra 1
|-----|-----|-----|---------------------------------|
|-----|-----|-----|---------------------------------|
|-7/0-|-----|-----|---------------------------------|
|-7/0-|-7/0-|-9/0-|-5-------------7---------------7-|
|-5/0-|-7/0-|-9/0-|-5--x-5------x------x-5------x---|
|-----|-5/0-|-7/0-|-3-------------------------------|

|-----|-----|-----|---------------------------------|
|-----|-----|-----|---------------------------------|
|-7/0-|-----|-----|---------------------------------|
|-7/0-|-7/0-|-9/0-|-5-------------7---------------7-|
|-5/0-|-7/0-|-9/0-|-5--x-5------x------x-5------x---|
|-----|-5/0-|-7/0-|-3-------------------------------|

|-----------------------------|
|-----------------------------|
|-----------------------------|
|-7-7-7-7-7-7-7-7-7-7-7-7-7-7-|
|-7-7-7-7-7-7-7-7-7-7-7-7-7-7-|
|-5-5-5-5-5-5-5-5-5-5-5-5-5-5-|

Guitarra 2
|------10-7-|
|-10^-------|
|-----------|
|-----------|
|-----------|
|-----------|

|----------------------------------------|
|-7--10-7----7-10--7---7-----------------|
|---------9----------9----9-7----7-9-7---|
|-----------------------------9--------9-|
|----------------------------------------|
|----------------------------------------|

|-----------------|
|------7----------|
|----7----9/7--9^-|
|-9---------------|
|-----------------|
|-----------------|

|-----------------------------9-10-12~~~~-|
|----------9-10-12-10-9-10-12-------------|
|-9/11--11--------------------------------|
|-----------------------------------------|
|-----------------------------------------|
|-----------------------------------------|

|------17------17----------|
|-18^-----18^------18^v-19-|
|--------------------------|
|--------------------------|
|--------------------------|
|--------------------------|

|-17--15-14-12-15-14-12----14-12-----------------------|
|-----------------------15-------15-12-15----15-12~~~~-|
|-----------------------------------------14-----------|
|------------------------------------------------------|
|------------------------------------------------------|
|------------------------------------------------------|

|--------14^--14/10--12^-|
|-12--15-----------------|
|------------------------|
|------------------------|
|------------------------|
|------------------------|

|-----------12-14-15-14-12-14-15-14-17-17~~~~-|
|-12/15--15-----------------------------------|
|---------------------------------------------|
|---------------------------------------------|
|---------------------------------------------|
|---------------------------------------------|

|-19^--22-19^--22-17-19--22-17-19-|
|---------------------------------|
|---------------------------------|
|---------------------------------|
|---------------------------------|
|---------------------------------|



RIFF 4
------
Guitarra 1
|------------------------------|------------------------------|
|------------------------------|------------------------------|
|------------9---------------9-|------------------------------|
|-x-7------x------x-7------x---|------------9---------------9-|
|------------------------------|-x-7------x------x-7------x---|
|------------------------------|------------------------------|

|------------------------------|------------------------------|
|------------------------------|------------------------------|
|------------6---------------6-|------------------------------|
|-x-4------x------x-4------x---|------------7---------------7-|
|------------------------------|-x-5------x------x-5------x---|
|------------------------------|------------------------------|

|------------------------------|------------------------------|
|------------------------------|------------------------------|
|------------9---------------9-|------------------------------|
|-x-7------x------x-7------x---|------------9---------------9-|
|------------------------------|-x-7------x------x-7------x---|
|------------------------------|------------------------------|

|------------------------------|------------------------------|
|------------------------------|------------------------------|
|------------6---------------6-|------------------------------|
|-x-4------x------x-4------x---|------------7---------------7-|
|------------------------------|-x-5------x------x-5------x---|
|------------------------------|------------------------------|

|-----------------------------|
|-----------------------------|
|-----------------------------|
|-7-7-7-7-7-7-7-7-7-7-7-7-7-7-|
|-7-7-7-7-7-7-7-7-7-7-7-7-7-7-|
|-5-5-5-5-5-5-5-5-5-5-5-5-5-5-|

Guitarra 2
|-10--8-7----7-------------------------------|
|---------10---10-8-7-10-8-7---8-7-----------|
|----------------------------9-----7-9~~~~~7-|
|--------------------------------------------|
|--------------------------------------------|
|--------------------------------------------|

|-----------------------------------|
|--------7--------------------------|
|----7-9---9-7-----7----------------|
|-9------------9-7----9-7---7-------|
|-------------------------9---9-7---|
|---------------------------------9-|

|----------------|
|----------------|
|----7-9-7---9~~-|
|-9--------9-----|
|----------------|
|----------------|

|-
|-
|-
|- si alguiƩn pilla el resto, no logro oirlo...
|-
|-

FINAL
-----
Guitarra 1
|-----------------------------|
|-----------------------------|
|------7--7---------7--7------|
|-9--9-7--7-7--9--9-7--7-7--9-|
|-9--9-5--5-7--9--9-5--5-7--9-|
|-7--7------5--7--7------5--7-|

Guitarra 2
|--------------------------------|
|--------------------------------|
|-----7---7----------7--7--------|
|-9--9---9---7-7-9--9--9---7-7-9-|
|--------------------------------|
|--------------------------------|
comments
We did not receive enough feedback on this tab! Please rate:
print report bad tab
1 2 3 4 5
I want to post or [tab]
guest
You may want to rate the tab now too:
select rating
Please do not post tabs as comments. Select "correction" instead!