Oops, an error
Loading. Please wait.

Celebrity Status Tab

ver2
ver2

Whole song

Interactive

More versions @911Tabs.com
16,972 views 15 this week
3 commentsread comments
1 2 3 4 5
excellent!
x 7
Autoscroll
+/-
esc
set tempo
stop
Contributor
Difficulty
WARNING: You are trying to view
                                    content from Ultimate-Guitar.com
                                    in an unauthorized application,
                                    which is prohibited.

                                    Please use an official Ultimate
                                    Guitar Tabs application for iPhone,
                                    iPad or Android to access legitimate
                                    chords, guitar, bass, and drum tabs
                                    from Ultimate-Guitar.com database.

                                    Type "ultimate guitar tabs" in Apple
                                    App Store's or Android Market's
                                    search to find the application.
-------------------------------------------------------------------------
                        PERFECT - MARIANAS TRENCH
-------------------------------------------------------------------------


I'll be posting a Guitar Pro of this soon, but this is for every one that
doesn't have Guitar Pro. If you don't have guitar pro, you should 
definetely get it. Not just the demo version, the whole thing. It's worth 
every penny.


Tabbed by: Me 

Email: apple pie

Tuning: Standard

Guitar 1 - Slight Distortion

Guitar 2 - Heavy Distortion

Guitar 3 - Heavy Distortion

Intro - 0:01

   Guitar 1
e|-----------------|-----------------|-----------------|-----------------|
B|-----------------|-----------------|-----------------|-----------------|
G|-9---------------|---------------9-|-8---------------|---------------8-|
D|-9---------------|---------------9-|-9---------------|---------------9-|
A|-7---------------|---------------7-|-6---------------|---------------6-|
E|-----------------|-----------------|-----------------|-----------------|
   1   2   3   4     1   2   3   4     1   2   3   4     1   2   3   4 
e|-----------------|-----------------|-----------------|-----------------|
B|-----------------|-----------------|-----------------|-----------------|
G|-9---------------|---------------9-|-6---------------|-8---------------|
D|-9---------------|---------------9-|-6---------------|-9---------------|
A|-7---------------|---------------7-|-4---------------|-6---------------|
E|-----------------|-----------------|-----------------|-----------------|
   1   2   3   4     1   2   3   4     1   2   3   4     1   2   3   4

Verse - 0:12

e|-----------------|-----------------|-----------------|-----------------|
B|-----------------|-----------------|-----------------|-----------------|
G|-9---------------|---------------9-|-8---------------|---------------8-|
D|-9---------------|---------------9-|-9---------------|---------------9-|
A|-7---------------|---------------7-|-6---------------|---------------6-|
E|-----------------|-----------------|-----------------|-----------------|
   1   2   3   4     1   2   3   4     1   2   3   4     1   2   3   4 
e|-----------------|-----------------|-----------------|-----------------|
B|-----------------|-----------------|-----------------|-----------------|
G|-9---------------|---------------9-|-6---------------|-8---------------|
D|-9---------------|---------------9-|-6---------------|-9---------------|
A|-7---------------|---------------7-|-4---------------|-6---------------|
E|-----------------|-----------------|-----------------|-----------------|
   1   2   3   4     1   2   3   4     1   2   3   4     1   2   3   4  
e|-----------------|-----------------|-----------------|-----------------|
B|-----------------|-----------------|-----------------|-----------------|
G|-9---------------|---------------9-|-8---------------|---------------8-|
D|-9---------------|---------------9-|-9---------------|---------------9-|
A|-7---------------|---------------7-|-6---------------|---------------6-|
E|-----------------|-----------------|-----------------|-----------------|
   1   2   3   4     1   2   3   4     1   2   3   4     1   2   3   4
e|-----------------|-----------------|-----------------|-----------------|
B|-----------------|-----------------|-----------------|-----------------|
G|-9---------------|---------------9-|-6---------------|-8---------------|
D|-9---------------|---------------9-|-6---------------|-9---------------|
A|-7---------------|---------------7-|-4---------------|-6---------------|
E|-----------------|-----------------|-----------------|-----------------|
   1   2   3   4     1   2   3   4     1   2   3   4     1   2   3   4   
Pre-Chorus - 0:35

   Guitar 1
e|-0-0-------------|-0-0-------------|-2-2-------------|-0-0-----2-2-----|
B|-0-0-------------|-2-2-------------|-4-4-------------|-2-2-----4-4-----|
G|-1-1-------------|-1-1-------------|-4-4-------------|-2-2-----4-4-----|
D|-2-2-------------|-2-2-------------|-4-4-------------|-2-2-----4-4-----|
A|-----------------|-----------------|-----------------|-----------------|
E|-----------------|-----------------|-----------------|-----------------|
 | 1   2   3   4     1   2   3   4     1   2   3   4     1   2   3   4   |
 | Guitar 2                                                              |
e|-----------------|-----------------|-----------------|-----------------|
B|-----------------|-----------------|-----------------|-----------------|
G|-----------------|-6-6-------------|-4-4-------------|-2-2-----4-4-----|
D|-2-2-------------|-6-6-------------|-4-4-------------|-2-2-----4-4-----|
A|-2-2-------------|-4-4-------------|-2-2-------------|-0-0-----2-2-----|
E|-0-0-------------|-----------------|-----------------|-----------------|


e|-0-0-------------|-0-0-------------|-0-0-0-0-0-0-0-0-|-2-2-2-2-2-2-2-2-|
B|-0-0-------------|-2-2-------------|-2-2-2-2-2-2-2-2-|-4-4-4-4-4-4-4-4-|
G|-1-1-------------|-1-1-------------|-2-2-2-2-2-2-2-2-|-4-4-4-4-4-4-4-4-|
D|-2-2-------------|-2-2-------------|-2-2-2-2-2-2-2-2-|-4-4-4-4-4-4-4-4-|
A|-----------------|-----------------|-----------------|-----------------|
E|-----------------|-----------------|-----------------|-----------------|
 | 1   2   3   4     1   2   3   4     1   2   3   4     1   2   3   4   |
e|-----------------|-----------------|-----------------|-----------------|
B|-----------------|-----------------|-----------------|-----------------|
G|-----------------|-6-6-------------|-2-2-2-2-2-2-2-2-|-4-4-4-4-4-4-4-4-|
D|-2-2-------------|-6-6-------------|-2-2-2-2-2-2-2-2-|-4-4-4-4-4-4-4-4-|
A|-2-2-------------|-4-4-------------|-0-0-0-0-0-0-0-0-|-2-2-2-2-2-2-2-2-|
E|-0-0-------------|-----------------|-----------------|-----------------|

Chorus - 0:47
e|-----------------|-----------------|-----------------|-----------------|
B|-----------------|-----------------|-----------------|-----------------|
G|-9---9---9---9---|-9---9---9---9---|-8---8---8---8---|-----------------|
D|-9---9---9---9---|-9---9---9---9---|-9---9---9---9---|-7---7---7---7---|
A|-7---7---7---7---|-7---7---7---7---|-6---6---6---6---|-7---7---7---7---|
E|-----------------|-----------------|-----------------|-5---5---5---5---|
 |                                                                       |
 | 1   2   3   4     1   2   3   4     1   2   3   4     1   2   3   4   |
 |                                                                       |
e|-4---4---4---4---|-4---4---4---4---|-2---2---2---2---|-0---0---0---0---|
B|-5---5---5---5---|-5---5---5---5---|-4---4---4---4---|-2---2---2---2---|
G|-4---4---4---4---|-4---4---4---4---|-4---4---4---4---|-2---2---2---2---|
D|-6---6---6---6---|-6---6---6---6---|-4---4---4---4---|-2---2---2---2---|
A|-----------------|-----------------|-----------------|-----------------|
E|-----------------|-----------------|-----------------|-----------------|

e|-----------------|-----------------|-----------------|-----------------|
B|-----------------|-----------------|-----------------|-----------------|
G|-----------------|-----------------|-4---4---4---4---|-2---2---2---2---|
D|-2---2---2---2---|-2---2---2---2---|-4---4---4---4---|-2---2---2---2---|
A|-2---2---2---2---|-2---2---2---2---|-2---2---2---2---|-0---0---0---0---|
E|-0---0---0---0---|-0---0---0---0---|-----------------|-----------------|
 |                                                                       |
 | 1   2   3   4     1   2   3   4     1   2   3   4     1   2   3   4   |
 |                                                                       |
e|-4---4---4---4---|-4---4---4---4---|-2---2---2---2---|-0---0---0---0---|
B|-5---5---5---5---|-5---5---5---5---|-4---4---4---4---|-2---2---2---2---|
G|-4---4---4---4---|-4---4---4---4---|-4---4---4---4---|-2---2---2---2---|
D|-6---6---6---6---|-6---6---6---6---|-4---4---4---4---|-2---2---2---2---|
A|-----------------|-----------------|-----------------|-----------------|
E|-----------------|-----------------|-----------------|-----------------|

Verse - 0:58

   Guitar 1
e|-----------------|-----------------|-----------------|-----------------|
B|-----------------|-----------------|-----------------|-----------------|
G|-9---------------|---------------9-|-8---------------|---------------8-|
D|-9---------------|---------------9-|-9---------------|---------------9-|
A|-7---------------|---------------7-|-6---------------|---------------6-|
E|-----------------|-----------------|-----------------|-----------------|
   1   2   3   4     1   2   3   4     1   2   3   4     1   2   3   4  
e|-----------------|-----------------|-----------------|-----------------|
B|-----------------|-----------------|-----------------|-----------------|
G|-9---------------|---------------9-|-6---------------|-8---------------|
D|-9---------------|---------------9-|-6---------------|-9---------------|
A|-7---------------|---------------7-|-4---------------|-6---------------|
E|-----------------|-----------------|-----------------|-----------------|
   1   2   3   4     1   2   3   4     1   2   3   4     1   2   3   4
e|-----------------|-----------------|-----------------|-----------------|
B|-----------------|-----------------|-----------------|-----------------|
G|-9---------------|---------------9-|-8---------------|---------------8-|
D|-9---------------|---------------9-|-9---------------|---------------9-|
A|-7---------------|---------------7-|-6---------------|---------------6-|
E|-----------------|-----------------|-----------------|-----------------|
  
   Guitar 1
e|-----------------|-----------------|-----------------|-----------------|
B|-----------------|-----------------|-----------------|-----------------|
G|-9---------------|---------------9-|-6---------------|-8---------------|
D|-9---------------|---------------9-|-6---------------|-9---------------|
A|-7---------------|---------------7-|-4---------------|-6---------------|
E|-----------------|-----------------|-----------------|-----------------|
 | 1   2   3   4     1   2   3   4     1   2   3   4     1   2   3   4   |
 |  Guitar 2                                                             |
e|-----------------|-----------------|-----------------|-----------------|
B|-----------------|-----------------|-----------------|-----------------|
G|-----------------|-----------------|-----------------|-----------------|
D|-----------------|-----------------|-----------------|-----------------|
A|-----------------|-----------------|-----------------|----/11\---------|
E|-----------------|-----------------|-----------------|----/11\---------|

Pre-Chorus - 1:21

e|-0-0-------------|-0-0-------------|-2-2-------------|-0-0-----2-2-----|
B|-0-0-------------|-2-2-------------|-4-4-------------|-2-2-----4-4-----|
G|-1-1-------------|-1-1-------------|-4-4-------------|-2-2-----4-4-----|
D|-2-2-------------|-2-2-------------|-4-4-------------|-2-2-----4-4-----|
A|-----------------|-----------------|-----------------|-----------------|
E|-----------------|-----------------|-----------------|-----------------|
 | 1   2   3   4     1   2   3   4     1   2   3   4     1   2   3   4   |
 | Guitar 2                                                              |
e|-----------------|-----------------|-----------------|-----------------|
B|-----------------|-----------------|-----------------|-----------------|
G|-----------------|-6-6-------------|-4-4-------------|-2-2-----4-4-----|
D|-2-2-------------|-6-6-------------|-4-4-------------|-2-2-----4-4-----|
A|-2-2-------------|-4-4-------------|-2-2-------------|-0-0-----2-2-----|
E|-0-0-------------|-----------------|-----------------|-----------------|


e|-0-0-------------|-0-0-------------|-0-0-0-0-0-0-0-0-|-2-2-2-2-2-2-2-2-|
B|-0-0-------------|-2-2-------------|-2-2-2-2-2-2-2-2-|-4-4-4-4-4-4-4-4-|
G|-1-1-------------|-1-1-------------|-2-2-2-2-2-2-2-2-|-4-4-4-4-4-4-4-4-|
D|-2-2-------------|-2-2-------------|-2-2-2-2-2-2-2-2-|-4-4-4-4-4-4-4-4-|
A|-----------------|-----------------|-----------------|-----------------|
E|-----------------|-----------------|-----------------|-----------------|
 | 1   2   3   4     1   2   3   4     1   2   3   4     1   2   3   4   |
e|-----------------|-----------------|-----------------|-----------------|
B|-----------------|-----------------|-----------------|-----------------|
G|-----------------|-6-6-------------|-2-2-2-2-2-2-2-2-|-4-4-4-4-4-4-4-4-|
D|-2-2-------------|-6-6-------------|-2-2-2-2-2-2-2-2-|-4-4-4-4-4-4-4-4-|
A|-2-2-------------|-4-4-------------|-0-0-0-0-0-0-0-0-|-2-2-2-2-2-2-2-2-|
E|-0-0-------------|-----------------|-----------------|-----------------|

Chorus - 1:33
e|-----------------|-----------------|-----------------|-----------------|
B|-----------------|-----------------|-----------------|-----------------|
G|-9---9---9---9---|-9---9---9---9---|-8---8---8---8---|-----------------|
D|-9---9---9---9---|-9---9---9---9---|-9---9---9---9---|-7---7---7---7---|
A|-7---7---7---7---|-7---7---7---7---|-6---6---6---6---|-7---7---7---7---|
E|-----------------|-----------------|-----------------|-5---5---5---5---|
 |                                                                       |
 | 1   2   3   4     1   2   3   4     1   2   3   4     1   2   3   4   |
 |                                                                       |
e|-4---4---4---4---|-4---4---4---4---|-2---2---2---2---|-0---0---0---0---|
B|-5---5---5---5---|-5---5---5---5---|-4---4---4---4---|-2---2---2---2---|
G|-4---4---4---4---|-4---4---4---4---|-4---4---4---4---|-2---2---2---2---|
D|-6---6---6---6---|-6---6---6---6---|-4---4---4---4---|-2---2---2---2---|
A|-----------------|-----------------|-----------------|-----------------|
E|-----------------|-----------------|-----------------|-----------------|

e|-----------------|-----------------|-----------------|-----------------|
B|-----------------|-----------------|-----------------|-----------------|
G|-----------------|-----------------|-4---4---4---4---|-2---2---2---2---|
D|-2---2---2---2---|-2---2---2---2---|-4---4---4---4---|-2---2---2---2---|
A|-2---2---2---2---|-2---2---2---2---|-2---2---2---2---|-0---0---0---0---|
E|-0---0---0---0---|-0---0---0---0---|-----------------|-----------------|
 |                                                                       |
 | 1   2   3   4     1   2   3   4     1   2   3   4     1   2   3   4   |
 |                                                                       |
e|-4---4---4---4---|-4---4---4---4---|-2---2---2---2---|-0---0---0---0---|
B|-5---5---5---5---|-5---5---5---5---|-4---4---4---4---|-2---2---2---2---|
G|-4---4---4---4---|-4---4---4---4---|-4---4---4---4---|-2---2---2---2---|
D|-6---6---6---6---|-6---6---6---6---|-4---4---4---4---|-2---2---2---2---|
A|-----------------|-----------------|-----------------|-----------------|
E|-----------------|-----------------|-----------------|-----------------|

e|-----------------|-----------------|-----------------|-----------------|
B|-----------------|-----------------|-----------------|-----------------|
G|-9---9---9---9---|-9---9---9---9---|-8---8---8---8---|-----------------|
D|-9---9---9---9---|-9---9---9---9---|-9---9---9---9---|-7---7---7---7---|
A|-7---7---7---7---|-7---7---7---7---|-6---6---6---6---|-7---7---7---7---|
E|-----------------|-----------------|-----------------|-5---5---5---5---|
 |                                                                       |
 | 1   2   3   4     1   2   3   4     1   2   3   4     1   2   3   4   |
 |                                                                       |
e|-4---4---4---4---|-4---4---4---4---|-2---2---2---2---|-0---0---0---0---|
B|-5---5---5---5---|-5---5---5---5---|-4---4---4---4---|-2---2---2---2---|
G|-4---4---4---4---|-4---4---4---4---|-4---4---4---4---|-2---2---2---2---|
D|-6---6---6---6---|-6---6---6---6---|-4---4---4---4---|-2---2---2---2---|
A|-----------------|-----------------|-----------------|-----------------|
E|-----------------|-----------------|-----------------|-----------------|

e|-----------------|-----------------|-----------------|-----------------|
B|-----------------|-----------------|-----------------|-----------------|
G|-----------------|-----------------|-4---4---4---4---|-2---2---2---2---|
D|-2---2---2---2---|-2---2---2---2---|-4---4---4---4---|-2---2---2---2---|
A|-2---2---2---2---|-2---2---2---2---|-2---2---2---2---|-0---0---0---0---|
E|-0---0---0---0---|-0---0---0---0---|-----------------|-----------------|
 |                                                                       |
 | 1   2   3   4     1   2   3   4     1   2   3   4     1   2   3   4   |
 |                                                                       |
e|-4---4---4---4---|-4---4---4---4---|-2---2---2---2---|-0---0---0---0---|
B|-5---5---5---5---|-5---5---5---5---|-4---4---4---4---|-2---2---2---2---|
G|-4---4---4---4---|-4---4---4---4---|-4---4---4---4---|-2---2---2---2---|
D|-6---6---6---6---|-6---6---6---6---|-4---4---4---4---|-2---2---2---2---|
A|-----------------|-----------------|-----------------|-----------------|
E|-----------------|-----------------|-----------------|-----------------|

Bridge - 1:57

e|-----------------|-----------------|-----------------|-----------------|
B|-----------------|-----------------|-----------------|-----------------|
G|-----------------|-----------------|-----------------|-----------------|
D|-X---X---X---X---|-X---X---X---X---|-X---X---X---X---|-X---X---X---X---|
A|-X---X---X---X---|-X---X---X---X---|-X---X---X---X---|-X---X---X---X---|
E|-X---X---X---X---|-X---X---X---X---|-X---X---X---X---|-X---X---X---X---|   
 | 1   2   3   4     1   2   3   4     1   2   3   4     1   2   3   4   |
e|-----------------|-----------------|-----------------|-----------------|
B|-----------------|-----------------|-----------------|-----------------|
G|-----------------|-----------------|-----------------|-----------------|
D|-X---X---X-X---X-|-X---X---X-X---X-|-X---X---X-X---X-|-X---X---X-X---X-|
A|-X---X---X-X---X-|-X---X---X-X---X-|-X---X---X-X---X-|-X---X---X-X---X-|
E|-X---X---X-X---X-|-X---X---X-X---X-|-X---X---X-X---X-|-X---X---X-X---X-|



e|-----------------------------------------------------------------------|
B|-----------------------------------------------------------------------|
G|-----------------------------REST 14 BARS------------------------------|
D|-----------------------------------------------------------------------|
A|-----------------------------------------------------------------------|
E|-----------------------------------------------------------------------|

Guitar Solo - 2:23

  Guitar 1
e|-----------------|-----------------|-----------------|-----------------|
B|-----------------|-----------------|-----------------|-----------------|
G|-----------------|-----------------|-----------------|-----------------|
D|-----------------|-----------------|-----------------|-----------------|
A|---6~6~--7~~~--6~|-6~--7~~~--7-7~~~|---6~6~--7~~~--6~|-6~--7~~~--7-7~~~|
E|-0-----0-----0---|---0-----0-5-4~~~|-0-----0-----0---|---0-----0-5-4~~~|
   1   2   3   4     1   2   3   4     1   2   3   4     1   2   3   4
e|-----------------|-----------------|-----------------|-----------------|
B|-----------------|-----------------|-----------------|-----------------|
G|-----------------|-----------------|-----------------|-----------------|
D|-----------------|-----------------|-----------------|-----------------|
A|---6~6~--7~~~--6~|-6~--7~~~--7-7~~~|---6~~~--6~~~--6~|~~~--6~~~~~~~~~~-|
E|-0-----0-----0---|---0-----0-5-4~~~|-0-----0-----0---|---0-------------|
   1   2   3   4     1   2   3   4     1   2   3   4     1   2   3   4

Chorus - 2:35

  Guitar 1
e|-4-4-4-4-4-4-4-4-|-4-4-4-4-4-4-4-4-|-2-2-2-2-2-2-2-2-|-0-0-0-0-0-0-0-0-|
B|-5-5-5-5-5-5-5-5-|-5-5-5-5-5-5-5-5-|-4-4-4-4-4-4-4-4-|-2-2-2-2-2-2-2-2-|
G|-4-4-4-4-4-4-4-4-|-4-4-4-4-4-4-4-4-|-4-4-4-4-4-4-4-4-|-2-2-2-2-2-2-2-2-|
D|-6-6-6-6-6-6-6-6-|-6-6-6-6-6-6-6-6-|-4-4-4-4-4-4-4-4-|-2-2-2-2-2-2-2-2-|
A|-----------------|-----------------|-----------------|-----------------|
E|-----------------|-----------------|-----------------|-----------------|
 |                                                                       |
 | 1   2   3   4     1   2   3   4     1   2   3   4     1   2   3   4   |
 | Guitar 2                                                              |
e|-----------------|-----------------|-----------------|-----------------|
B|-----------------|-----------------|-----------------|-----------------|
G|-9-9-9-9-9-9-9-9-|-9-9-9-9-9-9-9-9-|-8-8-8-8-8-8-8-8-|-----------------|
D|-9-9-9-9-9-9-9-9-|-9-9-9-9-9-9-9-9-|-9-9-9-9-9-9-9-9-|-7-7-7-7-7-7-7-7-|
A|-7-7-7-7-7-7-7-7-|-7-7-7-7-7-7-7-7-|-6-6-6-6-6-6-6-6-|-7-7-7-7-7-7-7-7-|
E|-----------------|-----------------|-----------------|-5-5-5-5-5-5-5-5-|

e|-4-4-4-4-4-4-4-4-|-4-4-4-4-4-4-4-4-|-2-2-2-2-2-2-2-2-|-0-0-0-0-0-0-0-0-|
B|-5-5-5-5-5-5-5-5-|-5-5-5-5-5-5-5-5-|-4-4-4-4-4-4-4-4-|-2-2-2-2-2-2-2-2-|
G|-4-4-4-4-4-4-4-4-|-4-4-4-4-4-4-4-4-|-4-4-4-4-4-4-4-4-|-2-2-2-2-2-2-2-2-|
D|-6-6-6-6-6-6-6-6-|-6-6-6-6-6-6-6-6-|-4-4-4-4-4-4-4-4-|-2-2-2-2-2-2-2-2-|
A|-----------------|-----------------|-----------------|-----------------|
E|-----------------|-----------------|-----------------|-----------------|
 | 1   2   3   4     1   2   3   4     1   2   3   4     1   2   3   4   |
e|-----------------|-----------------|-----------------|-----------------|
B|-----------------|-----------------|-----------------|-----------------|
G|-----------------|-----------------|-4-4-4-4-4-4-4-4-|-2-2-2-2-2-2-2-2-|
D|-2-2-2-2-2-2-2-2-|-2-2-2-2-2-2-2-2-|-4-4-4-4-4-4-4-4-|-2-2-2-2-2-2-2-2-|
A|-2-2-2-2-2-2-2-2-|-2-2-2-2-2-2-2-2-|-2-2-2-2-2-2-2-2-|-0-0-0-0-0-0-0-0-|
E|-0-0-0-0-0-0-0-0-|-0-0-0-0-0-0-0-0-|-----------------|-----------------|

e|-4-4-4-4-4-4-4-4-|-4-4-4-4-4-4-4-4-|-2-2-2-2-2-2-2-2-|-0-0-0-0-0-0-0-0-|
B|-5-5-5-5-5-5-5-5-|-5-5-5-5-5-5-5-5-|-4-4-4-4-4-4-4-4-|-2-2-2-2-2-2-2-2-|
G|-4-4-4-4-4-4-4-4-|-4-4-4-4-4-4-4-4-|-4-4-4-4-4-4-4-4-|-2-2-2-2-2-2-2-2-|
D|-6-6-6-6-6-6-6-6-|-6-6-6-6-6-6-6-6-|-4-4-4-4-4-4-4-4-|-2-2-2-2-2-2-2-2-|
A|-----------------|-----------------|-----------------|-----------------|
E|-----------------|-----------------|-----------------|-----------------|
 | 1   2   3   4     1   2   3   4     1   2   3   4     1   2   3   4   |
e|-----------------|-----------------|-----------------|-----------------|
B|-----------------|-----------------|-----------------|-----------------|
G|-9-9-9-9-9-9-9-9-|-9-9-9-9-9-9-9-9-|-8-8-8-8-8-8-8-8-|-----------------|
D|-9-9-9-9-9-9-9-9-|-9-9-9-9-9-9-9-9-|-9-9-9-9-9-9-9-9-|-7-7-7-7-7-7-7-7-|
A|-7-7-7-7-7-7-7-7-|-7-7-7-7-7-7-7-7-|-6-6-6-6-6-6-6-6-|-7-7-7-7-7-7-7-7-|
E|-----------------|-----------------|-----------------|-5-5-5-5-5-5-5-5-|

e|-4-4-4-4-4-4-4-4-|-4-4-4-4-4-4-4-4-|-2-2-2-2-2-2-2-2-|-0-0-0-0-0-0-0-0-|
B|-5-5-5-5-5-5-5-5-|-5-5-5-5-5-5-5-5-|-4-4-4-4-4-4-4-4-|-2-2-2-2-2-2-2-2-|
G|-4-4-4-4-4-4-4-4-|-4-4-4-4-4-4-4-4-|-4-4-4-4-4-4-4-4-|-2-2-2-2-2-2-2-2-|
D|-6-6-6-6-6-6-6-6-|-6-6-6-6-6-6-6-6-|-4-4-4-4-4-4-4-4-|-2-2-2-2-2-2-2-2-|
A|-----------------|-----------------|-----------------|-----------------|
E|-----------------|-----------------|-----------------|-----------------|
 | 1   2   3   4     1   2   3   4     1   2   3   4     1   2   3   4   |
e|-----------------|-----------------|-----------------|-----------------|
B|-----------------|-----------------|-----------------|-----------------|
G|-----------------|-----------------|-4-4-4-4-4-4-4-4-|-2-2-2-2-2-2-2-2-|
D|-2-2-2-2-2-2-2-2-|-2-2-2-2-2-2-2-2-|-4-4-4-4-4-4-4-4-|-2-2-2-2-2-2-2-2-|
A|-2-2-2-2-2-2-2-2-|-2-2-2-2-2-2-2-2-|-2-2-2-2-2-2-2-2-|-0-0-0-0-0-0-0-0-|
E|-0-0-0-0-0-0-0-0-|-0-0-0-0-0-0-0-0-|-----------------|-----------------|
 
Outro - 2:58
   Guitar 1
e|-----------------|-----------------|-----------------|-----------------|
B|-----------------|-----------------|-----------------|-----------------|
G|-----------------|-----------------|-----------------|-----------------|
D|-----------------|-----------------|-----------------|-----------------|
A|---6~6~--7~~~--6~|-6~--7~~~--7-7~~~|---6~6~--7~~~--6~|-6~--7~~~--7-7~~\|
E|-0-----0-----0---|---0-----0-5-4~~~|-0-----0-----0---|---0-----0-5-4~~\|
   1   2   3   4     1   2   3   4     1   2   3   4     1   2   3   4 

                                  ==END==
 
| /  slide up                  
| \  slide down                 
| h  hammer-on                 
| p  pull-off                |\|/|  
| ~  vibrato                  |||
| +  harmonic                | | |  Transformers sucks. 
| x  Mute note                \=/
============================================================================
comments
print report bad tab
3 comments total.
0 reply
manda1303 wrote on September 1 2009, 09:19 pm

Is it Celebrity Status or Perfect, because the two titles say different things?

0 reply
ultrabeatdown44 wrote on September 2 2009, 11:10 am

Sorry, its Celebrity Status. I mixed up the titles!!

-1 reply
jnorth1969 wrote on April 8 2010, 12:22 am

Your interpretation of chord voicings seems awfully complicated for a song as relatively simple as this. It's like you're trying to create extra material to fill up two guitar parts when really one guitar could almost produce the same sounds using 5- or 6-string barre chords. And I still believe that the chord in measure 3 (and every other similar spot) is not a B/D# but rather an E5/D#. Ah, well ... for all I know, you have inside info from the band or a better-quality recording than I do to lift from. Happy tabbing!

I want to post or [tab]
guest
You may want to rate the tab now too:
select rating
Please do not post tabs as comments. Select "correction" instead!