Oops, an error
Loading. Please wait.

The Speed Of Pain Tab

ver1
ver1

Whole song

Interactive

More versions @911Tabs.com
19,855 views 43 this week
1 commentread comment
1 2 3 4 5
accurate
x 12
Autoscroll
+/-
esc
set tempo
stop
Hey! There's an official Ultimate Guitar app which is ideal
for learning songs when you're away from computer. Get the app
WARNING: You are trying to view
                                    content from Ultimate-Guitar.com
                                    in an unauthorized application,
                                    which is prohibited.

                                    Please use an official Ultimate
                                    Guitar Tabs application for iPhone,
                                    iPad or Android to access legitimate
                                    chords, guitar, bass, and drum tabs
                                    from Ultimate-Guitar.com database.

                                    Type "ultimate guitar tabs" in Apple
                                    App Store's or Android Market's
                                    search to find the application.
The Speed Of Pain by Marilyn Manson
Guitarist: Zim Zum + Twiggy Ramirez
Album: Mechanical Animals
Dif.: 7
Tabbed by TWIGGy5

NOTE: I’m not gonna tell the rhythm for this one, you can figure it out yourself

Intro (Gtr. 3, Acoustic)
E|-0-|-0-|
B|-0-|-1-|
G|-0-|-0-|
D|-2-|-2-|
A|-2-|-3-|
E|-0-|---|
  Em   C

Intro (Synth. Arr. For Guitar 4)
D|-7---5------4---|
A|---------3------|

Verse (Gtr. 3, Acoustic)
E|-0-|-0-|-0-|-0-|-0-|-3-|-2-|-0-|
B|-0-|-1-|-0-|-0-|-0-|-3-|-2-|-0-|
G|-0-|-0-|-0-|-2-|-0-|-4-|-3-|-0-|
D|-2-|-2-|-2-|-2-|-2-|-5-|-4-|-2-|
A|-2-|-3-|-2-|-0-|-2-|-5-|-4-|-2-|
E|-0-|---|-0-|---|-0-|-3-|-2-|-0-|
  Em   C   Em  A   Em  G   F#  Em


 Em             C                 Em                 A
They slit       our throats       like   we  were flo-wers

  Em               G            F#           Em
And our milk     has been     Dev - o - u - red

Pre-Chorus (Gtr. 3, Acoustic)
E|-0-|-0-|-0-|-0-|-0-|-0-|-0-|-3-|-2-|---|
B|-0-|-0-|-0-|-0-|-0-|-1-|-0-|-3-|-2-|---|
G|-2-|-0-|-2-|-0-|-2-|-0-|-0-|-4-|-3-|---|
D|-2-|-2-|-2-|-2-|-2-|-2-|-2-|-5-|-4-|-3-|
A|-0-|-2-|-0-|-2-|-0-|-3-|-2-|-5-|-4-|-3-|
E|---|-0-|---|-0-|---|---|-0-|-3-|-2-|-1-|
   A  Em   A   Em  A   C   Em  G   F#  F5


   A                     Em
But when you want it     goes away to fast

       A                    Em
Times you hate it     always seem to last

   A                                   C
Just remember   when you think you’re free

   Em                  G      F#       F5
The crack inside your fuck-ing heart is me

Chorus (Gtr. 3, Acoustic)
E|-0-|-0-|
B|-0-|-1-|
G|-0-|-0-|
D|-2-|-2-|
A|-2-|-3-|
E|-0-|---|
  Em   C

 Em                  C
And I……….…… I Wanna outrace the speed of pain

 Em                    C
For ano - ther         day

Verse 2 (Gtr. 3, Acoustic)
E|-0-|-0-|-0-|-0-|-0-|-3-|-2-|-0-|
B|-0-|-1-|-0-|-0-|-0-|-3-|-2-|-0-|
G|-0-|-0-|-0-|-2-|-0-|-4-|-3-|-0-|
D|-2-|-2-|-2-|-2-|-2-|-5-|-4-|-2-|
A|-2-|-3-|-2-|-0-|-2-|-5-|-4-|-2-|
E|-0-|---|-0-|---|-0-|-3-|-2-|-0-|
  Em   C   Em  A   Em  G   F#  Em


    Em           C                  Em              A
And I wish    I could sleep      but I can’t lay on my back

  Em                     G              
Cause there’s a knife      for everyday

    F#                      Em
That I’ve known………….…………………....... You

Pre-Chorus 2 (Gtr. 2)
D|-----7-5^~~~-------5^~~-|
A|---7--------------------|
E|-5-----------0--0-------|

Bridge (Gtr. 2) (“Lie with me…….”)
B|-----8-----8---8-------------------
G|---7-----7------------8-----8---8--
D|-5-----5-----5------8-----8--------
A|------------------6-----6-----6----

Bridge (Gtr. 2) (cont.)
G|-----5-----5----5-----7-----7---7---|
D|---5-----5----------7-----7---------|
A|-3-----3-----3----5-----5-----5-----|

Bridge 2 (Gtr. 2) (“Keep all…..”)
D|-----6-----6----6-----4-----4----4--
A|---6-----6----------4-----4---------
E|-4-----4-----4----2-----2-----2-----

Bridge 2 (Gtr. 2) (cont.)
D|-----3-----3----3---|-%-|
A|---3-----3----------|-%-|
E|-1-----1-----1------|-%-|

Bridge 2 (Synth. Arr. For Guitar 4)
B|-------------------8----6----|
G|-8----8-6----6-5-------------|

Bridge 2 (Gtr. 1) (Let All Chords Ring)
D|-6-------4-------3----------3---------|
A|-6-------4-------3----------3---------|
E|-4-------2-------1----------1---------|

Song Structure: -
Synth. Crap At First
Intro
Intro (Gtr. 3)/Intro (Gtr. 4)
Verse
Pre-Chorus
Chorus
Verse
Pre-Chorus (Gtr. 3)/Pre-Chorus (Gtr. 2)
Chorus
Bridge (Gtr. 2)
Bridge 2 (Gtr. 2)/Bridge 2 (Gtr. 4)/Bridge 2 (Gtr. 1)
Bridge (Gtr. 2)
Bridge 2 (Gtr. 2)/Bridge 2 (Gtr. 4)/Bridge 2 (Gtr. 1)
Outro Synth. Fade Out

Aww such a beautiful song. 
Nothing can compare. So much is in this song. 
If you have any comments, corrections, suggestions or even requests feel 
free to email me at toxic345x@yahoo.ca
===========Song: The Speed of Pain
Artist: Marilyn Manson
Album: Mechanical Animals
As tabbed by Joe Muggah


Chord List:
  Em    C  Asus2  G    Gb   F 
e--0----0----0----3----2----1----------
B--0----0----0----3----2----1----------
G--0----0----2----4----3----2----------
D--2----2----2----5----4----3----------
A--2----3----0----5----4----3----------
E--0--------------3----2----1----------


Intro A (Guitar 1) 
Em   C   Em   C   Em   C   Em   C   Em   C   Em   C

Strumming for the chords are as follows:
            Em			  C
e----0-0---0-0-0-0-0-0------0-0---0-0-0-0-0-0---------
B----0-0---0-0-0-0-0-0------0-0---0-0-0-0-0-0---------
G----0-0---0-0-0-0-0-0------0-0---0-0-0-0-0-0---------
D--2-----2-----2-2-2-2----2-----2-----2-2-2-2---------
A--2-----2-----2-2-2-2----3-----3-----3-3-3-3---------
E--0-----0-----0-0-0-0--------------------------------

Intro B (Guitar 2) 
e--------------------------------------
B--------------------------------------
G--2---0--0---------4------------------
D--------------------------------------
A--------------3-----------------------
E--------------------------------------

Verse (verse 1 and 2 have the same chord pattern)
  Em               C           Em               Asus2
They slit    our throats,   like we   were  floooweeers
	 Em           G          Gb   Em
and our milk    has been     devooooured.


Pre-Chorus A (Guitar 1):
Em        Asus2		     Em
When you want it,    it goes away  too faast
	       Asus2		  Em
the times you hate it,   always seem to laaast.
      Asus2			       C
just remember  when you think you're  free,
      Asus2		G	 Gb   F  Em
that crack inside your fu-cking heart is me.

Pre-Chorus B (Guitar 2) 
e--------------------------------------
B--------------------------------------
G--------------------------------------
D------7---5^-----------5^-------------
A----7---------------------------------
E--5-------------0--0------------------


Chorus A (Guitar 1):
Em	   C			    Em                C
I wanna outrace the speed of pain   for anotheeer daaay.

Chorus B (Guitar 2):
e--------------------------------------
B--------------------------------------
G--2--4--0-------4---4-----------------
D--------------------------------------
A------------3-------------------------
E--------------------------------------

Riff 1A (Guitar 1)
e-----------------------------------------------------
B----8---8--------------------------------------------
G---7---7---7---8---8-------5---5--------7---7--------
D--5---5---5---8---8---8---5---5---5----7---7---7-----
A-------------6---6---6---3---3---3----5---5---5------
E-----------------------------------------------------
"Lie to me..."

Riff 1B (Synthasizer arranged for Guitar 2)
e-----------------------------------------------------
B-----------------------------------------------------
G------8-----3--5--------8----3--5--7-----------------
D--5-----8-----------5-----8--------------------------
A-----------------------------------------------------
E-----------------------------------------------------

Riff 2A (Guitar 1, let ring after each strum)
e-----------------------------------------------------
B-----------------------------------------------------
G-----------------------------------------------------
D--6------------4-----------3------------3------------
A--6------------4-----------3------------3------------
E--4------------2-----------1------------1------------

Riff 2B (Guitar 2)
e-----------------------------------------------------
B-----------------------------------------------------
G-----------------------------------------------------
D----6---6--6----4---4--4----3---3--3----3---3--3-----
A---6---6-------4---4-------3---3-------3---3---------
E--4---4---4---2---2---2---1---1---1---1---1---1------

Riff 2C (Synthasizer arranged for Guitar 3)
e-----------------------------------------------------
B-----------------------------------------------------
G-----------------------------------------------------
D-----------------5--3-------------------5--3---------
A--6--6--4--4--3---------6--6---3--4--3---------------
E-----------------------------------------------------

Intro A, B
Verse 1
PreChorus A
Chorus A
Verse 2
Pre-Chorus A, B
Chorus A, B
Riff 1A
Riff 2A, 2B
Riff 1A, 1B
Riff 2A, 2B, 2C
===========Speed Of Pain

by Pavel Doujnikov

Note: ^=bend up  ~=tremelo  /=slide (only in the tab section!)

Im not including the strumming for the acoustic part cause its very
easy to figure out. Im sure this is full of mistakes, but the problem
is that there are lots of wierd synthesized sounds and probably more 
than one guitar playing. But this sounds pretty good when you play it 
along with the CD.

Chords:

   Em    C/B  Asus2   G    Gb
E|--0--|--0--|--0--|--3--|--2--|
B|--0--|--0--|--0--|--3--|--2--|
G|--0--|--0--|--2--|--4--|--3--|
D|--2--|--2--|--2--|--5--|--4--|
A|--2--|--3--|--0--|--5--|--4--|
E|--0--|--0--|--0--|--3--|--2--|

Intro (Instrumental) + Chorus ("I wanna outrace the speed of pain...")
Em--C/B--Em--C/B--Em--C/B--Em--C/B

Verse ("They slit our throats...")
Em--C/B--Em--Asus2--Em--G--Gb--Em--

Pre-Chorus ("When you want it...")
Asus2--Em--Asus2--Em--Asus2--C/B--Asus2--G--Gb--|

("Lie to me, die to me...")
B|----12-----12------8---8----5---5----7---7--|
G|---12-12--12-12---8-8-8-8--5-5-5-5--7-7-7-7-|x2
D|-12------12------8---8----5---5----7---7----|

("Keep all your secrets...") - These are the chords. The strumming is
very hard to hear. Its propably similar to the part above.
G|-8/7/6/5--------|
D|-8/7/6/5-/^5-8~-|x2 
A|-6/5/4/3--------|
----------------------------------------------------------------------

My other tabs: Use the Man (Megadeth), God That Failed (Metallica) and
Gold-Dust Woman (Hole). 
Email me for corrections, questions, threats, anything...:
diademis@hotmail.com
comments
print report bad tab
1 comment total.
0 reply
crawsome wrote on October 21 2014, 06:05 pm

Clearly wrong. rth ry uty uy tu jtyu t u tyut y yuud rt6yu 6d udr6 drth d6u d sdr6u kyukyukyukyukyuk kyu uykyukyukyu kyku yku kyuykyukyukyukyukyu

I want to post or [tab]
guest
You may want to rate the tab now too:
select rating
Please do not post tabs as comments. Select "correction" instead!