Oops, an error
Loading. Please wait.

Moves Like Jagger Tab

ver2
ver2

Interactive

Video

More versions @911Tabs.com
39,185 views 48 this week
no commentswrite comment
1 2 3 4 5
accurate
x 4
Autoscroll
+/-
esc
set tempo
stop
Contributor
Difficulty
intermediate
Hey! There's an official Ultimate Guitar app which is ideal
for learning songs when you're away from computer. Get the app
WARNING: You are trying to view
                                    content from Ultimate-Guitar.com
                                    in an unauthorized application,
                                    which is prohibited.

                                    Please use an official Ultimate
                                    Guitar Tabs application for iPhone,
                                    iPad or Android to access legitimate
                                    chords, guitar, bass, and drum tabs
                                    from Ultimate-Guitar.com database.

                                    Type "ultimate guitar tabs" in Apple
                                    App Store's or Android Market's
                                    search to find the application.
Moves Like Jagger - Maroon 5 Ft. Christina Aguilera                      


E||----------------------------|---------------|----------------------------|
B||----------------------------|---------------|----------------------------|
G||-----------2s--4--2---------|---------------|-----------2s--4--2---------|
D||--------2------------4--2---|-----2s--4-----|--------2------------4--2---|
A||--2--5--------------------5-|--5---------2--|--2--5--------------------5-|
E||----------------------------|---------------|----------------------------|
 
 
---------------|---------------------------------------|
---------------|----------10s-12-10--------------------|
---------------|--------9-----------11-9-------9s-11---|
-----2s--4-----|--9--12------------------12-12-------9-|
--5---------2--|---------------------------------------|
---------------|---------------------------------------|
 
 
------------------------------------------|------------------------|
----------10s-12-10-----------------------|------------------------|
--------9-----------11-9-------9s-11------|------------------------|
--9--12------------------12-12-------9----|--------2s-4-----4s-2-2-|
---------------------------------------/2-|--2-4-5-----------------|
------------------------------------------|-------------2-2--------|
 
 
------------------------|--------------------------------------|
------------------------|--------------------------------------|
------------------------|--------------------------------------|
--------2s-4-----4s-2-2-|----4-2----------4-2----------4-2-----|
--2-4-5-----------------|--2-----5-5s-2-2-----5-5s-2-2-----5-5-|
-------------2-2--------|--------------------------------------|
 
 
----------------------------|---------------------------------------|
----------------------------|---------------------------------------|
-----------2s--4--2---------|---------------------------------------|
--------2------------4--2---|-----2s--4-----------2s-4-----4s-2-2---|
--2--5--------------------5-|--5---------2--2-4-5-----------------2-|
----------------------------|--------------------------2-2----------|
 
 
------------------------|-----------------------------------------|
------------------------|-----------------------------------------|
------------------------|-----------------------------------------|
--------2s-4-----4s-2-2-|----4-2----------4-2----------4-2--------|
--2-4-5-----------------|--2-----5-5s-2-2-----5-5s-2-2-----5-5s-2-|
-------------2-2--------|-----------------------------------------|
 
 
-------------------|-------------------------|-----------------------------|
-------------------|-------------------------|-----------------------------|
-------------------|-------------------------|-----------------------------|
-------------------|--9-7--------------------|--9-7------------------------|
-------------------|------9-7-------7--------|------9-7-------7------------|
--7p-5-7p-5-7p-5-7-|----------10-10---7-10-7-|----------10-10---7-10-10-10-|
 
 
--------------------------------------|--------------------------------|
--------------------------------------|--------------------------------|
--------------------------------------|--------------------------------|
--------------------------------------|---------7s-9-7-----------------|
--7-----------------7-----------------|-------7--------9-7-------7-----|
----7-7s-5-10-10-10---7-7s-5-10-10-10-|--7-10--------------10-10---7-5-|
 
 
-------------------------------|-------------------------------------------|
--12p-10-----------------------|--12p-10-----------------------------------|
---------11p-9-------9---------|---------11p-9-------9------------9--------|
---------------12-12---9-12s-9-|---------------12-12---9-12-12-12---9-9----|
-------------------------------|----------------------------------------12-|
-------------------------------|-------------------------------------------|
 
 
-----------------------------|---------------------------------------------|
-----------------------------|---------10s-12-10---------------------------|
-----------9-----------------|-------9-----------11-9-------9-----------9s-|
--12-12-12---9-9----12-12-12-|--9-12------------------12-12---9-9-11-12----|
-----------------12----------|---------------------------------------------|
-----------------------------|---------------------------------------------|
 
 
------------------------------|------------------------------------|
------------------------------|------------------------------------|
--11-----11p-9-9-----------9s-|--11-----11p-9-9---11p-9------------|
-----------------9-9-11-12----|-----------------9-------12-12s-9-9-|
-----9-9----------------------|-----9-9----------------------------|
------------------------------|------------------------------------|
 
 
-------------------|-------------------------------------------------|
-------------------|---------------------10s-12s-10------------------|
--11p-9------------|--11p-9------------9------------11-9-------9s-11-|
--------12-12s-9-9-|--------12-12-9-12-------------------12-12-------|
-------------------|-------------------------------------------------|
-------------------|-------------------------------------------------|
 
 
---------------|------------------------------|
---------------|------------------------------|
------------9s-|--11-----11p-9-9-----------9s-|
--9-9-11-12----|-----------------9-9-11-12----|
---------------|-----9-9----------------------|
---------------|------------------------------|
 
 
------------------------------------|-------------------|
------------------------------------|-------------------|
--11-----11p-9-9---11p-9------------|--11p-9------------|
-----------------9-------12-12s-9-9-|--------12-12s-9-9-|
-----9-9----------------------------|-------------------|
------------------------------------|-------------------|
 
 
--19\-----------------------|-------------------------------|
----------------------------|--12p-10-----------------------|
------11-9------------------|---------11p-9-------9---------|
-----------9----9----9----9-|---------------12-12---9-12s-9-|
-------------12---12---12---|-------------------------------|
----------------------------|-------------------------------|
 
 
-------------------------------------------|-----------------------------|
--12p-10-----------------------------------|-----------------------------|
---------11p-9-------9------------9--------|-----------9-----------------|
---------------12-12---9-12-12-12---9-9----|--12-12-12---9-9----12-12-12-|
----------------------------------------12-|-----------------12----------|
-------------------------------------------|-----------------------------|
 
------------------------------------|--19p-17--------------------------|
---------10s-12-10------------------|---------19p-17-------17----------|
-------9-----------11-9-------9-----|----------------19-19----16-19-16-|
--9-12------------------12-12---9-7-|----------------------------------|
------------------------------------|----------------------------------|
------------------------------------|----------------------------------|
 
 
--19p-17-----------------------------------------|
---------19p-17-------17-------------17----------|
----------------19-19----16-19-19-19----16-16-14-|
-------------------------------------------------|
-------------------------------------------------|
-------------------------------------------------|
 
 
--------------------------------|-----------17s-19s-17----------------------|
-----------17-------------------|--------17------------19-17-------17-------|
--19-19-19----16-16-14-19-19-19-|--16-19---------------------19-19----16----|
--------------------------------|----------------------------------------19-|
--------------------------------|-------------------------------------------|
--------------------------------|-------------------------------------------|
 
 
----------------------------------|-------------------|
----------------------------------|-------------------|
----11-9s-11-----11-9s-11-11-9-11-|--\11-11-9-11-9-11-|
--9----------9-9------------------|-------------------|
----------------------------------|-------------------|
----------------------------------|-------------------|
 
 
---------------------------------------------|
---------------------------------------------|
-------9-11-9--------11------9-11-9----------|
--9-12--------12s-14----9-12--------12s-14-9-|
---------------------------------------------|
---------------------------------------------|
 
 
----------------------------------------|
----------------------------------------|
------------9-11-9----------------------|
-------9-12--------12s-14-9-------------|
--12-9----------------------12-9-12s-14-|
----------------------------------------|
 
 
------------------------------------------------|
--10-------------------------10-12-10h-12-10----|
--------9h-11-9h-11-11-11-11-----------------11-|
-----12-----------------------------------------|
------------------------------------------------|
------------------------------------------------|
 
 
--------------------------------------|
----------12-10-----------------------|
--11-9-11-------11-9-11-9-9s-11-9s-11-|
--------------------------------------|
--------------------------------------|
--------------------------------------|
 
 
---------------------------------------------|-----------------------------|
---------------------------------------------|-----------------------------|
-------9-11-9--------11------9-11-9----------|------------9-11-9--------11-|
--9-12--------12s-14----9-12--------12s-14-9-|-------9-12--------12s-14----|
---------------------------------------------|--12-9-----------------------|
---------------------------------------------|-----------------------------|
 
 
-------------------------------|-------------------------------|
--------12-15------------------|--12p-10-----------------------|
--11-14------------------------|---------11p-9-------9---------|
--------------9----9----9----9-|---------------12-12---9-12s-9-|
----------------12---12---12---|-------------------------------|
-------------------------------|-------------------------------|
 
 
-------------------------------------------|-----------------------------|
--12p-10-----------------------------------|-----------------------------|
---------11p-9-------9------------9--------|-----------9-----------------|
---------------12-12---9-12-12-12---9-9----|--12-12-12---9-9----12-12-12-|
----------------------------------------12-|-----------------12----------|
-------------------------------------------|-----------------------------|
 
 
------------------------------------|--19p-17--------------------------|
---------10s-12-10------------------|---------19p-17-------17----------|
-------9-----------11-9-------9-----|----------------19-19----16-19-16-|
--9-12------------------12-12---9-7-|----------------------------------|
------------------------------------|----------------------------------|
------------------------------------|----------------------------------|
 
 
--19p-17-----------------------------------------|
---------19p-17-------17-------------17----------|
----------------19-19----16-19-19-19----16-16-14-|
-------------------------------------------------|
-------------------------------------------------|
-------------------------------------------------|
 
 
--------------------------------|
-----------17-------------------|
--19-19-19----16-16-14-19-19-19-|
--------------------------------|
--------------------------------|
--------------------------------|
 
comments
print report bad tab
I want to post or [tab]
guest
You may want to rate the tab now too:
select rating
Please do not post tabs as comments. Select "correction" instead!