Oops, an error
Loading. Please wait.

Cassandra Gemini Tab

ver1
ver1

Whole song

Interactive

More versions @911Tabs.com
17,593 views 36 this week
14 commentsread comments
1 2 3 4 5
excellent!
x 23
Autoscroll
+/-
esc
set tempo
stop
Contributor
Hey! There's an official Ultimate Guitar app which is ideal
for learning songs when you're away from computer. Get the app
WARNING: You are trying to view
                                    content from Ultimate-Guitar.com
                                    in an unauthorized application,
                                    which is prohibited.

                                    Please use an official Ultimate
                                    Guitar Tabs application for iPhone,
                                    iPad or Android to access legitimate
                                    chords, guitar, bass, and drum tabs
                                    from Ultimate-Guitar.com database.

                                    Type "ultimate guitar tabs" in Apple
                                    App Store's or Android Market's
                                    search to find the application.
Band: The Mars Volta
Album: Frances the Mute
Song: Cassandra Gemini

This took me awhile to tab and there's still a couple of little parts that I haven't
tabbed yet, but when I finish them I'll update this tab. Anyway, here you go. 

Part 1
|-4-5p4-(x5)-6-4-5p4-(x3)-6-4-5p4-(x5)-6-4-5p4-(x4)-|
|---------------------------------------------------|
|---------------------------------------------------|
|---------------------------------------------------|
|---------------------------------------------------|
|---------------------------------------------------|

1st Ending
|-15---------------------------------------------10----12----|
|-----10h11p10-----------------------------12-10----12----11-|
|--------------12--11h12p11h12p11-11--9-12-------------------|
|------------------------------------------------------------|
|------------------------------------------------------------|
|------------------------------------------------------------|

2nd Ending
|-10h12h14-10h12h14-10h12h14-10h12h14-10h12-12p10------------------------12-|
|-------------------------------------------------12---12-15-12-12-12-15----|
|---------------------------------------------------------------------------|
|---------------------------------------------------------------------------|
|---------------------------------------------------------------------------|
|---------------------------------------------------------------------------|

|---------------17h19--------|
|-15-15-17-15---------18--19-|
|----------------------------|
|----------------------------|
|----------------------------|
|----------------------------|

3rd Ending
|-17--15-------------------------------------------------------------17-------17-|
|-----------------------------------------------------15-15-------17----17-16----|
|--------17-17-16-17-16-17----------------------------------17-17----------------|
|--------------------------17--17-17-19p17-17----16------------------------------|
|---------------------------------------------16---------------------------------|
|--------------------------------------------------------------------------------|

0:41-1:26
|-7--10--7------------------------------------|
|-8---9--8----10-8----------10-8--------------|
|-9---8--9-----8-----9--11-------11-11-9-8-x4-|
|-------------10------------------------------|
|---------------------------------------------|
|---------------------------------------------|

Verse
|-------7-----7---|-------10-----9---|-------7-----7---|-------10-----9---|
|---8-----8-----0-|---9------9-----0-|---8-----8-----0-|---9------9-----0-|
|-9---9-----9-----|-8---8------8-----|-9---9-----9-----|-8---8------8-----|
|-----------------|------------------|-----------------|------------------|
|-----------------|------------------|-----------------|------------------|
|-----------------|------------------|-----------------|------------------|

|-------5-----3---|---0---2----0---|-------2-----0---|----------------|
|---4-----4-----0-|-0---0----0-----|---1-----1-----1-|-10-8-----------|
|-5---5-----5-----|--------------0-|-2---2-----2-----|------11-11-9-8-|
|-----------------|----------------|-----------------|----------------|
|-----------------|----------------|-----------------|----------------|
|-----------------|----------------|-----------------|----------------|

Chorus (No there\'s no light....)#1
|-12--12--------------------------------------12--------14------15---------|
|-x---x--(x7)--12-------13--12-10-10-10-10----x--(x10)--x--(x5)-x--(x4)----|
|-9---9--------x--(x6)--x---x--x--x--x--x-----9---------11------12------x2-|
|--------------9--------10--9--7--7--7--7----------------------------------|
|--------------------------------------------------------------------------|
|--------------------------------------------------------------------------|

2:34-2:47
|------8-------8--------------10-10-8---------------------7---------------------------|
|-8h10----8h10---10-----7--0----------10-10-8----------8----10-10-8----10-8-----------|
|-------------------7h9-----------------------9-9-7-9---------------9-------11-11-9-8-|
|-------------------------------------------------------------------------------------|
|-------------------------------------------------------------------------------------|
|-------------------------------------------------------------------------------------|

Chorus (No there\'s no light....)#2
|-12--12--------------------------------------12--------14------15---------|
|-x---x--(x7)--12-------13--12-10-10-10-10----x--(x10)--x--(x5)-x--(x4)----|
|-9---9--------x--(x6)--x---x--x--x--x--x-----9---------11------12------x2-|
|--------------9--------10--9--7--7--7--7----------------------------------|
|--------------------------------------------------------------------------|
|--------------------------------------------------------------------------|

Guitar 1 repeats above riff but guitar 2 plays....

|-------------------------------------|
|-12b--10-----------------------------|
|---------12-11-12-11-------9-11-9-x2-|
|-----------------------12------------|
|-------------------------------------|
|-------------------------------------|

4:10-4:45 (Shock lest Shackles...)
|----------------------------------|
|---------------5p3----------------|
|-----5-----2-----------5-----4----|
|-2---5--5--2-------2---5--5--4-x4-|
|-2---3--5--0-------2---3--5--2----|
|-0------3----------0------3-------|

Part 2
|-------------------------------------------------------------|
|-----8h10p8-------7------------------------------------------|
|-9b---------7-7-7---9-7-9-9-7-9-9-7-9-9-7--------------------|
|------------------------------------------9--7--9-9-7-9------|
|--------------------------------------------------------10-7-|
|-----------------------------------------------------------0-|

|-0-------------------15-15-12-(x10)-19b-19b-19b-|
|---10-12-10-12-10-0-----------------------------|
|------------------------------------------------|
|------------------------------------------------|
|------------------------------------------------|
|------------------------------------------------|

This next part has two guitars.

Guitar 1
|---------------------------------------------------------|
|------------7-7----------------8--------------7-7--------|
|-9-9-7-(x4)-----7-(x2)-----7h9-----9-9-7-(x4)-----7-(x2)-|
|-----------------------7h9-------------------------------|
|---------------------------------------------------------|
|---------------------------------------------------------|

Guitar 2
|-------------------------12b-12b-12b-12b-----10-10----10-10---------------------|
|------------------------------------------12-------12-------12-10----10----10---|
|-9b-9b-9b-9b-8b-8b-8b-8b------------------------------------------12----12----9-|
|--------------------------------------------------------------------------------|
|--------------------------------------------------------------------------------|
|--------------------------------------------------------------------------------|

|---------------------------------------------|
|---------------------------------------------|
|---------------------------------------------|
|---------5--------5--------5----------5------|
|-7--5-7---7--5-7---7--5-7---------5h7---(x4)-|
|----------------------------5h6h7------------|


Guitar 1
|-17b-17b---15b-15b---14b-14b---12b-12b-12b---|
|---------------------------------------------|
|---------------------------------------------|
|---------------------------------------------|
|---------------------------------------------|
|---------------------------------------------|

0:45-0:59 (This part is VERY hard to understand, so sorry if it sounds wrong)
|-------------------------------------------------------------------------------------|
|-------------------------------------------------------------------------------------|
|-14-12-----------------------15b--------------------------------------------14h16-16-|
|-------14-(x8)--------------------12-12-12-(x2)-14-12-12-(x4)------------------------|
|---------------14---------------------------------------------14-12-12-(x2)----------|
|------------------14-12-(x8)---------------------------------------------------------|

|----12b-12b-12b-12b-|
|-15-----------------|
|--------------------|
|--------------------|
|--------------------|
|--------------------|

Guitar 2
|------------------------------------------------------|
|------------7-7----------------8--------------------8-|
|-9-9-7-(x4)-----7-(x4)-----7h9---9-9-7-(x6)-----7h9---|
|-----------------------7h9------------------7h9-------|
|------------------------------------------------------|
|------------------------------------------------------|

|---------------------------------------------|
|---------------------------------------------|
|---------------------------------------------|
|--------------------------------------5------|
|-7--5-7-5-7--5-7-5-7--5-7-5-------5h7---(x8)-|
|----------------------------5h6h7------------|

|----------------3---------------3----------------2--2--2-|
|-----------------------------------0---------------------|
|---------------------------------------------------------|
|---------------------------------------------------------|
|-------------------------2------------------2------------|
|-0----3-4-5-0------3-4-5---0----------3-4-5---0----------|

|----------------------------------|
|----------------------------------|
|----------------------------------|
|-------------------7--------------|
|-7b---9-7-9h10p9-----10-9-7---9---|
|--------------------------------7-|

1:59-2:31 
|-----12-15-12-15-12-17-12-12-15-12-15-17-12-12-15-12-15-12-15-12-15-12-15-12-|
|-12--------------------------------------------------------------------------|
|-----------------------------------------------------------------------------|
|-----------------------------------------------------------------------------|
|-----------------------------------------------------------------------------|
|-----------------------------------------------------------------------------|

|-15-12-12-17b-
|--------------
|--------------
|--------------
|--------------
|--------------

2:44-3:14 (play this whole thing twice)
|---------------------------------------------------------------------------------|
|-12--12-12-12--12-12-12--12-12-12--12-12-10--10-10-10--10-10-10--10-10-10--10-12-|
|---------------------------------------------------------------------------------|
|---------------------------------------------------------------------------------|
|---------------------------------------------------------------------------------|
|---------------------------------------------------------------------------------|

|---------------------------------------------------------------------------------|
|---------------------------------------------------------------------------------|
|-12--12-12-12--12-12-12--12-12-12--12-12-11--11-11-11--11-11-11--11-11-11--11-11-|
|---------------------------------------------------------------------------------|
|---------------------------------------------------------------------------------|
|---------------------------------------------------------------------------------|

|-------------------------------------------------------------------|
|-------------------------------------------------------------------|
|-------------------------------------------------------------------|
|-------------------5------5------5------5------5------5------5-----|
|-7-------------5-7---7------7------7------7------7------7------7-7-|
|---------5-6-7-----------------------------------------------------|

This next part has two guitars playing on seperate octaves.
|--------------------------------------------------------------------------|
|---------8-----10--8------------------------------------------------------|
|---7-8-9----9---------9--------7------------------------------------------|
|-9-----------------------7-8-9---9-8-7----7----7----------9-8-7----7------|
|---------------------------------------10---10---10-7-----------10---10-7-|
|--------------------------------------------------------------------------|

Here\'s the second octave
|--------------------------------------------------------------------------|
|--------------------------------------------------------------------------|
|---------0------2--0------------------------------------------------------|
|---0-1-2----2---------2--------0------------------------------------------|
|-2-----------------------0-1-2---2-1-0----0----0----------2-1-0----0------|
|---------------------------------------3----3----3--0-----------3----3--0-|

|-------------------------------------------------------------------------------|
|-12----10-10-10-10-10-10-------------------------------------------------------|
|-------------------------12--12-12-12--12-12-12--12-12-12--12-12--11--11-11-11-|
|-------------------------------------------------------------------------------|
|-------------------------------------------------------------------------------|
|-------------------------------------------------------------------------------|

|---------------------------|
|---------------------------|
|-11-11-11--11-11-11--11-11-|
|---------------------------|
|---------------------------|
|---------------------------|

|--------------------------------------------------------------------------------|
|-----------------------------12b---10---------------12p10-----------12-12-10-10-|
|-9-9--9-9-12--12-12-12-12-------------12--9-12-9-12-------12-9-12-9-------------|
|-x-x--x-x-x---x--x--x--x--x8----------------------------------------------------|
|-7-7--7-7-10--10-10-10-10-------------------------------------------------------|
|--------------------------------------------------------------------------------|

|------------------------------------12-10-12-10---------------------|
|------------------------------------------------12-10-12-10-----12b-|
|-11-9--9-11-11-12-11-9-11-11-12-11--------------------------12------|
|--------------------------------------------------------------------|
|--------------------------------------------------------------------|
|--------------------------------------------------------------------|

|-12--12-12-12--12-12-12-12-12-12-16-16-16-10-10-10-10-12-15-12-12-15-12-12-15-12-12-|
|------------------------------------------------------------------------------------|
|------------------------------------------------------------------------------------|
|------------------------------------------------------------------------------------|
|------------------------------------------------------------------------------------|
|------------------------------------------------------------------------------------|

|-17-12-12-15-12-12--------------------------------------------------------------------|
|-------------------12-12--12-12-13-12-12-12-10-10-12-10-10-10-10-10-------------------|
|--------------------------------------------------------------------10-9-9-9----------|
|-----------------------------------------------------------------------------10-10-10-|
|--------------------------------------------------------------------------------------|
|--------------------------------------------------------------------------------------|

|---------|
|---------|
|---------|
|-10-10-9-|
|---------|
|---------|

Now the pieces will float....(lots of wierd noises and effects here)
|-----------------------------17----------------------------------|
|------------------10----13---------12-------------------------13-|
|-----------9----------------------------10p9h10p9---8p7h8p7------|
|-----------------------------------------------------------------|
|-7---10----------------------------------------------------------|
|-----------------------------------------------------------------|

5:14-5:56
|--------------------------------------------------------------------------------------|
|-----------------------------------------------------------------------12-12-12-10-10-|
|---------------------------------------------------------12---------------------------|
|------------------------------------14--14-14-14-12-(x2)----14-12-(x6)----------------|
|-----------------12-12-12-12----------------------------------------------------------|
|-12-12-12--12-12-------------12--12---------------------------------------------------|

|----------------14-------14-------15--------------------------------15-12-12-14-12-12-|
|-13-12-12-12-12----12-12----12-12----12-12-13-12-12-13-12-12-13-12--------------------|
|--------------------------------------------------------------------------------------|
|--------------------------------------------------------------------------------------|
|--------------------------------------------------------------------------------------|
|--------------------------------------------------------------------------------------|

|-15-12-12-14-12-12-14-12-12-15-12-12-17-12-12-15-12-12-15-14-----------|
|--------------------------------------------------------------12-13-12-|
|-----------------------------------------------------------------------|
|-----------------------------------------------------------------------|
|-----------------------------------------------------------------------|
|-----------------------------------------------------------------------|

|--------------------------------------------------------------------------------------|
|-12-12--12-12--12-12-12-12-13-12--12-------------------------------------------12b-12-|
|-------------------------------------14-----------14-12---------14-12-----------------|
|-----------------------------------------12-14-12-------14-(x4)-------14-(x5)---------|
|--------------------------------------------------------------------------------------|
|--------------------------------------------------------------------------------------|

|-15-17-16-17-16-17-16-17-16-17-16-17-22----0h1s12-|
|--------------------------------------------------|
|--------------------------------------------------|
|--------------------------------------------------|
|--------------------------------------------------|
|--------------------------------------------------|

25 Wives...(Some of the effects make the notes hard to understand)
|-12-13b---14--10-11---------------------24-----------------19--20-22----19----|
|----------------------12-13--15-13---18------------------------------------16-|
|------------------------------------------------------------------------------|
|------------------------------------------------------------------------------|
|---------------------------------------------17-19----------------------------|
|------------------------------------------------------------------------------|

|--------------------------19-----------------------------12---14-|
|---------------------17--------17-18-17-------------15-----------|
|-16-17--16-17---16----------------------15-14--------------------|
|-----------------------------------------------------------------|
|-----------------------------------------------------------------|
|-----------------------------------------------------------------|

Part 3
|------------------------------------------------------------------------------|
|------------------------------------------------------------------------------|
|------------------------------------------------------------------------------|
|-2---0---------------0------2---0-----------------2---0---------------------0-|
|-------2-0---------2---(x2)-------2-0-------------------2-0-----------0-2-3---|
|-----------3--2--3--------------------3--2--2-3-2-----------3--2--2-3---------|

|---------------------------------------------------|
|---------------------------------------------------|
|---------------------------------------------------|
|-2---2-0-------------0-2---2-0-------------------0-|
|---------2---------2-----------2-----------0-2-3---|
|-----------3--2--3---------------3--2--2-3---------|

Then it changes to this around 0:44 (Repeat until 2:24)
|-12-------12-------11-------11-------10-------10-------9-------9-------|
|----12-12----12-12----12-12----12-12----12-12----12-12---12-12---12-12-|
|-----------------------------------------------------------------------|
|-----------------------------------------------------------------------|
|-----------------------------------------------------------------------|
|-----------------------------------------------------------------------|

This comes in around 1:55 (above riff continues to play)
|-10-12-12-(x8)-17-15-17-17-(x30)-17-17-17-17-17-17-17b-|
|-------------------------------------------------------|
|-------------------------------------------------------|
|-------------------------------------------------------|
|-------------------------------------------------------|
|-------------------------------------------------------|



Part 4
|--12----0---------------------------10-|-12----0--------10--8-------------|
|-----12------0----------10-------------|----12------0---------12-10-------|
|----------12---9-11-12-----12-11-------|---------12---9-------------12-11-|
|---------------------------------------|----------------------------------|
|---------------------------------------|----------------------------------|
|---------------------------------------|----------------------------------|

|--12----0---------------------------10-|-12----0--------------------------|
|-----12------0----------10-------------|----12------0---10----------------|
|----------12---9-11-12-----12-11-------|---------12---9----12-11-12-11-12-|
|---------------------------------------|----------------------------------|
|---------------------------------------|----------------------------------|
|---------------------------------------|----------------------------------|

|--12----0---------------------------10-|-12---0--------------------------|
|-----12------0----------10-------------|----12------0---10---------------|
|----------12---9-11-12-----12-11-------|---------12---9----12-12-9-11-12-|
|---------------------------------------|---------------------------------|
|---------------------------------------|---------------------------------|
|---------------------------------------|---------------------------------|

|--12----0---------------------------10-|-12----0--------10--8-------------|
|-----12------0----------10-------------|----12------0---------12-10-------|
|----------12---9-11-12-----12-11-------|---------12---9-------------12-11-|
|---------------------------------------|----------------------------------|
|---------------------------------------|----------------------------------|
|---------------------------------------|----------------------------------|

|--12----0--------10--8-----------|-12----0------------------------10-|
|-----12------0---------12-10-----|----12------0----------10----------|
|----------12---9-------------12b-|---------12---9-11-12-----12-11----|
|---------------------------------|-----------------------------------|
|---------------------------------|-----------------------------------|
|---------------------------------|-----------------------------------|

|--12----0--------------------------|-12----0--------------------------|
|-----12------0---12-10-------------|----12------0---------10-12-10----|
|----------12---9-------12-11-12-11-|---------12---9-11-12----------12-|
|-----------------------------------|----------------------------------|
|-----------------------------------|----------------------------------|
|-----------------------------------|----------------------------------|

|--12----0---------------------------10-|-12----0-----------------10-------|
|-----12------0----------10-------------|----12------0---------10----13-12-|
|----------12---9-11-12-----12-11-------|---------12---9-11-12-------------|
|---------------------------------------|----------------------------------|
|---------------------------------------|----------------------------------|
|---------------------------------------|----------------------------------|

|--12----0-----------------------10------|
|-----12------0---------10-12-13---------|
|----------12---9-11-12-------------(X8)-|
|----------------------------------------|
|----------------------------------------|
|----------------------------------------|

|--12----0--------------------------|-12----0-----------------------10------|
|-----12------0---------10-12-10----|----12------0---------10---------------|
|----------12---9-11-12----------12-|---------12---9-11-12----12-11----(X9)-|
|-----------------------------------|---------------------------------------|
|-----------------------------------|---------------------------------------|
|-----------------------------------|---------------------------------------|

|--12----0-------------------------------------------------------------|
|-----12------------------------------12-10-----------10---------------|
|----------14-12----------------------------10-9---------12-11-12-11-9-|
|----------------12-14----12-14----12------------9-12------------------|
|----------------------14-------14-------------------------------------|
|----------------------------------------------------------------------|

This part gets confusing...
|-20-19-17----------------------------------------------------------14-15-14-------|
|----------20-19-17----------------------------------------------15----------------|
|-------------------19-17-16----16-------------------------14-16-------------17-16-|
|----------------------------19----17-16-14----------16-17-------------------------|
|-------------------------------------------17-14-15-------------------------------|
|----------------------------------------------------------------------------------|

|----------------------------
|----15----------------------
|-17----17-16-14-16-------14-
|-------------------16-17----
|----------------------------
|----------------------------

1:57-2:17 Main Riff
|---------15-14-------------|
|---------------17----------|
|-16-16------------16-17-16-|
|---------------------------|
|---------------------------|
|---------------------------|

         1st Ending               2nd and 3rd Ending             4th Ending
|---------------------------|---------------------------|---------------------------|
|---------------------------|---------------------------|---------------------------|
|-16-16------14-14----------|-16-16---16-17-17-16----14-|-16-16------14-14----14----|
|---------17----------14-17-|---------------------17----|---------17-------17----17-|
|------------------17-------|---------------------------|---------------------------|
|---------------------------|---------------------------|---------------------------|

        5th Ending
|-------------------------|
|-------------------------|
|-16-16------14-14----14b-|
|---------17-------17-----|
|-------------------------|
|-------------------------|

2:17-2:30 (Play 1:57-2:17 Main Riff lightly)

2:30-3:09
|---------------------------------------------------------15-14---------------------|
|---------------------------------------------------------------17------------------|
|-14-16-16-14-16----------------------16p14-14---------------------16-17p16---------|
|-----------------17-17-14h16--------------------17h19------------------------17h19-|
|-----------------------------------------------------------------------------------|
|-----------------------------------------------------------------------------------|

|-------------------------------------------------------------------------|
|-------------------------------------------------------------------------|
|-------------------------------------------------------------------------|
|-17h19---17h19----17-17h19-----17h19--17h19--19-19-19-19-19p17--19b--19b-|
|-------------------------------------------------------------------------|
|-------------------------------------------------------------------------|

3:09-3:38 (A bunch of muted picking)

3:38-5:48
|-----------------------------12--------------------------------------|
|-12-10-----10-12-10-10-----------------------------------------------|
|--------12--------------12-9-----12-9-12----10--0-11h12p11-12b-11--9-|
|-----------------------------------------12--------------------------|
|---------------------------------------------------------------------|
|---------------------------------------------------------------------|

|-12-10-12--10h12-12-12-12-12--12--14b-12--14b--12-12---12-|
|-----------------------------------------------------0----|
|----------------------------------------------------------|
|----------------------------------------------------------|
|----------------------------------------------------------|
|----------------------------------------------------------|

|----10----9-----------------------------------------------------15----17----19-------|
|-------------10-------------------------------10----------12-10----12----15----17-15-|
|-12----12-------12-11----11----------------------11-12-11----------------------------|
|----------------------13----13-13-12-11----------------------------------------------|
|----------------------------------------13-12----------------------------------------|
|-------------------------------------------------------------------------------------|

|-17h19-17-15----14-15-14----17-14-14-14-----------------14--------14b----------------|
|-------------17----------17-------------15-17--15-17-15-----17-15-----17-17-17-17-17-|
|-------------------------------------------------------------------------------------|
|-------------------------------------------------------------------------------------|
|-------------------------------------------------------------------------------------|
|-------------------------------------------------------------------------------------|

|-------------------------------|-14----------------------------------|
|-17-17-15-17-15-17-17-15-17-17-|----17-15-17-17-15-17-17-15-17-17----|
|-------------------------------|----------------------------------x9-|
|-------------------------------|-------------------------------------|
|-------------------------------|-------------------------------------|
|-------------------------------|-------------------------------------|

|-14-15-14-12-14-15-14-12-14-15--14-15--14-12-----------------------------|
|---------------------------------------------15--------------------------|
|------------------------------------------------(Guitar-returns-at-4:46)-|
|-------------------------------------------------------------------------|
|-------------------------------------------------------------------------|
|-------------------------------------------------------------------------|

|-----15----------------------------------------------------------------|
|-17-----17-17----------17-18-20--17b--17--20--17b----------------------|
|-----------------------------------------------------------------------|
|--------------19-17-----------------------------------19-17-19-17-(x4)-|
|--------------------19-----------------------------19------------------|
|-----------------------------------------------------------------------|

|-------------14-15--17-|
|-------14-15-----------|
|-16-17-----------------|
|-----------------------|
|-----------------------|
|-----------------------|

I peel pack....
|----10-10-------------------------------------------------------------------------|
|-12-------13-12-12--10----------------------12-----13--12-10--12------12----------|
|-----------------------12---11--12-11-9---------9-----------------12-----12-11--9-|
|----------------------------------------------------------------------------------|
|----------------------------------------------------------------------------------|
|----------------------------------------------------------------------------------|

5:48-6:06 Bass Solo (There\'s a bunch of guitar effects going on in the background)

6:11-6:34
|--------------------------------------------------------|
|--------------------------------------------------------|
|--------------------------------------------------------|
|--------------------------------------------------------|
|-7-(this-note-is-played-a-few-times-with-an-odd-effect)-|
|--------------------------------------------------------|

6:51-7:28
|--------------------------------------------------------------------------------10----|
|--------------------------------------------------------------------------8-7-7----8-7|
|-9---7--9---7--------9-----7-------7-------7--9---7--9-----7-7-7--9-----7-------------|
|---8------8---8-8-8----8h9---8-8h9---8-8h9------8------8h9----------8h9---------------|
|--------------------------------------------------------------------------------------|
|--------------------------------------------------------------------------------------|

|-------------------------------------------------------------------------------------|
|--------------------------------------7----------------------------------------------|
|-9------9-----7----9---7--9-----7-7-7---7-7-8--9---7--9---7--9---7-7-9b--9b-7-7-9b-9-|
|---8h9----8h9----8---8------8-8------------------8------8------8---------------------|
|-------------------------------------------------------------------------------------|
|-------------------------------------------------------------------------------------|

|-------------------------------------------------------------------------------|
|-------------------------------------------------------------------------------|
|------------------------------4-5-4--------------------------------------------|
|-----5------------------------------7--7-5---2h4p2h4p2h4p2h4p2-----------------|
|-5h7---7-7-----------7-5h7-------------------------------------0h3p0h3p0h3p0h3-|
|------------3h5-5-0------------------------------------------------------------|

|---------------|
|---------------|
|---------------|
|---------------|
|-----------2---|
|-0h3p0h3p0---0-|

Part 5(lots of wierd effects)
|----10-12-------------------------------10-12---15-14---0--12-14--17-15-14--12-|
|-12-------(sliding)------------------------------------------------------------|
|--------------------9--11--12-11-9-11------------------------------------------|
|-------------------------------------------------------------------------------|
|-------------------------------------------------------------------------------|
|-------------------------------------------------------------------------------|

|-12-10--14b-14------------------------------------------------------|
|--------------------------------------------------------------------|
|----------------9-9h11--12--------9--11-11-11-11b-------------------|
|-------------------------------12-------------------9h10------------|
|---------------------------------------------------------7----------|
|------------------------------------------------------------8-5-7-8-|

|-------10--------------------------10-------------------------------------------|
|-12-------12---------------------------------------12-------12------------------|
|----12-------12-9-9h11-12p11-11-12----11-12-11-11-----12-11----12-11-11h12p11-9-|
|--------------------------------------------------------------------------------|
|--------------------------------------------------------------------------------|
|--------------------------------------------------------------------------------|

|-10--------------------------------------------------------10----------------------|
|----12-------------12-10----------------------12--------12----12----------------12-|
|-------9-11--11-12-------12-11-9-11-9----9-11----11-12-----------12-9--11-12-11----|
|--------------------------------------12-------------------------------------------|
|-----------------------------------------------------------------------------------|
|-----------------------------------------------------------------------------------|

|--------10-----------------------------10-------------10--------------------------|
|-----------12--------------------------------------------13-12--------------10----|
|-12-12--------12--11-11-12-11-9-12--12----12--9-11-12----------11-12--11-12----12-|
|----------------------------------------------------------------------------------|
|----------------------------------------------------------------------------------|
|----------------------------------------------------------------------------------|

|-------------------------------------------------------12------------------------|
|-------------------------------------------12h15p12-12----15------------13p12----|
|-11-12-14p12p11p14p12p11----9---12-9-11-12---------------------------12-------12-|
|-------------------------12------------------------------------14-14-------------|
|---------------------------------------------------------------------------------|
|---------------------------------------------------------------------------------|

|---------------------------------------------------------------|
|---------------------------------------------------------------|
|-12h14p12------12-11-12h14p12-11----11---9-11-12b-11-9-11-12-9-|
|------------14-------------------14----------------------------|
|---------------------------------------------------------------|
|---------------------------------------------------------------|

|-----------------------------------------------------------------13-|
|--------------------------------------------------------------------|
|-------------------------------------------------(muted-picking)----|
|--------------------------------------------------------------------|
|----------------7p5-----7p5-----7p5-----7-7-8--8--------------------|
|-7h8-5h8p7-(x8)-----8p5-----8p5-----8p5-----------------------------|

|----------------------16--------------------------------|
|--------------------------------------------------------|
|-(more-muted-picking)----(yet-again-more-muted-picking)-|
|--------------------------------------------------------|
|--------------------------------------------------------|
|--------------------------------------------------------|

|-----------------------------------------------------------10-----------------------|
|-----------------------10-11-----------------------------------13--12-10------------|
|-9------------9--12-11------------12--11--9--------------------------------12--11-9-|
|-----12-10--------------------12---------------12--9--------------------------------|
|------------------------------------------------------10----------------------------|
|------------------------------------------------------------------------------------|

|------------------------24b---24b--24---24b------24b--21--19----14---------24b-|
|-------------------------------------------------------------------------------|
|-------------------------------------------------------------------------------|
|---------------------10-----9--------------------------------------10--9-------|
|-10--9---12--10-9----------------------12-10-9---------------7-----------------|
|-------------------------------------------------------------------------------|

|--------------17-------------24b------------------21b-21/----------14-(fast)----|
|---------------------------------------------24b--------------------------------|
|--------------------------------------24b---------------------------------------|
|----------------------10----------10------9-------------------------------------|
|-12-10-9-----------9------7-------------------------------12-10-9-------------7-|
|----------10--------------------------------------6-----------------------------|


|--------------------------------------------------------------------|
|--------------------------------------------------------------------|
|--------------------------------------------------------------------|
|--------7-(lightly)---------10-(lightly)---7------------5-----------|
|-7---7----7----------9--7-------7------------7---9--7------9----5h7-|
|--------------------------------------------------------------------|


Part 6 (still lots of wierd effects at the beginning)
|-------------------------------------------------------------------|
|-----------------------8-9-----------9b----------------------------|
|----------------------------9--11-------11---12--13--12--13--12----|
|-------------------------------------------------------------------|
|---------------7-9-7-----------------------------------------------|
|-5-3-0-5-7--8------------------------------------------------------|

|-12-(you-can-faintly-hear-this-repeating-for-about-30-seconds)-|
|---------------------------------------------------------------|
|---------------------------------------------------------------|
|---------------------------------------------------------------|
|---------------------------------------------------------------|
|---------------------------------------------------------------|

Comes in at about 1:33 or 1:34
|----------------------------------------------|
|----------------------------------------------|
|----------------------------------------------|
|---------5--------5--------5----------5-------|
|-7--5-7---7--5-7---7--5-7---------5h7---(x25)-|
|----------------------------5h6h7-------------|

|------------------------------------|
|------------7-7----------------8----|
|-9-9-7-(x4)-----7-(x4)-----7h9------|
|-----------------------7h9-------x4-|
|------------------------------------|
|------------------------------------|

After repeating the above riff twice, guitar 2 plays
|-17b-17b---15b-15b---14b-14b---12b-12b-12b---|
|---------------------------------------------|
|---------------------------------------------|
|---------------------------------------------|
|---------------------------------------------|
|---------------------------------------------|

|-15-12-12-15-12-12-17-15-12-15-12-12-17-15-12-15-12-12-17-15-12-15-12-12-
|-------------------------------------------------------------------------
|-------------------------------------------------------------------------
|-------------------------------------------------------------------------
|-------------------------------------------------------------------------
|-------------------------------------------------------------------------

Part 7
|-12--12--------------------------------------12--------14------15---------|
|-x---x--(x7)--12-------13--12-10-10-10-10----x--(x10)--x--(x5)-x--(x4)----|
|-9---9--------x--(x6)--x---x--x--x--x--x-----9---------11------12------x2-|
|--------------9--------10--9--7--7--7--7----------------------------------|
|--------------------------------------------------------------------------|
|--------------------------------------------------------------------------|

Guitar 1 repeats above riff but guitar 2 plays....
|-------------------------------------|
|-12b--10-----------------------------|
|---------12-11-12-11-------9-11-9-x4-|
|-----------------------12------------|
|-------------------------------------|
|-------------------------------------|

Part 8
|--------|-0-----10----12-|--0-----12--0-10-|-0----7-----|-7-----7-----|
|--------|-0--------------|-10--10----10----|-0------0---|---0-----0---|
|------7-|-9--12----12----|-----------------|-0--9-----9-|-----9-----7-|
|------9-|-9--------------|-----------------|------------|-----------9-|
|--------|----------------|-----------------|------------|-------------|
|--------|----------------|-----------------|------------|-------------|

|-0-----10----12-|--0-----12--0-10-|-0----7-----|-7-----7-----|
|-0--------------|-10--10----10----|-0------0---|---0-----0---|
|-9--12----12----|-----------------|-0--9-----9-|-----9-----7-|
|-9--------------|-----------------|------------|-----------9-|
|----------------|-----------------|------------|-------------|
|----------------|-----------------|------------|-------------|

|--------------|--------------|-0--0-0-----|------------|
|-10--10-8--10-|-12--12-10--8-|-7--5-7-5---|-8----8-----|
|--9---9-9---9-|-11--11-11--9-|-7--7-7-7-7-|-7--7---7---|
|--7-----------|--9-----------|-0--0-0-0-0-|-5--5-----5-|
|--------------|--------------|------------|-7--------7-|
|--------------|--------------|------------|------------|

|---------------|--------------|------------|-------------|
|-12--12-10-----|-10--10-8-----|-7----7-----|-7-----7-----|
|-11-----11--11-|--9-----9---9-|-0--0---0---|-0-0---0-0---|
|--9----------9-|-10--------10-|-7--------7-|-7---7-7---7-|
|---------------|--------------|-0----------|-------------|
|---------------|--------------|------------|-------------|

  Gtr I
|-------------|------------|-0-----10----12-|--0-----12----10-|
|-7s8---8-----|-7--7-7-5---|-0--------------|-10--10----10----|
|-0-------0---|-0--0-0-0-7-|-9--12----12----|-----------------|
|-7s8-8-----8-|-7--7-7-7-7-|-9--------------|-----------------|
|-------------|-0----------|----------------|-----------------|
|-------------|------------|----------------|-----------------|

|-0----7-----|-7-----7-----|-0-----10----12-|--0-----12----10-|
|-0------0---|---0-----0---|-0--------------|-10--10----10----|
|-0--9-----9-|-----9-----7-|-9--12----12----|-----------------|
|------------|-----------9-|-9--------------|-----------------|
|------------|-------------|----------------|-----------------|
|------------|-------------|----------------|-----------------|

|-0----7-----|-7-----7-----|--------------|--------------|
|-0------0---|---0-----0---|-10--10-8--10-|-12--12-10--8-|
|-0--9-----9-|-----9-----7-|--9---9-9---9-|-11--11-11--9-|
|------------|-----------9-|--7-----------|--9-----------|
|------------|-------------|--------------|--------------|
|------------|-------------|--------------|--------------|

|-0--0-0-----|------------|---------------|--------------|
|-7--5-7-5---|-8----8-----|-12--12-10-----|-10--10-8-----|
|-7--7-7-7-7-|-7--7---7---|-11-----11--11-|--9-----9---9-|
|-0--0-0-0-0-|-5--5-----5-|--9----------9-|-10--------10-|
|------------|-7--------7-|---------------|--------------|
|------------|------------|---------------|--------------|

|------------|-------------|-------------|---|
|-7----7-----|-7-----7-----|-7s8---8-----|-7-|
|-0--0---0---|-0-0---0-0---|-0-------0---|-0-|
|-7--------7-|-7---7-7---7-|-7s8-8-----8-|-7-|
|-0----------|-------------|-------------|-0-|
|------------|-------------|-------------|---|

There you go.
comments
print report bad tab
14 comments total. Showing first comments. show 1 bad comment
0 reply
big gun wrote on May 10 2005, 12:00 am

you are my god

0 reply
the_cheaptrick wrote on July 3 2005, 12:00 am

You are god.

I want to post or [tab]
guest
You may want to rate the tab now too:
select rating
Please do not post tabs as comments. Select "correction" instead!