Oops, an error
Loading. Please wait.

De-Loused In The Comatorium Tab

16,201 views 33 this week
3 commentsread comments
1 2 3 4 5
excellent!
x 12
Autoscroll
+/-
esc
set tempo
stop
Contributor
Difficulty
intermediate
Hey! There's an official Ultimate Guitar app which is ideal
for learning songs when you're away from computer. Get the app
WARNING: You are trying to view
                                    content from Ultimate-Guitar.com
                                    in an unauthorized application,
                                    which is prohibited.

                                    Please use an official Ultimate
                                    Guitar Tabs application for iPhone,
                                    iPad or Android to access legitimate
                                    chords, guitar, bass, and drum tabs
                                    from Ultimate-Guitar.com database.

                                    Type "ultimate guitar tabs" in Apple
                                    App Store's or Android Market's
                                    search to find the application.
NOTE* I did not tab these out myself, i just picked out the best tabs that i found and 
them together so others could enjoy them....please thank all those tabbers who worked 
hard on them....

- The Mars Volta
- De-Loused in the Comatorium

-------------------------------------------------------------------------------
	                     Son Et Lumiere
-------------------------------------------------------------------------------


Gtr I (E A D G B E) - 'Untitled'
Gtr II (E A D G B E) - 'Untitled'
Gtr III (E A D G B E) - 'Untitled'
Gtr IV (E A D G B E) - 'Untitled'

 Intro
  Q=88
  N.C.
 4/4
  Gtr II
  Wx3          H     S S  S S  S S  S S
|------------|--------------------------|
|------------|------19-0-15-0-19-0-15-0-|
|------------|--------------------------|
|------------|--------------------------|
|------------|--------------------------|
|------------|--------------------------|


  C#
  Gtrs I, III
   <
   W
|-----------------------------------------|
|-14--------------------------------------|
|-----------------------------------------|
|-----------------------------------------|
|-----------------------------------------|
|-----------------------------------------|
|
| Gtr II
|  S S  S S  S S  S S  S S  S S  S S  S S
|-----------------------------------------|
|-19-0-15-0-19-0-15-0-19-0-15-0-19-0-15-0-|
|-----------------------------------------|
|-----------------------------------------|
|-----------------------------------------|
|-----------------------------------------|


  C#
   <
   W
|-----------------------------------------|
|-14--------------------------------------|
|-----------------------------------------|
|-----------------------------------------|
|-----------------------------------------|
|-----------------------------------------|
|
|  S S  S S  S S  S S  S S  S S  S S  S S
|-----------------------------------------|
|-19-0-15-0-19-0-15-0-19-0-15-0-19-0-15-0-|
|-----------------------------------------|
|-----------------------------------------|
|-----------------------------------------|
|-----------------------------------------|


  B                   A#
   <                   <
   H                   H


|-----------------------------------------|
|-12------------------11------------------|
|-----------------------------------------|
|-----------------------------------------|
|-----------------------------------------|
|-----------------------------------------|
|
|  S S  S S  S S  S S  S S  S S  S S  S S
|-----------------------------------------|
|-19-0-15-0-19-0-15-0-19-0-15-0-19-0-15-0-|
|-----------------------------------------|
|-----------------------------------------|
|-----------------------------------------|
|-----------------------------------------|


  F#
   <
   W
|---------------------------------------------|
|--7b7.5--------------------------------------|
|---------------------------------------------|
|---------------------------------------------|
|---------------------------------------------|
|---------------------------------------------|
|
|  S     S  S S  S S  S S  S S  S S  S S  S S
|---------------------------------------------|
|-19-----0-15-0-19-0-15-0-19-0-15-0-19-0-15-0-|
|---------------------------------------------|
|---------------------------------------------|
|---------------------------------------------|
|---------------------------------------------|


    C#
     <
     W
||------------------------------------------|
||o-14--------------------------------------|
||------------------------------------------|
||------------------------------------------|
||o-----------------------------------------|
||------------------------------------------|
|
|   Gtr II
|    S S  S S  S S  S S  S S  S S  S S  S S
||------------------------------------------|
||o-19-0-15-0-19-0-15-0-19-0-15-0-19-0-15-0-|
||------------------------------------------|
||------------------------------------------|
||o-----------------------------------------|
||------------------------------------------|


  C#
   <
   W
|-----------------------------------------|
|-14--------------------------------------|
|-----------------------------------------|
|-----------------------------------------|
|-----------------------------------------|
|-----------------------------------------|
|
|  S S  S S  S S  S S  S S  S S  S S  S S
|-----------------------------------------|
|-19-0-15-0-19-0-15-0-19-0-15-0-19-0-15-0-|
|-----------------------------------------|
|-----------------------------------------|
|-----------------------------------------|
|-----------------------------------------|


  B                   A#

   <                   <
   H                   H
|-----------------------------------------|
|-12------------------11------------------|
|-----------------------------------------|
|-----------------------------------------|
|-----------------------------------------|
|-----------------------------------------|
|
|  S S  S S  S S  S S  S S  S S  S S  S S
|-----------------------------------------|
|-19-0-15-0-19-0-15-0-19-0-15-0-19-0-15-0-|
|-----------------------------------------|
|-----------------------------------------|
|-----------------------------------------|
|-----------------------------------------|


  F#
   <
   W                                           3x
|----------------------------------------------||
|--7b7.5--------------------------------------o||
|----------------------------------------------||
|----------------------------------------------||
|---------------------------------------------o||
|----------------------------------------------||
|
|  S     S  S S  S S  S S  S S  S S  S S  S S  3x
|----------------------------------------------||
|-19-----0-15-0-19-0-15-0-19-0-15-0-19-0-15-0-o||
|----------------------------------------------||
|----------------------------------------------||
|---------------------------------------------o||
|----------------------------------------------||


   Verse
    C#
     <
     W
||------------------------------------------|
||o-14--------------------------------------|
||------------------------------------------|
||------------------------------------------|
||o-----------------------------------------|
||------------------------------------------|
|
|   Gtr II
|    S S  S S  S S  S S  S S  S S  S S  S S
||------------------------------------------|
||o-19-0-15-0-19-0-15-0-19-0-15-0-19-0-15-0-|
||------------------------------------------|
||------------------------------------------|
||o-----------------------------------------|
||------------------------------------------|


  C#
   <
   W
|-----------------------------------------|
|-14--------------------------------------|
|-----------------------------------------|
|-----------------------------------------|
|-----------------------------------------|
|-----------------------------------------|
|
|  S S  S S  S S  S S  S S  S S  S S  S S
|-----------------------------------------|
|-19-0-15-0-19-0-15-0-19-0-15-0-19-0-15-0-|
|-----------------------------------------|
|-----------------------------------------|
|-----------------------------------------|
|-----------------------------------------|


  B                   A#
   <                   <
   H                   H
|-----------------------------------------|
|-12------------------11------------------|
|-----------------------------------------|
|-----------------------------------------|
|-----------------------------------------|
|-----------------------------------------|
|
|  S S  S S  S S  S S  S S  S S  S S  S S
|-----------------------------------------|
|-19-0-15-0-19-0-15-0-19-0-15-0-19-0-15-0-|
|-----------------------------------------|
|-----------------------------------------|
|-----------------------------------------|
|-----------------------------------------|


 1.
  F#
   <
   W
|----------------------------------------------||
|--7b7.5--------------------------------------o||
|----------------------------------------------||
|----------------------------------------------||
|---------------------------------------------o||
|----------------------------------------------||
|
|  S     S  S S  S S  S S  S S  S S  S S  S S
|----------------------------------------------||
|-19-----0-15-0-19-0-15-0-19-0-15-0-19-0-15-0-o||
|----------------------------------------------||
|----------------------------------------------||
|---------------------------------------------o||
|----------------------------------------------||


 Build up to Intertiatic ESP
  2.
  F#                                            D/B
   <
   W                                             W
|---------------------------------------------|------------------------------------------|
|--7b7.5--------------------------------------|------------------------------------------|
|---------------------------------------------|------------------------------------------|
|---------------------------------------------|------------------------------------------|
|---------------------------------------------|------------------------------------------|
|---------------------------------------------|------------------------------------------|
|

|  S     S  S S  S S  S S  S S  S S  S S  S S    S S  S S  S  S  S S  S S  S S  S S  S S
|---------------------------------------------|------------------------------------------|
|-19-----0-15-0-19-0-15-0-19-0-15-0-19-0-15-0-|-19-0-15-0-19--0-15-0-19-0-15-0-19-0-15-0-|
|---------------------------------------------|------------------------------------------|
|---------------------------------------------|------------------------------------------|
|---------------------------------------------|------------------------------------------|
|---------------------------------------------|------------------------------------------|
|
| Gtr IV
|  S     S  S S  S S  H                   E      S S  S S  H.
|---------------------------------------------|------------------------------------------|
|--7-----7--7-7--7-7--------------------------|--7-7--7-7--------------------------------|
|--7-----7--7-7--7-7--------------------------|--7-7--7-7--------------------------------|
|--9-----9--9-9--9-9--------------------------|--9-9--9-9--------------------------------|
|---------------------------------------------|------------------------------------------|
|---------------------------------------------|------------------------------------------|


  D/B                                       D/B
   W                                         W
|-----------------------------------------|----------------------------------------------|
|-----------------------------------------|----------------------------------------------|
|-----------------------------------------|----------------------------------------------|
|-----------------------------------------|----------------------------------------------|
|-----------------------------------------|----------------------------------------------|
|-----------------------------------------|----------------------------------------------|
|
|  S S  S S  S S  S S  S S  S S  S S  S S    S S  S   S  S S  S S  S S  S S  S S  S S
|-----------------------------------------|----------------------------------------------|
|-19-0-15-0-19-0-15-0-19-0-15-0-19-0-15-0-|-19-0-15---0-19-0-15-0-19-0-15-0-19-0-15-0----|
|-----------------------------------------|----------------------------------------------|
|-----------------------------------------|----------------------------------------------|
|-----------------------------------------|----------------------------------------------|
|-----------------------------------------|----------------------------------------------|
|
|  S S  S S  S S  H                   E      S S  H..
|-----------------------------------------|----------------------------------------------|
|--7-7--7-7--7-7--------------------------|--7-7-----------------------------------------|
|--7-7--7-7--7-7--------------------------|--7-7-----------------------------------------|
|--9-9--9-9--9-9--------------------------|--9-9-----------------------------------------|
|-----------------------------------------|----------------------------------------------|
|-----------------------------------------|----------------------------------------------|


       D/B                                     D/B
  Gtr II
   S S  S S    S S  S S  S S  S  S  S S  S S    S S  S S   S S  S S  S S  S S  S S  S S
|--------------------------------------------|------------------------------------------|
|-19-0-15-0---19-0-15-0-19-0-15--0-19-0-15-0-|-19-0-15-0--19-0-15-0-19-0-15-0-19-0-15-0-|
|--------------------------------------------|------------------------------------------|
|--------------------------------------------|------------------------------------------|
|--------------------------------------------|------------------------------------------|
|--------------------------------------------|------------------------------------------|
|
| Gtr IV
|  E    S Q..                 Q.                S S  S H.                             S
|--------------------------------------------|------------------------------------------|
|-------7------------------------------------|--7-7--7----------------------------------|
|-------7------------------------------------|--7-7--7----------------------------------|
|-------9------------------------------------|--9-9--9----------------------------------|
|--------------------------------------------|------------------------------------------|
|--------------------------------------------|------------------------------------------|


       D/B                                     D/B
   S S  S S    S S  S S  S S  S  S  S S  S S    S S  S H.      S
|--------------------------------------------|----------------------*|
|-19-0-15-0---19-0-15-0-19-0-15--0-19-0-15-0-|-19-0-15--------------*|
|--------------------------------------------|----------------------*|
|--------------------------------------------|----------------------*|
|--------------------------------------------|----------------------*|
|--------------------------------------------|----------------------*|
|
|  E    S Q..                 Q.                S S  S H.      S
|--------------------------------------------|----------------------*|
|-------7------------------------------------|--7-7--7--------------*|
|-------7------------------------------------|--7-7--7--------------*|
|-------9------------------------------------|--9-9--9--------------*|
|--------------------------------------------|----------------------*|
|--------------------------------------------|----------------------*|


-------------------------------------------------------------------------------
	                      Inertiatic Esp
-------------------------------------------------------------------------------


Chorus:  (I´m lost)

E |---------------------------------------------------------|
B |---------------------------------------------------------|
G |---9----9------7----7-----11-----11----11------7---------|
D |---9--9---9----7--7---7---11--11-------9----9----9-------|
A |---7-----------5----------9------------x-----------------|
E |---------------------------------------7-----------------|

Piano
e|----------------------7---|------------------------|
B|-------------7---7-10-----|-------------7---7------|
G|-------9-7-9---9----------|-------9-7-9---9---7----|
D|-9-7-9-----------------x3-|-9-7-9---------------9--|
A|--------------------------|------------------------|
E|--------------------------|------------------------|

e|--------------|
b|--------------|
g|-11-7-9--11-7-|
d|-9--9-11-9--9-|
a|-7--5-9--x--x-|
E|---------7--7-|

Verse
e|-----------------------------------------------------------------------|
B|-----------------------------------------------------------------------|
G|----------------------------------------------------11-11-11--11--11---|
D|----------------------------------------------------9--9--9---9---9----|
A|-7-7-7-7x7-7-7-7--5-5-5-5x5-5-5-5--9-9-9-9x9-9-9-9--x--x--x---x---x----|
E|----------------------------------------------------7--7--7---7---7----|


e|-----------------------------------------------------------------------|
B|-----------------------------------------------------------------------|
G|--------------------------------------------------------11------7------|
D|--------------------------------------------------------9----9-----9---|
A|-7-7-7-7x7-7-7-7---5-5-5-5x5-5-5-5---9-9-9-9x9-9-9-9----x--------------|
E|--------------------------------------------------------7--------------|

e|----|
B|----|
G|-11-|
D|-x--|
A|-9--|
E|----|

Chorus:  (I´m lost)

E |---------------------------------------------------------|
B |---------------------------------------------------------|
G |---9----9------7----7-----11-----11----11------7---------|
D |---9--9---9----7--7---7---11--11-------9----9----9-------|
A |---7-----------5----------9------------x-----------------|
E |---------------------------------------7-----------------|

Solo(listen closely for timing)

e|-10-------10--------------------12----10-------10---------------12----------12-15---10--|
B|--------9-------12--------9-8---------------9----11----------------------12-------------|
G|------------11--------10------10---------------------------10---------12----------------|
D|--------------------------------------------------------------9-------------------------|
A|----------------------------------------------------------------------------------------|
E|----------------------------------------------------------------------------------------|

e|---------------------------------------------------------------------------------------------------------------|
B|---------------------------------------------------------------------------------------------------------------|
G|---------------------------------------------------------------------------------------------------------------|
D|-------------------------9997-9997-9997-9997-977-1212129-1212129-1212129-1212129-1299------------------------x2|
A|-2220-2220-2220-2220-200--------------------------------------------------------------9997-9997-9997-9997-977--|
E|---------------------------------------------------------------------------------------------------------------|

e|-------------------|
B|-------------10-10-|
G|-7--7--4--4--11-11-|
D|-x--x--x--x--x--x--|
A|-7--7--5--5--9--9--|
E|-------------------|

e|------------0-3-3-3----------------------|
B|-------------------------------2-3-2-----|
G|-4-4-4-4-4-----------444444444-----------|
D|-x-x-x-x-x-----------xxxxxxxxx-------x2--|
A|-2-2-2-2-2-----------222222222-----------|
E|-----------------------------------------|

e|-------------2-3-2-----2-------6-----------|
B|----3-2-------------------3------7-0-------|
G|--------2----------------------------------|
D|-----------2---------0------2----------x6--|
A|-2-----------------------------------------|
E|-------------------------------------------|


-------------------------------------------------------------------------------
	              Roulette Dares (The Haunt Of)
-------------------------------------------------------------------------------
Tabbed by:Alex Radovanovich

Tuning:Standard

1. Intro (muted w/flanger)
e|-------------------------------------------------|
B|-------------------------------------------------|
G|-------------0-0-0-------------------0-0---------|
D|-------------------0-2-0-----------------0-0-2-2-|
A|-0-0-0-3-3-3-------------0-0-0-3-3-3-------------|
E|-------------------------------------------------|

2. Song explodes!
e|-------------------------------------------------|
B|-------------0-----------------------0-----------|
G|-------------0-----------------------0-----------|
D|-------------------0-2p0-----------------0---2h3-|
A|-0-000-3-0-3-------------0-000-3-0-3-------------|
E|-------------------------------------------------|

e|-------------------------------------------------|
B|-------------0-----------------------0-----------|
G|-------------0-----------------------0-----------|
D|-------------------0-2p0-----------------0h2---0-|
A|-0-000-3-0-3-------------0-000-3-0-3-------------|
E|-------------------------------------------------|

3. Calms down
e|------12----12----10--------10--------10----10-----------------|
B|-13------13----13------13--------12------12----12-13---12---10-|
G|---------------------------------------------------------------|
D|---------------------------------------------------------------|
A|---------------------------------------------------------------|
E|---------------------------------------------------------------|

                               [  w/whammy bar  ]
e|----------------0------------------------------|
B|-----------12-------12--------10-----10-----10-|
G|------10-----------------10---13-----13-----13-|
D|-12---------------------------10-----10-----10-|
A|-----------------------------------------------|
E|-----------------------------------------------|

e|---------------12------------------12---------------------|
B|----------10--------10------------------10--------12---13-|
G|-----13----------------13-----13-------------13-----------|
D|----------------------------------------------------------|
A|----------------------------------------------------------|
E|----------------------------------------------------------|

e|---------0--------------------0--------0----------------|
B|------13----------------13-13-------------------10---12-|
G|-10-----------------/14-----------13-------13-----------|
D|--------------------------------------------------------|
A|--------------------------------------------------------|
E|--------------------------------------------------------|

Repeat above (substitute this for loud chords)
e|----------------------------------|
B|---------10----10--------10----10-|
G|------13----13--------13----13----|
D|-10---------------9---------------|
A|----------------------------------|
E|----------------------------------|

4. Chorus (exoskeletal...)
e|-----------------------------------------------------|
B|-----------------------------------------------------|
G|-7-------5-7-5-5-------5/-7--9------9------9------9--|
D|-0-------0-0-0-7-------7/-9--10-----10-----10-----10-|
A|---------------0-------0-----x------7------x------x--|
E|-----------------------------8-------------10-----8--|

It's because this is...
e|-------------------------|
B|-------------------------|
G|-9------9------9------9--|
D|-10-----10-----10-----10-|
A|-x------7------x------x--|
E|-8-------------10-----8--|

5. Back to main riff
e|-----------------------------------------------|
B|-------------0-----------------------0---------|
G|-------------0-----------------------0---------|
D|-------------------0-2p0-2-2-2-22-2-2----0---2-|
A|-0-000-3-0-3-------------0-0-0-00-0-0----------|
E|-----------------------------------------------|
                           x x x xx x x

e|---------------------------------------------|
B|-------------0---------------------5-----7---|
G|-------------0---------------2---3-----5---7-|
D|-------------------0-2p0---1---2-----4-------|
A|-0-000-3-0-3-------------0-------------------|
E|---------------------------------------------|

6. Acidy guitar solo (2 guitars shown together) -w/swell
e|--------12-----15---14---/17-18------------------20\----------22---------|
B|-/10-----------------------------15---14---/18---------12--------20---22-|
G|-------/9------12---11---/14---------------------17\----------19---------|
D|-/7------------------------------12---11---/15---------9---------17---19-|
A|-------------------------------------------------------------------------|
E|-------------------------------------------------------------------------|

e|----------------------------------------------------------------------------|
B|-8h10p8h10p8h10p8h10p8h10p8h10/12---10-8---8h10p8---------------------------|
G|-----------------------------------------9--------9p8\7/9---5h7-9p7p5h7p5-0-|
D|----------------------------------------------------------------------------|
A|----------------------------------------------------------------------------|
E|----------------------------------------------------------------------------|

e|--------12---------------------------------------------------------|
B|-----12----12-13p12h13p12h13/15--------------9h10h11h12---13p12-10-|
G|-/12------------------------------9h10h11h12-----------------------|
D|-------------------------------------------------------------------|
A|-------------------------------------------------------------------|
E|-------------------------------------------------------------------|


e|----15h17p15---------------12h13p12----------12h13p12----------12h13p12-|
B|-17----------17\15-12---13----------13p12h13----------13p12h13----------|
G|------------------------------------------------------------------------|
D|------------------------------------------------------------------------|
A|------------------------------------------------------------------------|
E|------------------------------------------------------------------------|

e|----------12h13p12----------12h13p12----------------------------------------|
B|-13p12h13----------13p12h13----------13-12----------------------------------|
G|----------------------------------------------------------14-16-17-16-16-14-|
D|-------------------------------------------12---/14-15-17-------------------|
A|----------------------------------------------------------------------------|
E|----------------------------------------------------------------------------|

e|-------------------------------------------------------------------------|
B|-------------------------------------------------------------------------|
G|-------------------------------------14h15h16h17-------------------------|
D|-15-14-15-17-------------14h15h16h17-------------------------14h15h16h17-|
A|-------------14h15h16h17-------------------------14h15h16h17-------------|
E|-------------------------------------------------------------------------|

e|-------------------------------------------------------------------------|
B|-------------------------------------------------------------------------|
G|-14h15h16h17-------------------------14h15h16h17-------------------------|
D|-------------------------14h15h16h17-------------------------14h15h16h17-|
A|-------------14h15h16h17-------------------------14h15h16h17-------------|
E|-------------------------------------------------------------------------|

e|-------------------------------------------------------------------------|
B|-------------------------------------------------------------------------|
G|-14h15h16h17-------------------------14h15h16h17-------------------------|
D|-------------------------14h15h16h17-------------------------14h15h16h17-|
A|-------------14h15h16h17-------------------------14h15h16h17-------------|
E|-------------------------------------------------------------------------|

e|-------------|
B|-------------|
G|-14h15h16h17-|
D|-------------|
A|-------------|
E|-------------|

7. Main riff w/relaxed beat (2 guitars)
e|-------------3-----------------------3---------|
B|-------------------3-5-3-----------------3---5-|
G|-2-2-2-5-2-2-0-----------2-2-2-5-2-2-0---------|
D|-------------------0-2-0-----------------0---2-|
A|-0-0-0-3-0-0-------------0-0-0-3-0-0-----------|
E|-----------------------------------------------|

Repeat riffs 2 and 4

8. Jazzy guitar solo
e|---12---0------------------------------------------------------------------|
B|--13------13---------------------------------------------------------------|
G|-14----------14---9h10p9\5h7p5---------5-----------5-----------------------|
D|---------------------------------5h7-----------5h7---7p5h7-5-------------5-|
A|-------------------------------------------5h7----------------\5---5/7-----|
E|---------------------------------------------------------------------------|

e|----------------------------------------------------------|
B|-------------------/8-------------------------------------|
G|-------------------/9---10----9h10p9----------------------|
D|-------------------------------------10p9---9h10p9h10/12~-|
A|----------------------------------------------------------|
E|-5h7p5\3h5p3p0--------------------------------------------|


e|-8-8---8----------8-8-8-8---8------------------------------------------|
B|---------10-------------------10---------------------------------------|
G|--------------0--------------------0---9--------7---0---9--------7---0-|
D|-------------------------------------------10---------------10---------|
A|-----------------------------------------------------------------------|
E|-----------------------------------------------------------------------|

e|-8-8---8---8----------8---8-----8------------------------------------------|
B|-------------10-------------------10---------------------------------------|
G|------------------0--------------------0---9--------7---0---9--------7---0-|
D|-----------------------------------------------10---------------10---------|
A|---------------------------------------------------------------------------|
E|---------------------------------------------------------------------------|

Repeat riff 4 after keyboard solo & "INSIDE!".

9. Guitar solo/outro (* - play notes spastically)
e|--------------------------------------------------------------0-----------|
B|----------------------------------------------10-12-10------------------8-|
G|-7b8r7b8r7b8r7b8r7b8r7b8r7---4---------------9------------7-------5/7-----|
D|-------------------------------5--/7---0----0-----------------------------|
A|--------------------------------------------------------------------------|
E|--------------------------------------------------------------------------|


e|-0---10---12---------------------------------------------15-----------|
B|---------------10------------------------------------17-------15---17-|
G|--------------------7/---*5-7-----------------------16----------------|
D|------------------------------0-5-7----*5-7-5-7----17-----------------|
A|----------------------------------------------------------------------|
E|----------------------------------------------------------------------|

e|-19-------17-15------------15---------12----------------------------|
B|-----------------------17-------15\------12-10---12--------------10-|
G|----17-19-------16----16----------------------------11-9---12-------|
D|--------------------------------------------------------------12----|
A|--------------------------------------------------------------------|
E|--------------------------------------------------------------------|

e|------------------------------0-------------0------0-3-0-----0-------------|
B|------------------------------------------0--------------1-------3---------|
G|-*7-7-7/12---*7-7-7/12----5-----------5-4--------2---------2---------4-----|
D|----------------------------7-----5------------------------------------5/7-|
A|--------------------------------7---3--------------------------------------|
E|---------------------------------------------------------------------------|

                                          +    + +     +
e|---------------------------*10-10-10\----------12----5-|
B|----------------------------------------12-----------5-|
G|---------------------------------------------7-------5-|
D|-5-----------------------------------------------------|
A|----7--5--0---???????????------------------------------|
E|-------------------------------------------------------|


-------------------------------------------------------------------------------
			     Tira Me a las Arañas
-------------------------------------------------------------------------------
Tabbed by:Alex Radovanovich

Tuning:Standard


e|-----1-----0---1p0-----------4---1-------1-----------0-----0-------|
B|-3-0---3-------------1-3-1---------3---0---3---1-3-----1-----4---0-|
G|---------------------------------------------------------2-----2---|
D|-0---3-0---2-----------------------0-----3-0-----0---2-----2-------|
A|---------------------------------------------2-3-------------------|
E|-------------------------------------------------------------------|

e|-------1--------------1-----------------1-------1-----1-------1---------|
B|-3---0---3-3b-------------0-4-3---3---0---3-3/4-1---------1-------------|
G|------------------------2-------------------------4-----2---2-----------|
D|-0-----3-0----3-2---0-3-0---------0-----3-0-----------3-------3-0-------|
A|------------------------------------------------------------------0-3-0-|
E|------------------------------------------------------------------------|

Electric guitar played w/ above
e|------------------------------------------------------------------------|
B|--------------------------------------------------------------------8---|
G|----------------------------------------------------------------------7-|
D|------------------------------------------------------------------------|
A|------------------------------------------------------------------------|
E|------------------------------------------------------------------------|

e|-------1--------------4-----5-----------1-----------------------|
B|-3---0---3-0---3b---0---3-1---4-1-3---0---3-1-0-1---0-3-1-0-4-1-|
G|----------------------------------------------------------------|
D|-0-----3-0------------------------0-----3-0---------------------|
A|----------------------------------------------------------------|
E|----------------------------------------------------------------|

Electric
e|-10-----------------------------------8-----12------------------|
B|----------------------------------------10------10--------------|
G|----------------------------------------------------------------|
D|----------------------------------------------------------------|
A|----------------------------------------------------------------|
E|----------------------------------------------------------------|

e|---------------------------------------1-------0-------1-----|
B|-3-----0-------3-----------------3---0---3-0-------1-3-------|
G|-------------------------------------------------------------|
D|---------3-0-2-----0-------------0-----3-0-----------------3-|
A|---------------------3-2---0-3-2-----------------------------|
E|-------------------------------------------------------------|

Electric

e|-10/---------------------------------------------------------|
B|---------------------------------8---------------------------|
G|-------5---------------------7-------------------------------|
D|-------------7-----------------------------------------------|
A|-------------------5-----8-----------------------------------|
E|-------------------------------------------------------------|

e|-----1----------------1-----5---------1---------1-------------5---|
B|-3-0---3---3b---3---0---3-----1-4-3-0---3---3-------0---4-1-0---4-|
G|--------------0-----------2---------------------------2-----------|
D|-0---3-0--------0-----3-0---------0---3-0-----0-3-----------------|
A|---------3--------------------------------2-----------------------|
E|------------------------------------------------------------------|

Electric
e|-15-------------17----------------12------------------------------|
B|-------15---------------------------------------------------------|
G|-----13----14-----------------------------------------------------|
D|------------------------------------------------------------------|
A|------------------------------------------------------------------|
E|------------------------------------------------------------------|

e|-------1-------------1---------------1---------1---4-3-1-----------|
B|-3-0-----3-3-0-3---0---3---------3-0---3-0-4-0-----------3/4-1-0-1-|
G|-----2-------------------------------------------------------------|
D|-0-----3-0-----0-----3-0---------0---3-0---------------------------|
A|-------------------------2-3-0-2-----------------------------------|
E|-------------------------------------------------------------------|

Electric
e|-------------------------------------------------------------------|
B|-8-------------------------------7---------------------------------|
G|-------------------------------------------------------------------|
D|-------------------------------------------------------------------|
A|-------------------------------------------------------------------|
E|-------------------------------------------------------------------|

-------------------------------------------------------------------------------
		            Drunkship of Lanterns
-------------------------------------------------------------------------------


The general meter of the song appears as so:

|x--x--x-x--x--x-x--x--x-x--x--x-|
|1 + 2 + 3 + 4 + 5 + 6 + 7 + 8 + |

=============================================================================

[0:00]
e|0-------------------------------|------1-------------------------|
B|0-------------------------------|------0-----------------xxxxxxxx|
G|0-------------------------------|------0-----------------xxxxxxxx|
D|0-------------------------------|------0-----------------xxxxxxxx|
A|---------------------------3--5-|0--0----------------------------|
E|--------------------------------|--------------------------------|

 |1 + 2 + 3 + 4 + 5 + 6 + 7 + 8 + |1 + 2 + 3 + 4 + 5 + 6 + 7 + 8 + |

[0:06]
e|0-------------------------------|------1-------------------------|
B|0-------------------------------|------0-----------------xxxxxxxx|
G|0-------------------------------|------0-----------------xxxxxxxx|
D|0-------------------------------|------0-----------------xxxxxxxx|
A|---------------------------3--5-|0--0----------------------------|
E|--------------------------------|--------------------------------|


=============================================================================

[0:12]
e|The verse is an almost-random combination of the following notes.|
B|                                |                                |
G|                                |0 2 5 4 0 5 4 7 0 5 4 4 0 5 4 7 |
D|0 2 5 2     252 0 2 5 7     5 5 |                                | x3.5
A|        0/5             0/5     |                                |
E|                                |                                |


=============================================================================

[0:34]
e|------1---------------0---------|
B|------0---------------0----6----|
G|------0---------------0-------7-|
D|------0---------------0---------|
A|0--0----------------------------|
E|----------------0--0------------|

 |1 + 2 + 3 + 4 + 5 + 6 + 7 + 8 + |1 + 2 + 3 + 4 + 5 + 6 + 7 + 8 + |

[0:37]
e|8-----0-7--0----7-------5--0--0-|------7-------7-7b-7b-7b----------|
B|---6----------6-------5----4b-4b|---6-------6----Ab-Ab-Ab6---------|
G|-------------------7------------|7-------7-------------------51----|
D|--------------------------------|----------------------------------|
A|--------------------------------|----------------------------------|
E|--------------------------------|----------------------------------|

* Let the letter \\\"A\\\" stand for the 10th fret, A, to preserve rhythm.

[0:43]
e|------------------------0-------|------1-------------------------|
B|0-------------------------------|------0--------------------6----|
G|--------------------------------|------0-----------------------7-|
D|2b------------------------------|------0-------------------------|
A|---------------------------3--5-|0--0--0-------------------------|
E|--------------------------------|--------------------------------|

 |1 + 2 + 3 + 4 + 5 + 6 + 7 + 8 + |1 + 2 + 3 + 4 + 5 + 6 + 7 + 8 + |

[0:49]
e|8-----0-7--0----7-------5--0--0-|------7-------7-7b-7b-7b--------|
B|---6----------6-------5----4b-4b|---6-------6----Ab-Ab-Ab6-------|
G|-------------------7------------|7-------7-------------------5---|
D|--------------------------------|--------------------------------|
A|--------------------------------|--------------------------------|
E|--------------------------------|--------------------------------|


=============================================================================

[0:56]
e|The verse is an almost-random combination of the following notes.|
B|                                |                                |
G|                                |0 2 5 4 0 5 4 7 0 5 4 4 0 5 4 7 |
D|0 2 5 2     252 0 2 5 7     5 5 |                                | x3.5
A|        0/5             0/5     |                                |
E|                                |                                |


=============================================================================

[1:17]
e|------1---------------0---------|
B|------0---------------0----6----|
G|------0---------------0-------7-|
D|------0---------------0---------|
A|0--0----------------------------|
E|----------------0--0------------|

 |1 + 2 + 3 + 4 + 5 + 6 + 7 + 8 + |1 + 2 + 3 + 4 + 5 + 6 + 7 + 8 + |

[1:20]
e|8-----0-7--0----7-------5--0--0-|------7-------7-7b-7b-7b----------|
B|---6----------6-------5----4b-4b|---6-------6----Ab-Ab-Ab6---------|
G|-------------------7------------|7-------7-------------------51----|
D|--------------------------------|----------------------------------|
A|--------------------------------|----------------------------------|
E|--------------------------------|----------------------------------|

[1:27]
e|0-------------------------------|------0-----------------0-------|
B|0-------------------------------|------0-----------------0--6----|
G|0-------------------------------|------0-----------------------7-|
D|0-------------------------------|------0-------------------------|
A|---------------------------3--5-|0--0----------------------------|
E|--------------------------------|--------------------------------|

 |1 + 2 + 3 + 4 + 5 + 6 + 7 + 8 + |1 + 2 + 3 + 4 + 5 + 6 + 7 + 8 + |

[1:33]
e|8-----0-7--0----7-------5--0--0-|------7-------7-7b-7b-7b----------|
B|---6----------6-------5----4b-4b|---6-------6----Ab-Ab-Ab6---------|
G|-------------------7------------|7-------7-------------------51----|
D|--------------------------------|----------------------------------|
A|--------------------------------|----------------------------------|
E|--------------------------------|----------------------------------|

[1:39]
e|--------------------------------|------0-----------------0-------|
B|--------------------------------|------0-----------------0--6----|
G|--------------------------------|------0-----------------------7-|
D|2b------------------------------|------0-------------------------|
A|---------------------------3--5-|0--0----0-----------------------|
E|--------------------------------|--------------------------------|

 |1 + 2 + 3 + 4 + 5 + 6 + 7 + 8 + |1 + 2 + 3 + 4 + 5 + 6 + 7 + 8 + |

[1:46]
e|8-----0-7--0----7-------5--0--0-|------7-------7-7b-7b-7b----------|
B|---6----------6-------5----4b-4b|---6-------6----Ab-Ab-Ab6---------|
G|-------------------7------------|7-------7-------------------51----|
D|--------------------------------|----------------------------------|
A|--------------------------------|----------------------------------|
E|--------------------------------|----------------------------------|


=============================================================================

[1:52]
e|--------------------------------|    |--------|
B|--------------------------------|    |--------|
G|--------------------------------|    |--------|
D|--2222--22222-----2222--22222---| x4 |--2222--|
A|--00030-00000-----00030-00000---|    |--00030-|
E|-------3---------------3--------|    |-------3|
        ph*             ph*                   ph*
 |1 + 2 + 3 + 4 + 5 + 6 + 7 + 8 + |    |1 + 2 + |
                                        Two-Beat Fill

* Pull-Off the C to play the open A, and hammer-on the G.


=============================================================================

[2:05]
e|--------------------------------|                                   |
B|10----10----10----10----14--12--|                                   |
G|--11----11----11----11----0-----|9 12 9           9       9       9 |
D|--------------------------------|       10 9 12 9   10 12   10 12   |
A|----9-----9-----9-----12--------|                                   |
E|--------------------------------|                                   |
                                     h  p    p h  p      h       h
 |1 + 2 + 3 + 4 + 5 + 6 + 7 + 8 + |

[2:12]
e|--------------------------------|                                         |
B|10----10----10----10----14--12--|                             10    10    |
G|--11----11----11----11----0-----|                           9    11    12 |
D|--------------------------------|      10 12 10    10 12 10               |
A|----9-----9-----9-----12--------|10 12          12                        |
E|--------------------------------|                                         |
                                      h     h  p  h
[2:18]
e|--------------------------------|                             14    |
B|10----10----10----10----14--12--|                     12     //  12 |
G|--11----11----11----11----0-----|                        11 //      |
D|--------------------------------|               14         //       |
A|----9-----9-----9-----12--------|         15 14    15               |
E|--------------------------------|12 15 12                           |
                                      h  p     p
 |1 + 2 + 3 + 4 + 5 + 6 + 7 + 8 + |

[2:25]
e|--------------------------------|                  15    17    |
B|10----10----10----10----14--12--|12 14          14    14    15 |
G|--11----11----11----11----0-----|      13    15                |
D|--------------------------------|         12                   |
A|----9-----9-----9-----12--------|                              |
E|--------------------------------|                              |

[2:31]
e|------------------------------------------------------------------------|
B|10-10-10-10-10-10-10-10-10-10-10-10-10-10-10-10-10-10-14-14-14-12-12-12-|
G|11-11-11-11-11-11-11-11-11-11-11-11-11-11-11-11-11-11-11-11-11-11-11-11-|
D|------------------------------------------------------------------------|
A|9--9--9--9--9--9--9--9--9--9--9--9--9--9--9--9--9--9--9--9--9--9--9--9--|
E|------------------------------------------------------------------------|

 |1  +  a  2  +  a  3  +  a  4  +  a  5  +  a  6  +  a  7  +  a  8  +  a  |
  Eight Beats of Triplets

[2:34]
e|------------------------------------------------------------------------|
B|6--6--6--6--6--6--6--6--6--6--6--6--6--6--6--6--6--6--6--6--6--8--8--8--|
G|------------------------------------------------------------------------|
D|------------------------------------------------------------------------|
A|6--6--6--6--6--6--6--6--6--6--6--6--6--6--6--6--6--6--6--6--6--6--6--6--|
E|------------------------------------------------------------------------|

[2:38]
e|------------------------------------------------------------------------|
B|10-10-10-10-10-10-10-10-10-10-10-10-10-10-10-10-10-10-14-14-14-12-12-12-|
G|11-11-11-11-11-11-11-11-11-11-11-11-11-11-11-11-11-11-11-11-11-11-11-11-|
D|------------------------------------------------------------------------|
A|9--9--9--9--9--9--9--9--9--9--9--9--9--9--9--9--9--9--9--9--9--9--9--9--|
E|------------------------------------------------------------------------|

 |1  +  a  2  +  a  3  +  a  4  +  a  5  +  a  6  +  a  7  +  a  8  +  a  |

[2:41]
e|------------------------------------------------------------------------|
B|6--6--6--6--6--6--6--6--6--6--6--6--6--6--6--6--6--6--6--6--6--8--------|
G|------------------------------------------------------------------------|
D|------------------------------------------------------------------------|
A|6--6--6--6--6--6--6--6--6--6--6--6--6--6--6--6--6--6--6--6--6--6--------|
E|------------------------------------------------------------------------|


=============================================================================

[2:44]
e|0-------------------------------|------1-------------------------|
B|0-------------------------------|------0-----------------xxxxxxxx|
G|0-------------------------------|------0-----------------xxxxxxxx|
D|0-------------------------------|------0-----------------xxxxxxxx|
A|---------------------------3--5-|0--0----------------------------|
E|--------------------------------|--------------------------------|

 |1 + 2 + 3 + 4 + 5 + 6 + 7 + 8 + |1 + 2 + 3 + 4 + 5 + 6 + 7 + 8 + |

[2:50]
e|0-------------------------------|------1-------------------------|
B|0-------------------------------|------0-----------------xxxxxxxx|
G|0-------------------------------|------0-----------------xxxxxxxx|
D|0-------------------------------|------0-----------------xxxxxxxx|
A|---------------------------3--5-|0--0----------------------------|
E|--------------------------------|--------------------------------|


=============================================================================

[2:56]
e| The verse is an almost-random combination of the following notes. |
B|                |                |                |                |
G|                |                |0 2 5 7 0 5 4 7 |0 5 4 4 0 5 4 7 |
D|0 2 5 7     5 7 |0 2 5 7     5 7 |                |                | x3.5
A|        0/5     |        0/5     |                |                |
E|                |                |                |                |


=============================================================================

[3:18]
e|------1---------------0---------|
B|------0---------------0----6----|
G|------0---------------0-------7-|
D|------0---------------0---------|
A|0--0----------------------------|
E|----------------0--0------------|

 |1 + 2 + 3 + 4 + 5 + 6 + 7 + 8 + |1 + 2 + 3 + 4 + 5 + 6 + 7 + 8 + |

[3:21]
e|8-----0-7--0----7-------5--0--0-|------7-------7-7b-7b-7b----------|
B|---6----------6-------5----4b-4b|---6-------6----Ab-Ab-Ab6---------|
G|-------------------7------------|7-------7-------------------51----|
D|--------------------------------|----------------------------------|
A|--------------------------------|----------------------------------|
E|--------------------------------|----------------------------------|

[3:27]
e|--------------------------------|------1-------------------------|
B|--------------------------------|------0--------------------6----|
G|--------------------------------|------0-----------------------7-|
D|2b------------------------------|------0-------------------------|
A|---------------------------3--5-|0--0--0-------------------------|
E|--------------------------------|--------------------------------|

 |1 + 2 + 3 + 4 + 5 + 6 + 7 + 8 + |1 + 2 + 3 + 4 + 5 + 6 + 7 + 8 + |

[3:33]
e|8-----0-7--0----7-------5--0--0-|------7-------7-7b-7b-7b----------|
B|---6----------6-------5----4b-4b|---6-------6----Ab-Ab-Ab6---------|
G|-------------------7------------|7-------7-------------------51----|
D|--------------------------------|----------------------------------|
A|--------------------------------|----------------------------------|
E|--------------------------------|----------------------------------|

[3:40]
e|--------------------------------|------1-------------------------|
B|--------------------------------|------0--------------------6----|
G|--------------------------------|------0-----------------------7-|
D|2b------------------------------|------0-------------------------|
A|---------------------------3--5-|0--0----------------------------|
E|--------------------------------|--------------------------------|

 |1 + 2 + 3 + 4 + 5 + 6 + 7 + 8 + |1 + 2 + 3 + 4 + 5 + 6 + 7 + 8 + |

[3:46]
e|8-----0-7--0----7-------5--0--0-|------7-------7-7b-7b-7b----------|
B|---6----------6-------5----4b-4b|---6-------6----Ab-Ab-Ab6---------|
G|-------------------7------------|7-------7-------------------51----|
D|--------------------------------|----------------------------------|
A|--------------------------------|----------------------------------|
E|--------------------------------|----------------------------------|


=============================================================================


Yes, there is an 8/8 meter in this section.  Listen to the drummer.

[3:52]
e|19------------------------------|--------------------------------|
B|------------------17----20------|--------------------------------|
G|--------------------------------|--------------------21------19--|
D|------------------------------20|--------------------------------|
A|--------------------------------|--------------------------------|
E|--------------------------------|--------------------------------|

 |1 + 2 + 3 + 4 + 5 + 6 + 7 + 8 + |1 + 2 + 3 + 4 + 5 + 6 + 7 + 8 + |

[3:59]
e|--------------------------------|----------------20--------------|
B|--------------------------------|--------------------------------|
G|--------------------------------|--------------------------------|
D|19----------------------21------|--------------------------------|
A|--------------------------------|--------------------------------|
E|--------------------------------|--------------------------------|

[4:06]
e|--------------------------------|--------------------17----------|
B|----17------------------20------|----------------------------16--|
G|--------------------------------|--------------------------------|
D|--------------------------18----|--------------------------------|
A|--------------------------------|--------------------------------|
E|--------------------------------|--------------------------------|

 |1 + 2 + 3 + 4 + 5 + 6 + 7 + 8 + |1 + 2 + 3 + 4 + 5 + 6 + 7 + 8 + |

[4:15]
e|--------------------------------|----------------------------------|
B|----------------20--------------|----------------------------------|
G|19b-----------------------------|-----------------------18---------|
D|--------------------------------|----------------------------------|
A|--------------------------------|----------------------------------|
E|--------------------------------|----------------------------------|


=============================================================================

[4:21]
e|--------------------------------|
B|--------------------------------|
G|--------------------------------|
D|--2222--22222-----2222--22222---| x4
A|--00030-00000-----00030-00000---|
E|-------3---------------3--------|
        ph              ph
 |1 + 2 + 3 + 4 + 5 + 6 + 7 + 8 + |

[4:33]
e|--------------------------------|     |--------|
B|--------------------------------|     |--------|
G|--------------------------------|     |--------|
D|--2222--22222-----2222--22222---| x16 |--------|
A|--00030-00000-----00030-00000---|     |--0--0--|
E|-------3---------------3--------|     |--------|
        ph              ph
 |1 + 2 + 3 + 4 + 5 + 6 + 7 + 8 + |     |1 + 2 + |
                                         Two-Beat Fill

* Hold out the last note of each set.


=============================================================================

[5:25]
e|--------------------------------|--------------------------------|
B|--------------------------------|--------------------------------|
G|14~~~~~~~~~~~~~~~~~~~~~~~~~~~~~~|12~~8~~~~~~~~~~~~~~~~~~~~~~~~~~~|
D|--------------------------------|--------------------------------|
A|12~~~~~~~~~~~~~~~~~~~~~~~~~~~~~~|10~~6~~~~~~~~~~~~~~~~~~~~~~~~~~~| x3
E|--------------------------------|--------------------------------|

 |1 + 2 + 3 + 4 + 5 + 6 + 7 + 8 + |1 + 2 + 3 + 4 + 5 + 6 + 7 + 8 + |

[5:43]
e|--------------------------------|-----------------------|
B|--------------------------------|-----------------------|
G|8~~~98~~~~~~~~~~~~~~~~~~~~~~~~~~|8~~~98~~~~~~~~~~~~~~~~~|
D|--------------------------------|-----------------------|
A|6~~~76~~~~~~~~~~~~~~~~~~~~~~~~~~|6~~~76~~~~~~~~~~~~~~~~~|
E|--------------------------------|-----------------------|

 |1 + 2 + 3 + 4 + 5 + 6 + 7 + 8 + |1 + 2 + 3 + 4 + 5 + 6 +|
                                   Six-Beat Measure

=============================================================================

[5:49]
e|--------------------------------|
B|--------------------------------|
G|--------------------------------|
D|--2222--22222-----2222--22222---| x2.5
A|--00030-00000-----00030-00000---|
E|-------3---------------3--------|
        ph              ph

-------------------------------------------------------------------------------
			             Eriatarka
-------------------------------------------------------------------------------
Tabbed by:Alex Radovanovich

Tuning:Standard

Intro
e|-------------------------------------------|
B|-------------------------101010------------|
G|-------------------------x-x-x-------9-9-9-|
D|-111111------9-9-9-------111111------9-9-9-|
A|-x-x-x-------x-x-x-------x-x-x-------x-x-x-|
E|-7-7-7-------7-7-7-------7-7-7-------7-7-7-|

Played w/weird harmonic effect I can't figure out
e|-------9-----7-----5-----------------------------|
B|---------------0-------------------0-7p5-0-------|
G|-7---------7-----7-------------6h7---------6--/6-|
D|-x-----------------------------------------------|
A|-x-----------------------------------------------|
E|-7-----------------------7-----------------------|

e|-----------------------------------------14-----0---9-|
B|-------5-----7p5-----------------10-----------0---0---|
G|-----------6-----6----/11-------------11--------------|
D|-0-----------------0----------------------------------|
A|--------------------------10--------------------------|
E|------------------------------------------------------|

e|-------9-----7-----5---------------------------|
B|---------------0-------0-----------0-7---5-----|
G|-----------7-----7-------7-----6h7-----------6-|
D|-------------------------x---------------------|
A|-------------------------x---------------------|
E|-7-----------------------7---------------------|

e|-----------------------------------------14-----0---9-|
B|-------5-----7p5-----------------10-----------0---0---|
G|-----------6-----6----/11-------------11--------------|
D|-0-----------------0----------------------------------|
A|--------------------------10--------------------------|
E|------------------------------------------------------|

Verse (Slow bend in vibratos)
e|-------------7~~~~~~~~---------------9/----5-|
B|---------------------------------------------|
G|-------------------------------7-------------|
D|-------------------------9---------8---------|
A|---------------------------------------------|
E|---------------------------------------------|

e|----------------------------------------14------9-------|
B|-------5------------------------10----------------10----|
G|-6-----------7~~~~~~~~--/11----------11------11------11-|
D|--------------------------------------------------------|
A|--------------------------------------------------------|
E|--------------------------------------------------------|
                                                ______________

e|-------------7~~~~~~~~---------------9/----5-|              |
B|-------7-------------------------------------|              |
G|-9-----------------------------7-------------|              |
D|-------------------------9---------8---------|              |
A|---------------------------------------------|              |
E|---------------------------------------------|              |
                                                               > x2
e|----------------------------------------9-------14-------|  |
B|-------5------------------------10--------10-------10----|  |
G|-6-----------7~~~~~~~~--/11----------11------11-------11-|  |
D|---------------------------------------------------------|  |
A|---------------------------------------------------------|  |
E|---------------------------------------------------------|__|

Pre-chorus
e|-------------5-------------------------------|
B|-------------------------------------------0-|
G|-7-----------------------7-----------6h7p6---|
D|-0-----------------------0-------------------|
A|-x-----------------------x-------------------|
E|-7-----------------------7-------------------|

e|--------------------------------------------------------|
B|-5-5---5-----7p5---------10-10---10------12p10----14p10-|
G|-----------6-----6--------------------11-------11-------|
D|-------------------0------------------------------------|
A|--------------------------------------------------------|
E|--------------------------------------------------------|

e|-------------5-----------------------------5-|
B|---------------------------------------------|
G|-7-----------------------7-----------6h7p6---|
D|-0-----------------------0-------------------|
A|-x-----------------------x-------------------|
E|-7-----------------------7-------------------|

e|-----------------------------------------14-----0-9-------|
B|-5-5---5-----7p5---5-----10-10---10-----------------10-12-|
G|-6---------6-----6--------------------11------------------|
D|-0--------------------------------------------------------|
A|----------------------------------------------------------|
E|----------------------------------------------------------|

Chorus lead-in (changes to 4/4) - Guitar 1
e|---------|
B|-------7-|
G|-0-7-0---|
D|---------| x24
A|---------|
E|---------|

Guitar 2 - After 8th repeat
e|-------------------------------|
B|-------------------------------|
G|-------------------------------|
D|-----------------------------8-|
A|-----------------7-------9-----|
E|-7-------9---------------------|

Chorus
e|------------------------------------------------------------|
B|------------------------------------------------------------|
G|------------------------------------------------------------|
D|-111111------9-9-9-------7-7-7-------0-0-0-------9----------| x3
A|-x-x-x-------x-x-x-------x-x-x-------x-x-x---9---x----------|
E|-7-7-7-------7-7-7-------7-7-7-------7-7-7---7---7---7---9b-|


e|------------------------------------------------------------|
B|------------------------------------------------------------|
G|------------------------------------------------------------|
D|-7-7-7-7-7-7-7-7-7-7-7-7-7-------10101010101010101010101010-| Repeat all
A|-x-x-x-x-x-x-x-x-x-x-x-x-x-------x-x-x-x-x-x-x-x-x-x-x-x-x--|
E|-8-8-8-8-8-8-8-8-8-8-8-8-8-------11111111111111111111111111-|

Repeat intro w/out harmonic effect.
Listen to the song for slight variations.

Repeat verse and pre-chorus, slight variations on pre-chorus.

Before 2nd chorus - One guitar plays high, other plays low.
e|-17-19~~~~~~~~~-|
B|----------------|
G|----------------|
D|-14-16~~~~~~~~~-|
A|----------------|
E|----------------|

Repeat chorus

Bridge
e|-------7---------------------------------------------------------|
B|-------7-------------5p0---3p0-------------------0---------------|
G|-----7-----------0---------------------6---------0---6-----------|
D|-9-----------------4-----4-----------0-------------0-------7-5-7-| x4
A|---------------------------------4-------------------------------|
E|---------------------------------------------------------6-------|

Delay on 1st chord / palm mute the rest
e|-7-------------------------------------------------------------0-|
B|-7-------------------5p0---3p0-----------------------------------|
G|-----------------------------------------------------------------|
D|-------------------4-----4-------------------------000-0---7-5---|
A|---------------------------------4-------------------------------|
E|---------------------------------------------------------6-------|

w/delay
e|---------7-|
B|---------7-|
G|-----------|
D|-----------|
A|-----------|
E|-----------|

e|-------------------------------------------------------------------|
B|---------7-------7-----5p0---3p0-----------------------------------|
G|-----7-0---0-7-0---0---------------------2-------0-----6-----------|
D|-7-9-----------------4-----4---------2p0-----2p0-----0-------7-5-7-|
A|-----------------------------------4-------4-----------------------|
E|-----------------------------------------------------------6-------|

e|-------------------------------------------------------------------|
B|-------7-------7-----5p0---3p0-------------------------------------|
G|---7-0---0-7-0---0---------------------2-0-----0-------------------|
D|-9-----------------4-----4---------2p0-----2-0---------0---7-5-7-9-|
A|---------------------------------4-----------------4\5-------------|
E|---------------------------------------------------------6---------|

Repeat chorus lead-in

Last chorus
e|----------------------------------|
B|---------0-0---0-0---0-0-0-0------|
G|---6-6---4-4---2-2---4-4-4-4------|
D|---x-x---x-x---x-x---0-0-4-0------| x3
A|---2-2---2-2---2-2---2-2-2-2-0-4b-|
E|----------------------------------|

e|---------------------------------|
B|---0-0-0-0-0-0-0---0-0-0-0-0-0-0-|
G|---2-2-2-2-2-2-2---5-5-5-5-5-5-5-|
D|---x-x-x-x-x-x-x---x-x-x-x-x-x-x-|
A|---3-3-3-3-3-3-3---6-6-6-6-6-6-6-|
E|---------------------------------|


-------------------------------------------------------------------------------
	                         Cicatriz Esp
-------------------------------------------------------------------------------


1\'st Verse
e ---------------------------------------------------|
b ---------------------------------------------------|
G ---------------------------------------------------|
D ---------------------------------------------------|
A -7-7-7-7-5-7--7-7-7-7-5-7--------------------------|
E --------------------------5-5-5-5-3-5--5-5-5-5-3-5-|

e -------------0-------------------------0-------------|
b -------------4^------------------------4^------------|
G -----------------------------------------------------|
D -----------------------------------------------------|
A -7-7-7-7-5-7---7-7-7-7-5-7---------------------------|
E ---------------------------5-5-5-5-3-5---5-5-5-5-3-5-|

Pre Chorus
e --------------------------------|--------0-----0----0----0----------------|
B -------0------------------------|--------4-----5----7----8----------------|
G -----0---0----------------------|-----------------------------------------|
D ---2-------2-0-3-2-0------------|-----------------------------------------|
A -3-------------------2-3--------|-----------------------------------------|
E --------------------------------|-----------------------------------------|


2\'nd Verse
e ----------------7-5-3-------------------19----7-5-3---|
b -12-15-10-12--5-------5--12-15h17-10-12-----5-------5-|
G ------------------------------------------------------|
D ------------------------------------------------------|
A ------------------------------------------------------|
E ------------------------------------------------------|

Pre Chorus
e --------------------------------|--------0-----0----0----0----------------|
B -------0------------------------|--------4-----5----7----8----------------|
G -----0---0----------------------|-----------------------------------------|
D ---2-------2-0-3-2-0------------|-----------------------------------------|
A -3-------------------2-3--------|-----------------------------------------|
E --------------------------------|-----------------------------------------|

Rest 1:29-1:44

Chorus
e -------------|
b -4-4-5-------|
G -------5-4-2-|
D -------------|
A -------------|
E -------------|

3\'rd Verse
e ----------------7-5-3-------------------19----7-5-3---|
b -12-15-10-12--5-------5--17-15h17-10-12-----5-------5-|
G ------------------------------------------------------|
D ------------------------------------------------------|
A ------------------------------------------------------|
E ------------------------------------------------------|

Pre Chorus
e --------------------------------|--------0-----0----0----0----------------|
B -------0------------------------|--------4-----5----7----8----------------|
G -----0---0----------------------|-----------------------------------------|
D ---2-------2-0-3-2-0------------|-----------------------------------------|
A -3-------------------2-3--------|-----------------------------------------|
E --------------------------------|-----------------------------------------|

Chorus
e -------------|
b -4-4-5-------|
G -------5-4-2-|
D -------------|
A -------------|
E -------------|

Solo 3:24
e -----------------------------------|
b -5-8/10-12-12-12/15-19-19-17p15h17-|
G -----------------------------------|
D -----------------------------------|
A -----------------------------------|
E -----------------------------------|

e -17h19p17-17h19p17-17h19p17-17h19p17-17h19p17-17h19p17-|
b -------------------------------------------------------|
G -------------------------------------------------------|
D -------------------------------------------------------|
A -------------------------------------------------------|
E -------------------------------------------------------|

e -14h15-14h15-14h15-14h15-12-14-10-7-0-10-12-7-|
b ----------------------------------------------|
G ----------------------------------------------|
D ----------------------------------------------|
A ----------------------------------------------|
E ----------------------------------------------|

e ----------------------------------------------------------------|
b -----0-0-----0-8-5-3------0-0---0-5-5h7p5-0---0-0-3-5-0-0-7-8-7-|
G -0-0-----0-0----------0-0-----0-------------0-------------------|
D ----------------------------------------------------------------|
A ----------------------------------------------------------------|
E ----------------------------------------------------------------|

e -----0-----0---0-------------------------------------|
b ---0---0-0---0---3-5-0-8-7-10-12-8-7-8-7-5-8-5-10\\5-|
G -0---------------------------------------------------|
D -----------------------------------------------------|
A -----------------------------------------------------|
E -----------------------------------------------------|

e -----------------------------------------------|
b -8/7/5-10-12-12/15-17-12-17-20-15-17-17-22\\20-|
G -----------------------------------------------|
D -----------------------------------------------|
A -----------------------------------------------|
E -----------------------------------------------|

e ----------------------------------------|
b -15-17-12-10h12p10-5-5-7h8-5-3-17-20-15-|
G ----------------------------------------|
D ----------------------------------------|
A ----------------------------------------|
E ----------------------------------------|

e ---------------------------------------0-0---------|
b -12-8-17-------------------------3-7-8-5-5---------|
G ---------4-----4-------9-5-2-5-2-----------0-2-3-4-|
D -----------5-2---5-9-5-----------------------------|
A ---------------------------------------------------|
E ---------------------------------------------------|

e --------------------------------------------|
b --------------------------------------------|
G -------4-0----------------------------------|
D -2-0-2-----5-4-5-10-9-5-5-5-5-7-7-7-7-0-1-2-|
A --------------------------------------------|
E --------------------------------------------|

e -------------------------------------------------------|
b ---------------0-3-5-3-0-3-0---------------0h1h2-0-1-3-|
G -------------------------------------------------------|
D -------------------------------------------------------|
A -0-0-0-0-0-0-0---------------0-0-0-0-0-0-0-------------|
E -0-0-0-0-0-0-0---------------0-0-0-0-0-0-0-------------|

e ----------------------------------------------------3-0-0-|
b ---------------0h1h2-1-2-3^---------------0h1h3-0-1-------|
G ----------------------------------------------------------|
D ----------------------------------------------------------|
A -0-0-0-0-0-0-0--------------0-0-0-0-0-0-0-----------------|
E -0-0-0-0-0-0-0--------------0-0-0-0-0-0-0-----------------|

e -15-14-12-14--15-14-12-7--15-14-12-14--15-14-12-12--15-14-12-14-|
b ----------------------------------------------------------------|
G ----------------------------------------------------------------|
D ----------------------------------------------------------------|
A ----------------------------------------------------------------|
E ----------------------------------------------------------------|

e -15-14-12-12--15-14-12-12-12-12-17-15-------------------|
b --------------------------------------------------------|
G ----------------------------------------0-0-4-5-4-0-----|
D ----------------------------------------------------4-2-|
A --------------------------------------------------------|
E --------------------------------------0-----------------|

e -----=----------10-12-10-7-------------------------------|
b ---------------------------------------------10-12-0-----|
G ---11-12-11-9----------------7-9-11-9---12-9---------0-2-|
D ---------------------------------------------------------|
A ---------------------------------------------------------|
E -0------------0------------0----------0------------------|

e ---------------------------------------------------|
b -1---1-5----10-10-12-17-17-15-17-10-12-15-17-15-12-|
G ---0-----5^----------------------------------------|
D ---------------------------------------------------|
A ---------------------------------------------------|
E ---------------------------------------------------|

e ------------------------------------------------|
b -0-3-5-7-8-7-8-0-3-5-7-5-7-0-5-3---8-7h8\\5--12-|
G ------------------------------------------------|
D ------------------------------------------------|
A ------------------------------------------------|
E ---------------------------------0--------------|

Rest 6:01-9:20

e -----------------15^-14^-19^-19^--------------------|
b -15^------12-8-5-----------------12^-10h12p10h12p10-|
G -----9-12-------------------------------------------|
D ----------------------------------------------------|
A ----------------------------------------------------|
E ----------------------------------------------------|

e ----------------------------------------------|
b -15-17-15^-12-12-12\\10-12^-5p3h5-11p10h11p10-|
G ----------------------------------------------|
D ----------------------------------------------|
A ----------------------------------------------|
E ----------------------------------------------|

e -14h15p14-12-8-7-8-10-7-8-14h15p14-12-8-7-8-10-8-7-|
b ---------------------------------------------------|
G ---------------------------------------------------|
D ---------------------------------------------------|
A ---------------------------------------------------|
E ---------------------------------------------------|

e -14h15p14-12-8-7-8-10-8-7------------------|
b --------------------------5^-4-5-7-8-5p4-0-|
G -------------------------------------------|
D -------------------------------------------|
A -------------------------------------------|
E -------------------------------------------|

e ---------------------------------------|
b -5^-8-7-4-4-5-5p4-0-5^-8-7-4-4-5-5p4-0-|
G ---------------------------------------|
D ---------------------------------------|
A ---------------------------------------|
E ---------------------------------------|

e -7^-7^-7^-7^-15-3^p2h3-10^-12-14-15-16-|
b ---------------------------------------|
G ---------------------------------------|
D ---------------------------------------|
A ---------------------------------------|
E ---------------------------------------|

e -15-16-17-17-17-19-20-21-22-22-22-12p10h12-12^p10h12-|
b -----------------------------------------------------|
G -----------------------------------------------------|
D -----------------------------------------------------|
A -----------------------------------------------------|
E -----------------------------------------------------|

e -14-15^---------------------------------------------------|
b --------15h17----15h1715----15h17-15h17----15h17-15h17----|
G --------------15---------15-------------15-------------15-|
D ----------------------------------------------------------|
A ----------------------------------------------------------|
E ----------------------------------------------------------|

e -10-10-10-10-10-8-8\\7-7\\5-5\\2-2h3-0-0-0-0-|
b ---------------------------------------------|
G ---------------------------------------------|
D ---------------------------------------------|
A ---------------------------------------------|
E ---------------------------------------------|

e -3/5/7---------7/8/10-------------12/14/15-------------|
b -------8-8-8-8--------12-12-12-12----------17-17-17-17-|
G -------------------------------------------------------|
D -------------------------------------------------------|
A -------------------------------------------------------|
E -------------------------------------------------------|

e -10-10-17-15-17-19-19-19-19-19-14-15-14-15-14-15-14-15-14-15-|
b -------------------------------------------------------------|
G -------------------------------------------------------------|
D -------------------------------------------------------------|
A -------------------------------------------------------------|
E -------------------------------------------------------------|

1\'st Verse
e ---------------------------------------------------|
b ---------------------------------------------------|
G ---------------------------------------------------|
D ---------------------------------------------------|
A -7-7-7-7-5-7--7-7-7-7-5-7--------------------------|
E --------------------------5-5-5-5-3-5--5-5-5-5-3-5-|

e -------------0-------------------------0-------------|
b -------------4^------------------------4^------------|
G -----------------------------------------------------|
D -----------------------------------------------------|
A -7-7-7-7-5-7---7-7-7-7-5-7---------------------------|
E ---------------------------5-5-5-5-3-5---5-5-5-5-3-5-|

Pre Chorus
e --------------------------------|--------0-----0----0----0----------------|
B -------0------------------------|--------4-----5----7----8----------------|
G -----0---0----------------------|-----------------------------------------|
D ---2-------2-0-3-2-0------------|-----------------------------------------|
A -3-------------------2-3--------|-----------------------------------------|
E --------------------------------|-----------------------------------------|

Chorus
e -------------|
b -4-4-5-------|
G -------5-4-2-|
D -------------|
A -------------|
E -------------|

-------------------------------------------------------------------------------
	         This Apparatus Must Be Unearthed
-------------------------------------------------------------------------------

- ( ) let notes ring..
- \ / slide notes..
- ~~~ bend notes..

	Intro

e|-13-13-13-13-13-13-13-13-13-13-13-13-|-12-12-12-12-12-12-12-12-12-12-12-12-|
B|-12-12-12-12-12-12-12-12-12-12-12-12-|-12-12-12-12-12-12-11-11-11-11-11-11-|
G|-------------------------------------|-------------------------------------| x4
D|-------------------------------------|-------------------------------------|
A|-------------------------------------|-------------------------------------|
E|-------------------------------------|-------------------------------------|

	Intro Chorus

e|-13-13-13-13-13-13-13-13-13-13-13-13-|-12-12-12-12-12-12-12-12-12-12-12-12-|
B|-12-12-12-12-12-12-12-12-12-12-12-12-|-12-12-12-12-12-12-11-11-11-11-11-11-|
G|-------------------------------------|-------------------------------------| x7
D|-------------------------------------|-------------------------------------|
A|-------------------------------------|-------------------------------------|
E|-------------------------------------|-------------------------------------|

	Last time with slide at the end...

e|-13-13-13-13-13-13-13-13-13-13-13-13-|-12-12-12-12-12-12-12-12-12-12-12-12-13\\\-|
B|-12-12-12-12-12-12-12-12-12-12-12-12-|-12-12-12-12-12-12-11-11-11-11-11-11-12\\\-|
G|-------------------------------------|-------------------------------------------|
D|-------------------------------------|-------------------------------------------|
A|-------------------------------------|-------------------------------------------|
E|-------------------------------------|-------------------------------------------|

	1st Verse

e|-------------------------------6-----|--7---6---9------(9)\-------------7----------|
B|----------------------------------7--|----------------------6-------6--------------|
G|-------------------------------------|--------------------------7------------------|
D|-------------------------------------|---------------------------------------------|
A|-------------------------------------|---------------------------------------------|
E|-------------------------------------|---------------------------------------------|

e|----(7)------------------------------|-----------7-----------------------------|
B|-------------------------------------|--6-----6-----6----------------------6---|
G|-------------------------------------|-----7--------------7\\\4--------4-------|
D|-------------------------------------|---------------------------4-------------|
A|-------------------------------------|-----------------------------------------|
E|-------------------------------------|-----------------------------------------|

e|-------------------------------------|----------------------------------5------|
B|----(6)------------------------------|-3--0--------------------4--0--3---------|
G|-------------------------------------|-------4--0-----5--0--4------------------|
D|-------------------------------------|-------------4---------------------------|
A|-------------------------------------|-----------------------------------------|
E|-------------------------------------|-----------------------------------------|

e|-----------------------------10------|---9--12-(12)~~~~~~~~~~(12)\------------7-----|
B|----------12--(12)---------------12--|-----------------------------6-------6--------|
G|------11-----------------------------|---------------------------------7------------|
D|-------------------------------------|----------------------------------------------|
A|-------------------------------------|----------------------------------------------|
E|-------------------------------------|----------------------------------------------|

		*use random note picking and sliding for chorus build up on 2nd bar...
e|----(7)------------------------------|-----------------------------------------|
B|-------------------------------------|-----------------------------------------|
G|-------------------------------------|-----------------------------------------|
D|-------------------------------------|-----------------------------------------|
A|-------------------------------------|-----------------------------------------|
E|-------------------------------------|-----------------------------------------|

	2nd Chorus

e|-13-13-13-13-13-13-13-13-13-13-13-13-|-12-12-12-12-12-12-12-12-12-12-12-12-|
B|-12-12-12-12-12-12-12-12-12-12-12-12-|-12-12-12-12-12-12-11-11-11-11-11-11-|
G|-------------------------------------|-------------------------------------| x7
D|-------------------------------------|-------------------------------------|
A|-------------------------------------|-------------------------------------|
E|-------------------------------------|-------------------------------------|

e|-13-13-13-13-13-13-13-13-13-13-13-13-|-12-12-12-12-12-12-12-12-12-12-12-12-13\\\-|
B|-12-12-12-12-12-12-12-12-12-12-12-12-|-12-12-12-12-12-12-11-11-11-11-11-11-12\\\-|
G|-------------------------------------|-------------------------------------------|
D|-------------------------------------|-------------------------------------------|
A|-------------------------------------|-------------------------------------------|
E|-------------------------------------|-------------------------------------------|

	2nd Verse

e|---------------------9---------------|-------------------7---------------------|
B|---------11------11--------12\\\\\\--|--------6-------6-----6------------------|
G|-----11------11----------------------|------------7-------------7--------------|
D|-------------------------------------|-----------------------------------------|
A|-------------------------------------|-----------------------------------------|
E|-------------------------------------|-----------------------------------------|

e|----------------3---(3)--------(3)---|-----6--7--9--6-----(6)------(6)---------|
B|-------------2-----------------------|--7--------------------------------------|
G|-(7)------0--------------------------|-----------------------------------------|
D|-------4-----------------------------|-----------------------------------------|
A|-------------------------------------|-----------------------------------------|
E|-------------------------------------|-----------------------------------------|

e|--10---------------------------------|----------------------------------5------|
B|------12-11---11\\\------------------|-3--0--------------------4--0--3---------|
G|--------------11\\\------------------|-------4--0-----5--0--4------------------|
D|-------------------------------------|-------------4---------------------------|
A|-------------------------------------|-----------------------------------------|
E|-------------------------------------|-----------------------------------------|

e|-------------------------------------|----------------------------------------------|
B|-------------------------------------|---(7)--let note ring---(7)-----------(7)-----|
G|-------------------------------------|----------------------------------------------|
D|-------------------------------------|----------------------------------------------|
A|-------------------------------------|----------------------------------------------|
E|-------------------------------------|----------------------------------------------|


  	*use random note picking and sliding for chorus build up on 2nd bar...
e|-------------------------------------|-----------------------------------------|
B|---(7)-------------------------------|-----------------------------------------|
G|-------------------------------------|-----------------------------------------|
D|-------------------------------------|-----------------------------------------|
A|-------------------------------------|-----------------------------------------|
E|-------------------------------------|-----------------------------------------|

	3rd Chorus

e|-13-13-13-13-13-13-13-13-13-13-13-13-|-12-12-12-12-12-12-12-12-12-12-12-12-|
B|-12-12-12-12-12-12-12-12-12-12-12-12-|-12-12-12-12-12-12-11-11-11-11-11-11-|
G|-------------------------------------|-------------------------------------| x8
D|-------------------------------------|-------------------------------------|
A|-------------------------------------|-------------------------------------|
E|-------------------------------------|-------------------------------------|

	SOLO, w/ Piano playing in the background....

e|---/14-------(14)--------------------------------------------------------------|
B|----------------------15-----17-----------14-----------------11--------7-------|
G|------------------16--------------------------12-------------------------------|
D|--------------------------------------------------11~~~~~~---------------------|
A|-------------------------------------------------------------------------------|
E|-------------------------------------------------------------------------------|

e|-------------17----------------------------------------------------------------|
B|---------------------------14-----(14)/15-\\\\\\\\7----------------------------|
G|----16--15--------------------------------------------------9-----(9)/16-------|
D|-------------------------------------------------------------------------------|
A|-------------------------------------------------------------------------------|
E|-------------------------------------------------------------------------------|

e|---/14-------(14)--------------------------------------------------------------|
B|----------------------15-----17-----------14-----------------11--------7-------|
G|------------------16--------------------------12-------------------------------|
D|--------------------------------------------------11~~~~~~---------------------|
A|-------------------------------------------------------------------------------|
E|-------------------------------------------------------------------------------|

e|-------------17----------------------------------------------------------------|
B|---------------------------14-----(14)/15-\\\\\\\\7----------------------------|
G|----16--15--------------------------------------------------9-----(9)/16-------|
D|-------------------------------------------------------------------------------|
A|-------------------------------------------------------------------------------|
E|-------------------------------------------------------------------------------|

	Bridge, w/ Piano playing in the background....

e|--14---(14)\\13----(13)\\12----(12)\\11----(11)\\10----(10)\\9----(9)\\7-------|
B|-------------------------------------------------------------------------------|
G|-------------------------------------------------------------------------------|
D|-------------------------------------------------------------------------------|
A|-------------------------------------------------------------------------------|
E|-------------------------------------------------------------------------------|

	last part of bridge @ approx (3:48)

e|-------------------------------------|-------------------------------------|
B|-------------------------------------|-------------------------------------|
G|-16-16-16-16-16-16-15-15-15-15-15-15-|-16-16-16-16-16-16-15-15-15-15-15-15-| x2
D|-x--x--x--x--x--x--x--x--x--x--x--x--|-x--x--x--x--x--x--x--x--x--x--x--x--|
A|-14-14-14-14-14-14-14-14-14-14-14-14-|-14-14-14-14-14-14-14-14-14-14-14-14-|
E|-------------------------------------|-------------------------------------|

e|--14---17----------------------------------------------------------------------------------------|
B|------------15---17------14-14-14-14-14-14-14-14-14-14-14-14-14-14-14-14-14-14-14-14-14-14-14-14-|
G|-------------------------------------------------------------------------------------------------|
D|-------------------------------------------------------------------------------------------------|
A|-------------------------------------------------------------------------------------------------|
E|-------------------------------------------------------------------------------------------------|

e|-13-13-13-13-13-13-13-13-13-13-13-13-|-12-12-12-12-12-12-12----------------|
B|-12-12-12-12-12-12-12-12-12-12-12-12-|-12-12-12-12-12-12-11----------------|
G|-10-10-10-10-10-10-10-10-10-10-10-10-|-9--9--9--9--9--9--9-----------------|
D|-------------------------------------|-------------------------------------|
A|-------------------------------------|-------------------------------------|
E|-------------------------------------|-------------------------------------|

	Last Chorus

e|-13-13-13-13-13-13-13-13-13-13-13-13-|-12-12-12-12-12-12-12-12-12-12-12-12-|
B|-12-12-12-12-12-12-12-12-12-12-12-12-|-12-12-12-12-12-12-11-11-11-11-11-11-|
G|-------------------------------------|-------------------------------------| x8
D|-------------------------------------|-------------------------------------|
A|-------------------------------------|-------------------------------------|
E|-------------------------------------|-------------------------------------|

	Outro, Reverse Drum Part, for guitar part i recommend just picking notes on the e string
          and lots of sliding up and down the neck with DELAY!!!, just make it sound cool...

e|-------------------------------------|-----------------------------------------|
B|-------------------------------------|-----------------------------------------|
G|-------------------------------------|-----------------------------------------|
D|-------------------------------------|-----------------------------------------|
A|-------------------------------------|-----------------------------------------|
E|-------------------------------------|-----------------------------------------|


-------------------------------------------------------------------------------
	                            Televators
-------------------------------------------------------------------------------

The lead part for the chorus has the chord changes written above the tab just to help
a bit more with the timing.  The chords for the chorus have a bit of timing on, but
let the Gm6 ring on still whilst you play the A# note.  The order to the song is
simple, and I've put the times above the pieces incase you can't work it out.

Standard Tuning

Intro/Verse - 0:36, 1:11 & 2:46
|---------------------------------------------------------------------------------------|
|---------------------------------------------------------------------------------------|
|---------------------------------------------------------------------------------------|
|-4-------------------------------------------------------------------------------------|
|-5------------------------------------------5------------------------------------------|
|--------------------------------------------3------------------------------------------|
| Rhythm - Distortion & fast delay
|
|---------------------------------------------------------------------------------------|
|---------------------------------------------------------------------------------------|
|------------------------------------------------------4----------4----------4----------|
|-4---------4----------4----------4----------5---------5----------5----------5----------|
|-5---5---5------5---5------5---5------5---5-5---5---5------5---5------5---5------5---5-|
|-7-7---7------7---7------7---7------7---7---3-3---3------3---3------3---3------3---3---|
| Lead 1


0:48 & 2:22
|---------------------------------------------------------------------------------------|
|---------------------------------------------------------------------------------------|
|---------------------------------------------------------------------------------------|
|-4-------------------------------------------------------------------------------------|
|-5------------------------------------------5------------------------------------------|
|--------------------------------------------3------------------------------------------|
| Rhythm
|
|---------------------------------------------------------------------------------------|
|---------------------------------------------------------------------------------------|
|------------------------------------------------------4----------4----------4----------|
|-4---------4----------4----------4----------5---------5----------5----------5----------|
|-5---5---5------5---5------5---5------5---5-5---5---5------5---5------5---5------5---5-|
|-7-7---7------7---7------7---7------7---7---3-3---3------3---3------3---3------3---3---|
| Lead 1
|
|-9--------------7-9-7-5-----------------7-9----------------7-9-7-5-----------------7-9-|
|---------------------------------------------------------------------------------------|
|---------------------------------------------------------------------------------------|
|---------------------------------------------------------------------------------------|
|---------------------------------------------------------------------------------------|
|---------------------------------------------------------------------------------------|
  Lead 2 - Distortion - Tremolo picked


Chorus - 1:58, 3:33 & 4:43
|-0--------0---------0--------0---------0--------0---------0--------------------|
|-0--------3----2----0--------3----2----0--------3----2----0----8-----12--------|
|-4--------3---------4--------3---------4--------3---------0----9-----11----12--|
|-2--------0---------2--------0---------2--------0---------2----9-----14----12--|
|-2--------x---------2--------x---------2--------x---------2----7-----14----10--|
|-0--------3---------0--------3---------0--------3---------0--------------------|
  Rhythm

  Em                  Gm6        A#
|-0----------0-----------------------------|
|-5---5------5---5-----3---3-----2---2-----|
|---4---4------4---4-----4---4-----4---4---|
|-0-------0--0-------0-4-------4-4-------4-|
|------------------------------------------|
|------------------------------------------|
 Lead (chorus)

Bridge - 3:56
|---------------------------------------------------------------------------|
|--------------------------------------8---------8---12-7---------5---------|
|-7---------7---11-6---------6---6---7-----0---0------------7---7-----7---7-|
|-----0---0------------0---0------------------------------------------------|
|--------------------------------------7-7---7-----7-10-7-7---7---5-5---5---|
|-7-7---7-----7-10-5-5---5-----5---5----------------------------------------|


Outro - 5:08
|---|-------------------------------------------------------|
|---|-------------------------------------------------------|
|---|-------------------------------------------------------|
|-4-|---------4----------4----------4----------4----------4-|
|-5-|---5---5------5---5------5---5------5---5------5---5---|
|-7-|-7---7------7---7------7---7------7---7------7---7-----|


-------------------------------------------------------------------------------
	                   Take the Veil Cerpin Taxt
-------------------------------------------------------------------------------


Intro riff
|-0--0-0------0---0-0--0-|-0--0-0------0---0-0--0-|
|-5--5-5h6p5--2/6-6-6--5-|-5--5-5h6p5--2/6-6-6--5-|
|------------------------|------------------------|
|------------------------|------------------------|
|------------------------|------------------------|
|------------------------|------------------------|

|-0--0-0------0---0-0--0-|-0--0-0------0---0-0-|
|-5--5-5h6p5--2/6-6-6--5-|-5--5-5h6p5--2/6-6-6-|
|------------------------|---------------------|
|------------------------|---------------------|
|------------------------|---------------------|
|------------------------|---------------------|

Verse Guitar Riff
|-----5-0-----0---|-------0--------10---|
|---------6-----6-|-(6)-----0-/8-9----9-|
|---7-------7-----|-----7---------------|
|-----------------|---------------------|
|-----------------|---------------------|
|-----------------|---------------------|

|-----5-0-----0-----|---10------------12-------|
|---------6---------|-9----9-------11----------|
|---7-------7---/10-|--------10s12----------12-|
|-------------------|--------------------11----|
|-------------------|--------------------------|
|-------------------|--------------------------|

0:29 and 00:50 and 1:37
\\\"You Take the Veil...\\\"
|-0--0--0--0--|--0---0--10--0--|-0--0--0--0--|--0--0--0--0-10--0------|
|-6--6--5--5--|--9---9---9---0--|-6--6--5--5--|--9--9--9--9--9---0----|
|-7--7--7--7--|-10--10--10------|-7--7--7--7--|-10-10-10-10-10--------|
|-------------|-----------------|-------------|-----------------------|
|-------------|-----------------|-------------|-----------------------|
|-------------|-----------------|-------------|-----------------------|

|-0--0--0--0--|--0---0--10--0--|-0--0--0--0--|--0---0---0--0-10-10----|
|-6--6--5--5--|--9---9---9---0--|-6--6--5--5--|--9---9---9--9--9--9---|
|-7--7--7--7--|-10--10--10------|-7--7--7--7--|-10--10--10-10-10-10---|
|-------------|-----------------|-------------|-----------------------|
|-------------|-----------------|-------------|-----------------------|
|-------------|-----------------|-------------|-----------------------|

1:01 and 1:48
\\\"A mass of gallon sloth...\\\"
||------------------|----------------|---5----5-5-5-5-|------------------|
||o---6-6-5-6-5-5-5-|---5-(5)--5--5--|---6----6-5-5-5-|---5-(5)--5--6----|
||----7-7-7-7-7-7-7-|---5-(5)--5--5--|---5----5-5-5-5-|---5-(5)--5--5----|
||------------------|---0-(0)--0--0--|----------------|---0-(0)--0-------|
||o-----------------|---x-(x)--x--x--|----------------|---x-(x)--x-------|
||------------------|---6-(6)--6--6--|----------------|---6-(6)--6-------|

|-----------------|-----------------|-6-6-6-6-6-6-6-6-|---3-3-3---0-0-0--||
|-6-6-6-5-6-5-5-5-|---5-(5)--5--6---|-8-8-8-8-8-8-8-8-|---2-2-2---2-2-2-o||
|-7-7-7-7-7-7-7-7-|---5-(5)--5--5---|-7-7-7-7-7-7-7-7-|---3-3-3---3-3-3--||
|-----------------|---0-(0)--0------|-----------------|-----------2-2-2--||
|-----------------|---x-(x)--x------|-----------------|-----------------o||
|-----------------|---6-(6)--6------|-----------------|------------------||

2:27 and 7:11
|------------|--------------------|-------------------------|
|------------|----(0)-------------|--0----------------------|
|------------|----(0)----------5--|--0--------------12h14---|
|------------|-8-(0)----------4--|--0----------11-----------|
|------------|-7-----------------|-------------10-----------|
|------------|---------3----------|-------------------------|

\\\"Knife me in....\\\"
||----------------------------|--------------------|
||o---------------------------|--------------------|
||--10-10-10-10--9-10--9---10-|----9---10---10--9--|
||--12-12-12-12-12-12-12---12-|---12---12---12-12--|
||o---------------------------|--------------------|
||----------------------------|--------------------|

|--------------------|---------------------------|
|----(0)-------------|--0--------------------o---|
|----(0)----------5--|--0--------------12h14-----|
|-8-(0)----------4--|--0----------11-------------|
|-7-----------------|-------------10--------o----|
|---------3----------|---------------------------|

RobotTalk Solo
3:41 (clean) and 4:11 (w/ robotalk effect)
|---------------------------------------|
|---------8---9-----------6---0-3-------|
|---7-0-----6---8-7-0-------0-------3---|
|-------6-------------8-----------5-----|
|-5---------------------7-------------5-|
|---------------------------------------|

|----------------------------------------|
|---------6---7-----------4--------------|
|---5-0-----5---6-5-0-------0---5-0------|
|-------4-------------6-------7-----6-0--|
|-3---------------------5----------------|
|----------------------------------------|

Solo
4:58 to 6:04
|-10--12--13--10---------------------------------12-10------------15----------17-15--|
|--------------------------------8-8-----8-10-12-------10------------15-17-17--------|
|----------------------------10------9-9-----------------------16--------------------|
|---------------------7-9-7----------------------------------------------------------|
|------------------------------------------------------------------------------------|
|------------------------------------------------------------------------------------|

|-17--------15-----15-17-------------------------------------------------------|
|----17-15-----17----------15----12-12-12-12-----------------------------------|
|-----------------------------14-------------13--10--12-9-10-------------------|
|------------------------------------------------------------10-12-12-10-10-12-|
|------------------------------------------------------------------------------|
|------------------------------------------------------------------------------|

|-----------------------------------------------------------------------------|
|------------------------------------------------------------------10---------|
|---------------------------------12------------------------7--7-7----10------|
|------------------------12-10-11----12--10-------7---7h9p7--------------10---|
|-7-8--------------10-12--------------------10-7----7-------------------------|
|-----10-8---10-12------------------------------------------------------------|

|----------------------12----12-13-12-12-12-12-12-12-12-12-10-10-10-10-10-|
|------------9h10-10-9----10----------------------------------------------|
|-10-9-7------------------------------------------------------------------|
|---------10--------------------------------------------------------------|
|-------------------------------------------------------------------------|
|-------------------------------------------------------------------------|

|-10-10-10---------------------------------------------------------------------|
|----------12-12-12-12-10-10-10-10---------------------------------------------|
|----------------------------------12-12-12-12-10-10-10-10---------------------|
|----------------------------------------------------------10-10-10-12-12-10-0-|
|-----------------=------------------------------------------------------------|
|------------------------------------------------------------------------------|

|--------------------------------------------------------------------|
|-----------------10------1010101010-----------------10--------------|
|-10-10-10-9-10-9----9-10------------10-10-10-9-10-9-----1212121212--|
|--------------------------------------------------------------------|
|--------------------------------------------------------------------|
|--------------------------------------------------------------------|

|------------------------------------------------------------------------|
|-----------------10----------12b-15b-17b-18b-13-x64-(fast)-14-x8-(fast)-|
|-10-10-10-9-10-9----9-9-10b---------------------------------------------|
|------------------------------------------------------------------------|
|------------------------------------------------------------------------|
|------------------------------------------------------------------------|

|-------------------------------------------------------|
|-15-x8-(fast)-16-x16-(fast)-17-x8-(fast)-18-x24-(fast)-|
|-------------------------------------------------------|
|-------------------------------------------------------|
|-------------------------------------------------------|
|-------------------------------------------------------|


Interlude
6:04
|-------------------------------------------------|
|-15-15-15-13-13-13-15-15-15----------------------|
|-------------------------------------------------|
|----------------------------15-15-15-15-15-11-11-|
|-------------------------------------------------|
|-------------------------------------------------|

|-10-10-10--8--8--8-10-10-10-----------------8--8-|
|-10-10-10-10-10-10-10-10-10--9--9--9-10-10-------|
|-------------------------------------------------|
|-------------------------------------------------|
|-------------------------------------------------|
|-------------------------------------------------|

|--------------------------------------------------|
|--------------------------------------------------|
|--------------------------------------------------|
|--12-12-12-12-12-12-12-12-12-12-12-12-12-12-12-12-|
|--------------------------------------------------|
|--------------------------------------------------|

|--------------------------------------------------|
|--------------------------------------------------|
|--------------------------------------------------|
|-/12-12-12-12-12-12-12-12-12-12-12-12-12-12-12-12-|
|--------------------------------------------------|
|--------------------------------------------------|

|-------------------------------------------------|
|-------------------------------------------------|
|-------------------------------------------------|
|-12-12-12-12-12-12-12-12-12-12-12-12-12-12-12-12-|
|-------------------------------------------------|
|-------------------------------------------------|

|-------------------------------------------------|
|-------------------------------------------------|
|-------------------------------------------------|
|-12-12-12-12-12-12-12-12-12-12-12-12-12-12-12-12-|
|-------------------------------------------------|
|-------------------------------------------------|

|-13--13-13----------------------------------------|
|-----------15-15-15-13-13-13----------------------|
|-----------------------------14-14-14-14-14-------|
|--------------------------------------------14-14-|
|--------------------------------------------------|
|--------------------------------------------------|

|-10-----------------10----------------------------|
|-10-----------------10----------------------------|
|---------------------------------9s===10-----9s===|
|---------------------------------8s====9-----8s===|
|--------------------------------------------------|
|--------------------------------------------------|

|-----------------------------------------------------|
|-----------------------------------------------------|
|-----------------------------------------------------|
|-15-15--15---15-15-11-11-11-11-11-11-11-11-11-11-----|
|-----------------------------------------------------|
|-----------------------------------------------------|

|-----------------------------------------------------|
|-----------------------------------------------------|
|-12----(12)------------------------------------------|
|-11----(11)--------11-11-11-11-11-11-11-11-11-11-----|
|-----------------------------------------------------|
|-----------------------------------------------------|

7:42
|-0--0-0------0---0-0--0-|-0--0-0------0---0-0--0-|
|-5--5-5h6p5--2/6-6-6--5-|-5--5-5h6p5--2/6-6-6--5-|
|------------------------|------------------------|
|------------------------|------------------------|
|------------------------|------------------------|
|------------------------|------------------------|

|-0--0-0------0---0-0--0-|-0--0-0------0---0-0-|
|-5--5-5h6p5--2/6-6-6--5-|-5--5-5h6p5--2/6-6-6-|
|------------------------|---------------------|
|------------------------|---------------------|
|------------------------|---------------------|
|------------------------|---------------------|

7:50
||------------------|-----------------|-----------------|-------------|
||o-----------------|-----------------|-----------------|-x-x-x-x-x-x-|
||--7-7---7h=9p==7--|-3-3---3h=5p==3--|-----------------|-x-x-x-x-x-x-|
||--0-0---0-(0)-(0)-|-0-0---0-(0)-(0)-|-5-5---5h=7p==5--|-x-x-x-x-x-x-|
||o-----------------|-----------------|-0-0---0-(0)-(0)-|-x-x-x-x-x-x-|
||------------------|-----------------|-----------------|-x-x-x-x-x-x-|

|-----------------|-----------------|-----------------|------------||
|-----------------|-----------------|-----------------|-5-6-5-----o||
|-7-7---7h=9p==7--|-3-3---3h=5p==3--|-----------------|--------6---||
|-0-0---0-(0)-(0)-|-0-0---0-(0)-(0)-|-5-5---5h=7p==5--|------------||
|-----------------|-----------------|-0-0---0-(0)-(0)-|-----------o||
|-----------------|-----------------|-----------------|------------||

|-----------------|-----------------|-----------------|-------------|
|-----------------|-----------------|-----------------|-x-x-x-x-x-x-|
|-7-7---7h=9p==7--|-3-3---3h=5p==3--|-----------------|-x-x-x-x-x-x-|
|-0-0---0-(0)-(0)-|-0-0---0-(0)-(0)-|-5-5---5h=7p==5--|-x-x-x-x-x-x-|
|-----------------|-----------------|-0-0---0-(0)-(0)-|-x-x-x-x-x-x-|
|-----------------|-----------------|-----------------|-x-x-x-x-x-x-|

|-------------|---------||
|-x-x-x-x-x-x-|---------||
|-x-x-x-x-x-x-|---------||
|-x-x-x-x-x-x-|-2-------||
|-x-x-x-x-x-x-|-2-------||
|-x-x-x-x-x-x-|-0-------||

Outro
8:10
no rhythm provided, just the chords...
||--13-13-13-13-13-12-12-(12)-12-12----|-13-13-13-13-13-12-12-(12)-12-12-----|
||--15-15-15-15-15-15-15-(15)-15-15----|-15-15-15-15-15-15-15-(15)-15-15-----|
||--14-14-14-14-14-14-14-(14)-14-14----|-14-14-14-14-14-14-14-(14)-14-14-----|
||-------------------------------------|-------------------------------------|
||-------------------------------------|-------------------------------------|
||-------------------------------------|-------------------------------------|

|------------------------------------|------------------------------------|
|-14-14-14-14-14-14-14-(14)-14-14----|-14-14-14-14-14-14-14-(14)-14-14----|
|-12-12-12-12-12-12-12-(12)-12-12----|-12-12-12-12-12-12-12-(12)-12-12----|
|-11-11-11-11-11-11-11-(11)-11-11----|-11-11-11-11-11-11-11-(11)-11-11----|
|------------------------------------|------------------------------------|
|------------------------------------|------------------------------------|

|------------------------------------|------------------------------------|
|-10-10-10-10-10-10-10-(10)-10-10----|-11-11-11-11-11-11-11-(11)-11-11----|
|--9--9--9--9--9--9--9--(9)--9--9----|-12-12-12-12-12-12-12-(12)-12-12----|
|------------------------------------|--x--x--x--x--x--x--x---x---x--x----|
|------------------------------------|-13-13-13-13-13-13-13--13--13-13----|
|------------------------------------|------------------------------------|

|--------------------------|---------------------------||
|-5-5-5-5-5-5-5-(5)-5-5----|-5-5-5-5-5-5-5-(5)-5-5-----||
|-6-6-6-6-6-6-6-(6)-6-6----|-6-6-6-6-6-6-6-(6)-6-6-----||
|-5-5-5-5-5-5-5-(5)-5-5----|-5-5-5-5-5-5-5-(5)-5-5-----||
|--------------------------|---------------------------||
|--------------------------|---------------------------||

||--13-13-13-13-13-12-12-(12)-12-12----|-13-13-13-13-13-12-12-(12)-12-12-----|
||--15-15-15-15-15-15-15-(15)-15-15----|-15-15-15-15-15-15-15-(15)-15-15-----|
||--14-14-14-14-14-14-14-(14)-14-14----|-14-14-14-14-14-14-14-(14)-14-14-----|
||-------------------------------------|-------------------------------------|
||-------------------------------------|-------------------------------------|
||-------------------------------------|-------------------------------------|

|------------------------------------|------------------------------------|
|-14-14-14-14-14-14-14-(14)-14-14----|-14-14-14-14-14-14-14-(14)-14-14----|
|-12-12-12-12-12-12-12-(12)-12-12----|-12-12-12-12-12-12-12-(12)-12-12----|
|-11-11-11-11-11-11-11-(11)-11-11----|-11-11-11-11-11-11-11-(11)-11-11----|
|------------------------------------|------------------------------------|
|------------------------------------|------------------------------------|

|------------------------------------|------------------------------------|
|-10-10-10-10-10-10-10-(10)-10-10----|-11-11-11-11-11-11-11-(11)-11-11----|
|--9--9--9--9--9--9--9--(9)--9--9----|-12-12-12-12-12-12-12-(12)-12-12----|
|------------------------------------|--x--x--x--x--x--x--x---x---x--x----|
|------------------------------------|-13-13-13-13-13-13-13--13--13-13----|
|------------------------------------|------------------------------------|

|--------------------------|-------------------------------------|
|-5-5-5-5-5-5-5-(5)-5-5----|-14-14-14-14-14-14-14-(14)-14-14-----|
|-6-6-6-6-6-6-6-(6)-6-6----|-12-12-12-12-12-12-12-(12)-12-12-----|
|-5-5-5-5-5-5-5-(5)-5-5----|-11-11-11-11-11-11-11-(11)-11-11-----|
|--------------------------|-------------------------------------|
|--------------------------|-------------------------------------|

|-13-13-13-13-13-12-12-(12)-12-12----|
|-15-15-15-15-15-15-15-(15)-15-15----|
|-14-14-14-14-14-14-14-(14)-14-14----|
|------------------------------------|
|------------------------------------|
|------------------------------------|


END!!!!
comments
print report bad tab
3 comments total.
+1 reply
Fret and Worry wrote on September 25 2006, 02:55 pm

Awesome... so many songs are a joy to play from this quintesential modern rock album.

0 reply
freedom_dude12 wrote on April 8 2007, 03:20 pm

thx man, make a frances the mute album tab

0 reply
housedimir66 wrote on February 8 2010, 02:01 pm

u truly r a god among men

I want to post or [tab]
guest
You may want to rate the tab now too:
select rating
Please do not post tabs as comments. Select "correction" instead!