Oops, an error
Loading. Please wait.

Take The Highway Tab

ver1
ver1

Whole song

Interactive

More versions @911Tabs.com
3,272 views 39 this week
1 commentread comment
1 2 3 4 5
excellent!
x 3
Autoscroll
+/-
esc
set tempo
stop
Contributor
Difficulty
intermediate
Hey! There's an official Ultimate Guitar app which is ideal
for learning songs when you're away from computer. Get the app
WARNING: You are trying to view
                                    content from Ultimate-Guitar.com
                                    in an unauthorized application,
                                    which is prohibited.

                                    Please use an official Ultimate
                                    Guitar Tabs application for iPhone,
                                    iPad or Android to access legitimate
                                    chords, guitar, bass, and drum tabs
                                    from Ultimate-Guitar.com database.

                                    Type "ultimate guitar tabs" in Apple
                                    App Store's or Android Market's
                                    search to find the application.
------------------------------------------------------------------------------
1.                  Take the Highway-The Marshall Tucker Band
2.                         The Marshall Tucker Band-1973
3.                        Words and Music by Toy Caldwell
------------------------------------------------------------------------------
Tabbed by:Duane Baldwin
E-mail:duaneandjulie@gmail.com

Tuning:Standard

Guitar I (slightly overdriven)

Intro

 Let Ring -------|  Let Ring --|   Let Ring -----|     Play  4 times
e|----------------5------------7--|--------------------3----2-------|
B|------7---------7--------8---8--|--7---7--------7----5----3----3--|
G|--7------7------7-----7------7--|---------7----------5----0----0--|
D|--0---------0------0---------0--|--0---------0-----------------3--|
A|--------------------------------|------------------------------2--|
E|--------------------------------|---------------------------------|

Intro Solo
e|--14--14--14--14\12\10--7--|-----------|
B|---------------------------|----10-----|
G|---------------------------|-----------|
D|---------------------------|-----------|
A|---------------------------|-----------|
E|---------------------------|-----------|

e|---------------------------------------------|--------------------|
B|---------------------------------------------|--------------------|
G|-------------7--7-----7--9br--7-----7--7-----|--7-----------------|
D|-------7--9--------9-------------9--------9--|-----9--7-----7--7--|
A|--7--9---------------------------------------|-----------9--------|
E|---------------------------------------------|--------------------|

1st Verse
 
 Let Ring -------| Let Ring --|     Let Ring -------|                 
e|----------------5------------7--|--------------------3----2-------|
B|------7---------7--------8---8--|--7---7--------7----5----3----3--|
G|--7------7------7-----7------7--|---------7----------5----0----0--|
D|--0---------0------0---------0--|--0---------0-----------------3--|
A|--------------------------------|------------------------------2--|
E|--------------------------------|---------------------------------|

 Let Ring -------|Let Ring --|  
e|----------------5------------7--|--------------------------------|
B|------7---------7--------8---8--|--------------------------------|
G|--7------7------7-----7------7--|--------------7--7-----7-----7--|
D|--0---------0------0---------0--|--------7--9--------9-----9-----|
A|--------------------------------|--7--9--------------------------|
E|--------------------------------|--------------------------------|


 Let Ring -------| Let Ring --|    Let Ring -------|                 
e|----------------5------------7--|--------------------3----2-------|
B|------7---------7--------8---8--|--7---7--------7----5----3----3--|
G|--7------7------7-----7------7--|---------7----------5----0----0--|
D|--0---------0------0---------0--|--0---------0-----------------3--|
A|--------------------------------|------------------------------2--|
E|--------------------------------|---------------------------------|

 Let Ring -------|   Let Ring --|   Let Ring ------|                
e|----------------5------------7--|--------------------3----2-------|
B|------7---------7--------8---8--|--7---7--------7----5----3----3--|
G|--7------7------7-----7------7--|---------7----------5----0----0--|
D|--0---------0------0---------0--|--0---------0-----------------3--|
A|--------------------------------|------------------------------2--|
E|--------------------------------|---------------------------------|

 1st Chorus
e|--3----3----3----2----2--|-------3---------3--|-------3----3----3----3--|
B|--3----3----3----3----3--|-------3---------3--|-------3----3----3----3--|
G|--0----0----0----2----2--|-------0---------0--|-------0----3----3----3--|
D|--0----0----0----0----0--|-------2---------0--|-------0----0----0----0--|
A|--2----2-----------------|--3----3----2----2--|--1----1-----------------|
E|--3----3-----------------|--------------------|-------------------------|

e|--2--------------------------|
B|--3--------------------------|
G|--2------------------9br--7--|
D|--0---------7--9--7----------|
A|------6/9--------------------|
E|-----------------------------|

Intro Reprise
 
 Let Ring -------|  Let Ring -|     Let Ring ------|                
e|------------5---5------------7--|--------------------3----2-------|
B|------7---------7--------8---8--|--7---7--------7----5----3----3--|
G|--7------7------7-----7------7--|---------7----------5----0----0--|
D|--0----------------0---------0--|--0---------0-----------------3--|
A|--------------------------------|------------------------------2--|
E|--------------------------------|---------------------------------|


 Let Ring -------|  Let Ring -|     Let Ring -------|                
e|------------5---5------------7--|--------------------3----2-------|
B|------7---------7--------8---8--|--7---7--------7----5----3----3--|
G|--7------7------7-----7------7--|---------7----------5----0----0--|
D|--0----------------0---------0--|--0---------0-----------------3--|
A|--------------------------------|------------------------------2--|
E|--------------------------------|---------------------------------|

2nd Verse

  Let Ring ------|  Let Ring -| 
e|------------5---5------------7--|-----------------------------------|
B|------7---------7--------8---8--|-----------------------------------|
G|--7------7------7-----7------7--|--------------7--7-----7-----7--7--|
D|--0----------------0---------0--|--------7--9--------9-----9--------|
A|--------------------------------|--7--9-----------------------------|
E|--------------------------------|-----------------------------------|

 Let Ring -------| Let Ring --|    Let Ring --------|                
e|------------5---5------------7--|--------------------3----2-------|
B|------7---------7--------8---8--|--7---7--------7----5----3----3--|
G|--7------7------7-----7------7--|---------7----------5----0----0--|
D|--0----------------0---------0--|--0---------0-----------------3--|
A|--------------------------------|------------------------------2--|
E|--------------------------------|---------------------------------|

 Let Ring -------| Let Ring --|    Let Ring --------|                
e|------------5---5------------7--|--------------------3----2-------|
B|------7---------7--------8---8--|--7---7--------7----5----3----3--|
G|--7------7------7-----7------7--|---------7----------5----0----0--|
D|--0----------------0---------0--|--0---------0-----------------3--|
A|--------------------------------|------------------------------2--|
E|--------------------------------|---------------------------------|

 Let Ring -------| Let Ring --|    Let Ring --------|                
e|------------5---5------------7--|--------------------3----2-------|
B|------7---------7--------8---8--|--7---7--------7----5----3----3--|
G|--7------7------7-----7------7--|---------7----------5----0----0--|
D|--0----------------0---------0--|--0---------0-----------------3--|
A|--------------------------------|------------------------------2--|
E|--------------------------------|---------------------------------|

2nd Chorus

e|--3----3----3----2----2--|-------3---------3--|-------3----3----3----3--|
B|--3----3----3----3----3--|-------3---------3--|-------3----3----3----3--|
G|--0----0----0----2----2--|-------0---------0--|-------0----3----3----3--|
D|--0----0----0----0----0--|-------2---------0--|-------0----0----0----0--|
A|--2----2-----------------|--3----3----2----2--|--1----1-----------------|
E|--3----3-----------------|--------------------|-------------------------|

e|----2----|
B|----3----|
G|----2----|
D|----0----|
A|---------|
E|---------|


Flute solo (Played 13 times)

 P.M.--------|         P.M.---|         P.M.--------|      P.M.---|
e|-------------------------------------|-------------------------------------|
B|-------------------------------------|-------------------------------------|
G|-------------------------------------|-------------------------------------|
D|--------------3----------------3-----|--------------3----------------3-----|
A|--3--5--5--5-----5----0--3--5-----5--|--3--5--5--5-----5----0--3--5-----5--|
E|-------------------------------------|-------------------------------------|

Main Solo
e|---------------|-------------|---------------------------------------------|
B|---------------|-------------|---------------------------------------------|
G|--9b-----7-----|---7---------|-----7--9--7--9br--7-----7--7-----7--7-----7-|
D|------------9--|--------9----|--9-------------------9--------9--------9----|
A|---------------|-------------|---------------------------------------------|
E|---------------|-------------|---------------------------------------------|

e|--------------------------|------------------------------------------------|
B|--------------------------|-10b--10--9--8------8---------------------------|
G|--10--9--7-----7--7--7--7-|----------------10-----10--9--7--10p9p7-----7---|
D|------------9-------------|-----------------------------------------9------|
A|--------------------------|-----------------------------------------------8|
E|--------------------------|------------------------------------------------|

e|--------------------------------|------------------------------------------|
B|--------------------------------|------------------------------------------|
G|----7--9-----7--7-----7--9b--9b-|-9p7-----7--7-----7--9br--7-----7--7-----7|
D|----------9--------9------------|------9--------9-------------9--------9---|
A|-9------------------------------|------------------------------------------|
E|--------------------------------|------------------------------------------|

e|------------------------------|-----------7----------------------|
B|------------------------------|--10b--10-------------------------|
G|--7-----7------------7--7--7--|--------------9br--7-----7--7-----|
D|-----9-----9--7---------------|----------------------9--------9--|
A|------------------------------|----------------------------------|
E|------------------------------|----------------------------------|

e|---------------------------------------------------|
B|-10b--10--9--8------8------------------------------|
G|----------------10-----10--9--7--10p9p7-----7------|
D|-----------------------------------------9------9--|
A|---------------------------------------------------|
E|---------------------------------------------------|

e|-----------7----------------------|------------------------------------|
B|--10b--10-------------------------|------------------------------------|
G|--------------9br--7-----7--7-----|--7--9br--7-----7--7-----7--7-------|
D|----------------------9--------9--|-------------9--------9-------------|
A|----------------------------------|-------------------------------5/9--|
E|----------------------------------|------------------------------------|


e|------------------------------------------|--------------------------------|
B|------------------------------------------|--------------------------------|
G|-------7--7-----7--9b--7--9p7-----7--7----|-7--7-----7--7-----9b--------7-9|
D|-7--9--------9-----------------9--------9-|-------9--------9------7--9-----|
A|------------------------------------------|--------------------------------|
E|------------------------------------------|--------------------------------|

e|------------------------------------------|--------------------------------|
B|------------------------------------------|-------------------------15--17-|
G|--7--10b--7-----7--7-----7--9br--7-----7--|-----7--7--7------12/16---------|
D|-------------9--------9-------------9-----|--9-----------9-----------------|
A|------------------------------------------|--------------------------------|
E|------------------------------------------|--------------------------------|

e|---------------------------------------------------|-----------------------|
B|--17b--17b--17b--17br--15--17------15--15------15--|--15--15--17b--17b--17b|
G|-------------------------------16----------16------|-----------------------|
D|---------------------------------------------------|-----------------------|
A|---------------------------------------------------|-----------------------|
E|---------------------------------------------------|-----------------------|

e|-------------------------------------------|-17b-------------17b-----------|
B|-17br--15--17------15------15-15------15-15|------17b--15-15------17b-15---|
G|---------------16------16---------16-------|----------------------------16\|
D|-------------------------------------------|-------------------------------|
A|-------------------------------------------|-------------------------------|
E|-------------------------------------------|-------------------------------|

e|--17b--------------------------------------------|--17b---------------17b--|
B|-------17b--15------15--17b--15--17------15------|-------17b--15-----------|
G|----------------16-------------------16------16--|----------------16-------|
D|-------------------------------------------------|--------------|
A|-------------------------------------------------|--------------|
E|-------------------------------------------------|--------------|

e|--17b---------------17b---------------|--17b----------------------------|
B|-------17b--15-----------17b--15------|-------17b--15----15----15-------|
G|----------------16----------------16--|---------------------------------|
D|--------------------------------------|---------------------------------|
A|--------------------------------------|---------------------------------|
E|--------------------------------------|---------------------------------|

e|---------------------------------------------------------|
B|---------15---------15---------15---------15---------15--|
G|---------------------------------------------------------|
D|--15/16------15/16------15/16------15/16------15/16------|
A|---------------------------------------------------------|
E|---------------------------------------------------------|

e|---------------------------------------------------------|
B|---------15---------15---------15---------15---------15--|
G|---------------------------------------------------------|
D|--15/16------15/16------15/16------15/16------15/16------|
A|---------------------------------------------------------|
E|---------------------------------------------------------|


e|--------------------------------------------------------------------|
B|---------15---------15---------15---------15---------15---------15--|
G|--------------------------------------------------------------------|
D|--15/16------15/16------15/16------15/16------15/16------15/16------|
A|--------------------------------------------------------------------|
E|--------------------------------------------------------------------|

e|-------------------------------------17b--17b--|
B|---------15--15--15--15--15--17--15------------|
G|-----------------------------------------------|
D|--15/16----------------------------------------|
A|-----------------------------------------------|
E|-----------------------------------------------|

e|--17b--17b--17b--17br--17--16--15--14h15--|
B|------------------------------------------|
G|------------------------------------------|
D|------------------------------------------|
A|------------------------------------------|
E|------------------------------------------|

e|-14----------------------14--15--16--17------------|
B|-----17--15--17------15------------------17br--15--|
G|-----------------16--------------------------------|
D|---------------------------------------------------|
A|---------------------------------------------------|
E|---------------------------------------------------|

e|--14--15--16--17---------------------------------------------|
B|------------------17br--15--15--17b--15--17------15--17--15--|
G|---------------------------------------------16--------------|
D|-------------------------------------------------------------|
A|-------------------------------------------------------------|
E|-------------------------------------------------------------|

e|----------|-------------------------|------------------|
B|----------|-------------------------|------------------|
G|----9b----|--9p7-----7--7-----7--7--|-----7-----7--9b--|
D|----------|-------9--------9--------|--9-----9---------|
A|----------|-------------------------|------------------|
E|----------|-------------------------|------------------|

e|-----------------------------|
B|-----------------------------|
G|--7-----7--------------------|
D|-----9-----9--7-----7--9--7--|
A|-----------------9-----------|
E|-----------------------------|


Reprise of flute solo intro
 
 P.M.--------|         P.M.---|          P.M.--------|      P.M.---|
e|-------------------------------------|-------------------------------------|
B|-------------------------------------|-------------------------------------|
G|-------------------------------------|-------------------------------------|
D|--------------3----------------3-----|--------------3----------------3-----|
A|--3--5--5--5-----5----0--3--5-----5--|--3--5--5--5-----5----0--3--5-----5--|
E|-------------------------------------|-------------------------------------|

 P.M.--------|         P.M.---|          P.M.--------|      P.M.---|
e|-------------------------------------|-------------------------------------|
B|-------------------------------------|-------------------------------------|
G|-------------------------------------|-------------------------------------|
D|--------------3----------------3-----|--------------3----------------3-----|
A|--3--5--5--5-----5----0--3--5-----5--|--3--5--5--5-----5----0--3--5-----5--|
E|-------------------------------------|-------------------------------------|

Inro reprise

 Let Ring -------| Let Ring --|     Let Ring -----|                 
e|----------------5------------7--|--------------------3----2-------|
B|------7---------7--------8---8--|--7---7--------7----5----3----3--|
G|--7------7------7-----7------7--|---------7----------5----0----0--|
D|--0---------0------0---------0--|--0---------0-----------------3--|
A|--------------------------------|------------------------------2--|
E|--------------------------------|---------------------------------|

Let Ring -------|   Let Ring -|         
e|----------------5------------7--|-----------------------------------|
B|------7---------7--------8---8--|-----------------------------------|
G|--7------7------7-----7------7--|--------------7--7-----7-----7--7--|
D|--0---------0------0---------0--|--------7--9--------9-----9--------|
A|--------------------------------|--7--9-----------------------------|
E|--------------------------------|-----------------------------------|

3rd Verse
  
Let Ring -------|  Let Ring -|      Let Ring -----|                
e|------------5---5------------7--|--------------------3----2-------|
B|------7---------7--------8---8--|--7---7--------7----5----3----3--|
G|--7------7------7-----7------7--|---------7----------5----0----0--|
D|--0----------------0---------0--|--0---------0-----------------3--|
A|--------------------------------|------------------------------2--|
E|--------------------------------|---------------------------------|

Let Ring -------|  Let Ring --| 
e|------------5---5------------7--|-------------------------------------|
B|------7---------7--------8---8--|-------------------------------------|
G|--7------7------7-----7------7--|--------------7--9br--7-----7-----7--|
D|--0----------------0---------0--|--------7--9-------------9-----9-----|
A|--------------------------------|--7--9-------------------------------|
E|--------------------------------|-------------------------------------|


Let Ring -------|   Let Ring-|     Let Ring -------|                
e|------------5---5------------7--|--------------------3----2-------|
B|------7---------7--------8---8--|--7---7--------7----5----3----3--|
G|--7------7------7-----7------7--|---------7----------5----0----0--|
D|--0----------------0---------0--|--0---------0-----------------3--|
A|--------------------------------|------------------------------2--|
E|--------------------------------|---------------------------------|

Let Ring -------|  Let Ring --|    Let Ring -------|                
e|------------5---5------------7--|--------------------3----2-------|
B|------7---------7--------8---8--|--7---7--------7----5----3----3--|
G|--7------7------7-----7------7--|---------7----------5----0----0--|
D|--0----------------0---------0--|--0---------0-----------------3--|
A|--------------------------------|------------------------------2--|
E|--------------------------------|---------------------------------|

3rd  Chorus
e|--3----3----3----2----2--|-------3---------3--|-------3----3----3----3--|
B|--3----3----3----3----3--|-------3---------3--|-------3----3----3----3--|
G|--0----0----0----2----2--|-------0---------0--|-------0----3----3----3--|
D|--0----0----0----0----0--|-------2---------0--|-------0----0----0----0--|
A|--2----2-----------------|--3----3----2----2--|--1----1-----------------|
E|--3----3-----------------|--------------------|-------------------------|

e|--2--------------------------|
B|--3--------------------------|
G|--2------------------9br--7--|
D|--0---------7--9--7----------|
A|------6/9--------------------|
E|-----------------------------|

Outro chorus

Let Ring -------|  Let Ring --|    Let Ring -----|                
e|------------5---5------------7--|--------------------3----2-------|
B|------7---------7--------8---8--|--7---7--------7----5----3----3--|
G|--7------7------7-----7------7--|---------7----------5----0----0--|
D|--0----------------0---------0--|--0---------0-----------------3--|
A|--------------------------------|------------------------------2--|
E|--------------------------------|---------------------------------|

Let Ring -------|  Let Ring --|    Let Ring -----|                
e|------------5---5------------7--|--------------------3----2-------|
B|------7---------7--------8---8--|--7---7--------7----5----3----3--|
G|--7------7------7-----7------7--|---------7----------5----0----0--|
D|--0----------------0---------0--|--0---------0-----------------3--|
A|--------------------------------|------------------------------2--|
E|--------------------------------|---------------------------------|

Let Ring -------|  Let Ring --|              
e|------------5---5------------7--|--14--14--14--14--14\12--12\10--10--7--10-|
B|------7---------7--------8---8--|------------------------------------------|
G|--7------7------7-----7------7--|------------------------------------------|
D|--0----------------0---------0--|------------------------------------------|
A|--------------------------------|------------------------------------------|
E|--------------------------------|------------------------------------------|

Let Ring -------|  Let Ring --| 
e|------------5---5------------7--|-------------------------------------|
B|------7---------7--------8---8--|-------------------------------------|
G|--7------7------7-----7------7--|--------------7--9br--7-----7-----7--|
D|--0----------------0---------0--|--------7--9-------------9-----9-----|
A|--------------------------------|--7--9-------------------------------|
E|--------------------------------|-------------------------------------|

Let Ring -------|  Let Ring --| 
e|------------5---5------------7--|------------------------------------------|
B|------7---------7--------8---8--|--------15-17------15-17br-15-----15----15|
G|--7------7------7-----7------7--|-12/16---------16--------------16----16---|
D|--0----------------0---------0--|------------------------------------------|
A|--------------------------------|------------------------------------------|
E|--------------------------------|------------------------------------------|

Let Ring -------|  Let Ring -|     Let Ring -----|                
e|------------5---5------------7--|--------------------3----2-------|
B|------7---------7--------8---8--|--7---7--------7----5----3----3--|
G|--7------7------7-----7------7--|---------7----------5----0----0--|
D|--0----------------0---------0--|--0---------0-----------------3--|
A|--------------------------------|------------------------------2--|
E|--------------------------------|---------------------------------|

Chorus reprise

e|--3----3----3----2----2--|-------3---------3--|-------3----3----3----3--|
B|--3----3----3----3----3--|-------3---------3--|-------3----3----3----3--|
G|--0----0----0----2----2--|-------0---------0--|-------0----3----3----3--|
D|--0----0----0----0----0--|-------2---------0--|-------0----0----0----0--|
A|--2----2-----------------|--3----3----2----2--|--1----1-----------------|
E|--3----3-----------------|--------------------|-------------------------|

Outro

  Trill chords
e|----2----|----3-----|----3-----|----3-----|
B|----3----|----3-----|----3-----|----3-----|
G|----2----|----0-----|----0-----|----3-----|
D|----0----|----2-----|----0-----|----0-----|
A|---------|----3-----|----2-----|----1-----|
E|---------|----------|----------|----------|

e|----------------------------------------------------------------|
B|--------------------------------8--7----------------------------|
G|--7--7--7--7--7--7--7--7--7--7--7--7--7--7--7--7--7--7--7--7----|
D|--7--7--7--7--7--7--7--7--7--7--7--7--7--7--7--7--7--7--7--7----|
A|--5--5--5--5--5--5--5--5--5--5--5--5--5--5--5--5--5--5--5--5----|
E|----------------------------------------------------------------|

e|------------------------------------------------------------------------|
B|-----------------------------------------10--9--------------------------|
G|--7--7--7--9--9--9--9--9--9--9--9--9--9--9---9--9--9--9--9--9--9--9--9--|
D|--7--7--7--9--9--9--9--9--9--9--9--9--9--9---9--9--9--9--9--9--9--9--9--|
A|--5--5--5--7--7--7--7--7--7--7--7--7--7--7---7--7--7--7--7--7--7--7--7--|
E|------------------------------------------------------------------------|

e|------------------------------------------------------------------------|
B|-----------------------------------------11-10--------------------------|
G|--9--9--9--10-10-10-10-10-10-10-10-10-10-10-10-10-10-10-10-10-10-10-10--|
D|--9--9--9--10-10-10-10-10-10-10-10-10-10-10-10-10-10-10-10-10-10-10-10--|
A|--7--7--7--8--8--8--8--8--8--8--8--8--8--8--8--8--8--8--8--8--8--8--8---|
E|------------------------------------------------------------------------| 

e|-------------------------------------------------------------------|
B|-------------------------------------------------------------------|
G|--10-10--7--------------7--9br--7--9p7-----9p7-----9p7-----9br--7--|
D|--10-10--7--------7--9------------------9-------9-------9----------|
A|--8--8---5--7--9---------------------------------------------------|
E|-------------------------------------------------------------------|

e|------------------------------|--------------------|
B|------------------------------|--------------------|
G|---------------------------7--|--------------------|
D|--9--9p7-----9p7-----7--9-----|--9p7---------------|
A|----------9-------9-----------|-------9--9--7---5--|
E|------------------------------|--------------------|


Guitar II (slight Overdrive)

Intro
e|----2-----|---------|-----2-----|----------|
B|----3-----|---------|-----3-----|----------|
G|----2-----|---------|-----2-----|----------|
D|----0-----|---------|-----0-----|----------|
A|----------|---------|-----------|----------|
E|----------|---------|-----------|----------|

  Let Ring -------------|     Let Ring --|     Play 4 times
e|----------0h2-----------7--|----------0h2----3----2-------|
B|------------3--------8--8--|------------3----3----3----3--|
G|-----0h2----2-----7-----7--|-----0h2----2----0----2----0--|
D|--0---------0--0--------0--|--0---------0----0----0----2--|
A|---------------------------|-----------------2---------3--|
E|---------------------------|-----------------3------------|

1st Verse

  Let Ring -------------|     Let Ring --|     Play 4 times
e|----------0h2-----------7--|----------0h2----3----2-------|
B|------------3--------8--8--|------------3----3----3----3--|
G|-----0h2----2-----7-----7--|-----0h2----2----0----2----0--|
D|--0---------0--0--------0--|--0---------0----0----0----2--|
A|---------------------------|-----------------2---------3--|
E|---------------------------|-----------------3------------|

1st Chorus

e|--3----3----3----2----2--|--3---3---3---3---3---3--|--3---3---3---3---3---3|
B|--3----3----3----3----3--|--3---3---3---3---3---3--|--3---3---3---3---3---3|
G|--0----0----0----2----2--|--0---0---0---0---0---0--|--3---0---3---3---3---3|
D|--0----0----0----0----0--|--2---2---2---0---0---0--|--0---0---0---0---0---0|
A|--2----2----2------------|--3---3---3---2---2---2--|--1---1---1------------|
E|--3----3----3------------|-------------------------|-----------------------|

e|----2----|
B|----3----|
G|----2----|
D|----0----|
A|---------|
E|---------|

Intro Reprise

  Let Ring -------------|     Let Ring --|     Play 2 times
e|----------0h2-----------7--|----------0h2----3----2-------|
B|------------3--------8--8--|------------3----3----3----3--|
G|-----0h2----2-----7-----7--|-----0h2----2----0----2----0--|
D|--0---------0--0--------0--|--0---------0----0----0----2--|
A|---------------------------|-----------------2---------3--|
E|---------------------------|-----------------3------------|

2nd Verse

  Let Ring -------------|     Let Ring --|     Play 4 times
e|----------0h2-----------7--|----------0h2----3----2-------|
B|------------3--------8--8--|------------3----3----3----3--|
G|-----0h2----2-----7-----7--|-----0h2----2----0----2----0--|
D|--0---------0--0--------0--|--0---------0----0----0----2--|
A|---------------------------|-----------------2---------3--|
E|---------------------------|-----------------3------------|

2nd Chorus

e|--3----3----3----2----2--|--3---3---3---3---3---3--|--3---3---3---3---3---3|
B|--3----3----3----3----3--|--3---3---3---3---3---3--|--3---3---3---3---3---3|
G|--0----0----0----2----2--|--0---0---0---0---0---0--|--3---0---3---3---3---3|
D|--0----0----0----0----0--|--2---2---2---0---0---0--|--0---0---0---0---0---0|
A|--2----2----2------------|--3---3---3---2---2---2--|--1---1---1------------|
E|--3----3----3------------|-------------------------|-----------------------|

e|----2----|
B|----3----|
G|----2----|
D|----0----|
A|---------|
E|---------|

Flute solo
                                
  Play 3 times
e|--------------------------------------|
B|-----------x--6-----x--------x--6-----|
G|--5--7--7--x--5--7--x--5--7--x--5--7--|
D|--5--7--7--x-----7--x--5--7--x-----7--|
A|--------------------------------------|
E|--------------------------------------|

e|--------------------------------------|
B|--7--x--7--7--x--7--7--x--7--x--6-----|
G|--7--x--7--7--x--7--7--x--7--x--5--7--|
D|--7--x--7--7--x--7--7--x--7--x--0--7--|
A|--------------------------------------|
E|--------------------------------------|

  Play 19 times
e|--------------------------------------|
B|-----------x--6-----x--------x--6-----|
G|--5--7--7--x--5--7--x--5--7--x--5--7--|
D|--5--7--7--x-----7--x--5--7--x-----7--|
A|--------------------------------------|
E|--------------------------------------|

e|--------------------------------|
B|-----------x--6--------6----6---|
G|--5--7--7--x--5--7-----5----5---|
D|--5--7--7--x-----7--------------|
A|--------------------------------|
E|--------------------------------|

e|--------------------------------------|
B|-----------x--6-----x--------x--6-----|
G|--5--7--7--x--5--7--x--5--7--x--5--7--|
D|--5--7--7--x-----7--x--5--7--x-----7--|
A|--------------------------------------|
E|--------------------------------------|

e|----------------------------------------------------|
B|-----------x--6--------6----6----6-----6----6----6--|
G|--5--7--7--x--5--7-----5----5----5-----5----5----5--|
D|--5--7--7--x-----7----------------------------------|
A|----------------------------------------------------|
E|----------------------------------------------------|

Main Solo
                                                                Play 13 times
e|-------------------------------------|-------------------------------------|
B|--x---7---x---5/7---x---7---x---5/7--|--x---7---x---5/7---x---7---x---5/7--|
G|--x---7---x---5/7---x---7---x---5/7--|--x---7---x---5/7---x---7---x---5/7--|
D|--x---7---x---5/7---x---7---x---5/7--|--x---7---x---5/7---x---7---x---5/7--|
A|--x-------x---------x-------x--------|--x-------x---------x-------x--------|
E|-------------------------------------|-------------------------------------|

                                    Play 3 times
e|-----------------------------------------------|
B|--x--7--x--7--x--7--x--7--x--7--x--7--x--7--x--|
G|--x--7--x--7--x--7--x--7--x--7--x--7--x--7--x--|
D|--x--7--x--7--x--7--x--7--x--7--x--7--x--7--x--|
A|-----------------------------------------------|
E|-----------------------------------------------|

                                                                              Play 4 times
e|-------------------------------------|-------------------------------------|
B|--x---7---x---5/7---x---7---x---5/7--|--x---7---x---5/7---x---7---x---5/7--|
G|--x---7---x---5/7---x---7---x---5/7--|--x---7---x---5/7---x---7---x---5/7--|
D|--x---7---x---5/7---x---7---x---5/7--|--x---7---x---5/7---x---7---x---5/7--|
A|--x-------x---------x-------x--------|--x-------x---------x-------x--------|
E|-------------------------------------|-------------------------------------|

Reprise of flute solo intro

                           Play 3 times
e|--------------------------------------|
B|-----------x--6-----x--------x--6-----|
G|--5--7--7--x--5--7--x--5--7--x--5--7--|
D|--5--7--7--x-----7--x--5--7--x-----7--|
A|--------------------------------------|
E|--------------------------------------|

e|--------------------------------------|
B|--7--x--7--7--x--7--7--x--7--x--6-----|
G|--7--x--7--7--x--7--7--x--7--x--5--7--|
D|--7--x--7--7--x--7--7--x--7--x--0--7--|
A|--------------------------------------|
E|--------------------------------------|

Intro reprise

e|----2-----|---------|
B|----3-----|---------|
G|----2-----|---------|
D|----0-----|---------|
A|----------|---------|
E|----------|---------|


  Let Ring -------------|     Let Ring --|     
e|----------0h2-----------7--|----------0h2----3----2-------|
B|------------3--------8--8--|------------3----3----3----3--|
G|-----0h2----2-----7-----7--|-----0h2----2----0----2----0--|
D|--0---------0--0--------0--|--0---------0----0----0----2--|
A|---------------------------|-----------------2---------3--|
E|---------------------------|-----------------3------------|


3rd Verse

  Let Ring -------------|     Let Ring --|      play 4 time   
e|----------0h2-----------7--|----------0h2----3----2-------|
B|------------3--------8--8--|------------3----3----3----3--|
G|-----0h2----2-----7-----7--|-----0h2----2----0----2----0--|
D|--0---------0--0--------0--|--0---------0----0----0----2--|
A|---------------------------|-----------------2---------3--|
E|---------------------------|-----------------3------------|

3rd chorus

e|--3----3----3----2----2--|--3---3---3---3---3---3--|--3---3---3---3---3---3|
B|--3----3----3----3----3--|--3---3---3---3---3---3--|--3---3---3---3---3---3|
G|--0----0----0----2----2--|--0---0---0---0---0---0--|--3---0---3---3---3---3|
D|--0----0----0----0----0--|--2---2---2---0---0---0--|--0---0---0---0---0---0|
A|--2----2----2------------|--3---3---3---2---2---2--|--1---1---1------------|
E|--3----3----3------------|-------------------------|-----------------------|

e|----2----|
B|----3----|
G|----2----|
D|----0----|
A|---------|
E|---------|

Outro chorus

  Let Ring -------------|     Let Ring --|      play 6 times   
e|----------0h2-----------7--|----------0h2----3----2-------|
B|------------3--------8--8--|------------3----3----3----3--|
G|-----0h2----2-----7-----7--|-----0h2----2----0----2----0--|
D|--0---------0--0--------0--|--0---------0----0----0----2--|
A|---------------------------|-----------------2---------3--|
E|---------------------------|-----------------3------------|

Chorus Reprise

e|--3----3----3----2----2--|--3---3---3---3---3---3--|--3---3---3---3---3---3|
B|--3----3----3----3----3--|--3---3---3---3---3---3--|--3---3---3---3---3---3|
G|--0----0----0----2----2--|--0---0---0---0---0---0--|--3---0---3---3---3---3|
D|--0----0----0----0----0--|--2---2---2---0---0---0--|--0---0---0---0---0---0|
A|--2----2----2------------|--3---3---3---2---2---2--|--1---1---1------------|
E|--3----3----3------------|-------------------------|-----------------------|

e|----2----|
B|----3----|
G|----2----|
D|----0----|
A|---------|
E|---------|

Outro

  Trill chords
e|----2----|----3-----|----3-----|----3-----|
B|----3----|----3-----|----3-----|----3-----|
G|----2----|----0-----|----0-----|----3-----|
D|----0----|----2-----|----0-----|----0-----|
A|---------|----3-----|----2-----|----1-----|
E|---------|----------|----------|----------|

e|--2--2--2--2--2--2--2--2--2--2--3--2--2--2--2--2--2--2--2--2--|
B|--3--3--3--3--3--3--3--3--3--3--3--3--3--3--3--3--3--3--3--3--|
G|--2--2--2--2--2--2--2--2--2--2--2--2--2--2--2--2--2--2--2--2--|
D|--0--0--0--0--0--0--0--0--0--0--0--0--0--0--0--0--0--0--0--0--|
A|--------------------------------------------------------------|
E|--------------------------------------------------------------|

e|--2--2--2--4--4--4--4--4--4--4--4--4--4--5--4--4--4--4--4--4--4--4--4--|
B|--3--3--3--5--5--5--5--5--5--5--5--5--5--5--5--5--5--5--5--5--5--5--5--|
G|--2--2--2--4--4--4--4--4--4--4--4--4--4--4--4--4--4--4--4--4--4--4--4--|
D|--0--0--0--------------------------------------------------------------|
A|-----------------------------------------------------------------------|
E|-----------------------------------------------------------------------|

e|--4--4--4--5--5--5--5--5--5--5--5--5--5--6--5--5--5--5--5--5--5--5--5--|
B|--5--5--5--6--6--6--6--6--6--6--6--6--6--6--6--6--6--6--6--6--6--6--6--|
G|--4--4--4--5--5--5--5--5--5--5--5--5--5--5--5--5--5--5--5--5--5--5--5--|
D|-----------------------------------------------------------------------|
A|-----------------------------------------------------------------------|
E|-----------------------------------------------------------------------|

e|--5--5---2--|
B|--6--6---3--|
G|--5--5---2--|
D|---------0--|
A|------------|
E|------------|


************************************

| /   slide up
| \   slide down
| h   hammer-on
| p   pull-off
| ~   vibrato
| +   harmonic
| x   Mute note
| b   Bend
| pb  Pre-bend
| br  Bend release
| pbr Pre-bend release
| brb Bend release bend

************************************
Intro

D  G  D  G  D Cadd9

D  G  D  G  D Cadd9

D  G  D  G  D Cadd9

D  G  D  G  D Cadd9

D  G  D  G  D Cadd9

D  G  D  G  D Cadd9

1st Verse

Cadd9         D  G  D  G  D Cadd9
Take the highway 

D            G                  D  G  D Cadd9
Lord knows I've been gone too long 

         D        G  D  G  D Cadd9
lots of sad days 

     D              G                    D  G  D Cadd9
one day you'll turn around and I'll be gone 

1st Chorus

        G                D
and the time has finally come 

    Cadd9          Gm/B          Gm/Bb
for me to pack my bags and walk away 

         D
hear me say 


Inro Reprise

D  G  D  G  D Cadd9

D  G  D  G  D Cadd9

2nd Verse

        D     G       D  G  D Cadd9
I'll be back some day 

     D                  G                  D  G  D Cadd9
but darlin please don't wait for me too long 

          D    G       D        G  D Cadd9
there is one place I can't stay 

D                G                  D  G  D Cadd9
memories of your love still linger on 


2nd Chorus

        G                D
and the time has finally come 

    Cadd9          Gm/B          Gm/Bb
for me to pack my bags and walk away 

         D
hear me say 

Flute solo

C  D  E  D

C  D  E  D

C  D  E  D

D  E  D

C  D  E  D  E 22 times

Guitar solo

D  Asus  D  Asus  play 20 times

Reprise of flute solo intro

C  D  E  D

C  D  E  D

C  D  E  D

C  D  E  D

Intro Reprise

D  G  D  G  D Cadd9

D  G  D  G  D Cadd9

3rd Verse

        D     G        D  G  D Cadd9
I'll be back some day 

     D                  G                  D  G  D Cadd9
but darlin please don't wait for me too long 

          D   G         D         G  D Cadd9
there is one place  I can't stay 

D                 G                 D  G  D Cadd9
memories of your love still linger on 

3rd Chorus

        G                D
and the time has finally come 

    Cadd9          Gm/B          Gm/Bb
for me to pack my bags and walk away 

         D
hear me say 

Chrous outro

D  G  D  G  D 
 
Cadd9    D       G  D  G  D Cadd9   
Take the highway   

Cadd9    D       G  D  G  D Cadd9   
Take the highway   

Cadd9    D       G  D  G  D Cadd9   
Take the highway   

Cadd9    D       G  D  G  D Cadd9   
Take the highway   

Chorus reprise

        G                D
and the time has finally come 

    Cadd9          Gm/B          Gm/Bb
for me to pack my bags and walk away 

         D
hear me say 

Outro

Cadd9  Gm/B  Gm/Bb

D  Dsus  D

E  Esus  E

F  Fsus  F  

D
comments
We did not receive enough feedback on this tab! Please rate:
print report bad tab
1 2 3 4 5
1 comment total.
0 reply
donnienix34 wrote on December 10 2014, 01:55 pm

Oh yeah that's it. Well done.

I want to post or [tab]
guest
You may want to rate the tab now too:
select rating
Please do not post tabs as comments. Select "correction" instead!