Oops, an error
Loading. Please wait.

Sacred Place Chords

679 views 3 this week
3 commentsread comments
1 2 3 4 5
please rate
Autoscroll
+/-
esc
set tempo
stop
Contributor
Difficulty
Tuning
novice
C# G# C# F# A# D#
Hey! There's an official Ultimate Guitar app which is ideal
for learning songs when you're away from computer. Get the app
WARNING: You are trying to view
                                    content from Ultimate-Guitar.com
                                    in an unauthorized application,
                                    which is prohibited.

                                    Please use an official Ultimate
                                    Guitar Tabs application for iPhone,
                                    iPad or Android to access legitimate
                                    chords, guitar, bass, and drum tabs
                                    from Ultimate-Guitar.com database.

                                    Type "ultimate guitar tabs" in Apple
                                    App Store's or Android Market's
                                    search to find the application.
Mason Jennings- Sacred Place

Tuning: Db Ab Db Gb Bb Eb

Intro: D                Em       G
       
       -----2-0-2-------0--0-0---3--3-3-----|
       -----3-3-3- 3-0--0--0-0---0--0-0-----|
       -----2-2-2- 2-0--0--0-0---0--0-0-----|
       -0-0------ -0-0--2- 2-2---0--0-0-----|
       -0-0-------------2--2-2---5--5-5-----|
       -0-0-------------2--2-2---5--5-5-----|  (3x)


* E = Eight note  , S= Sixthenth note

Verse: Strum the same Chords, every chord in that rhythm: E S S
  D
I'm going to a place
Em                    G
Thoughts can't follow me
Down to a quiet space
Where my mind is free
Free from all suffering
Free from my own name
And when I'm there I know
We are all the same

Solo:  E  S  SS  S S S  S S  S   S   Q
       ---------------------------------------|
       ---------------------------------------|
       ------2p0------------------------------|
       -0--0-----4-2p0--2 sl-4--2 0-----------|
       -0---------------2-------------2-------|
       -0---------------2-------------5-------| 2x

I'm going to a place
Older than the sun
Darkness within itself
Where we all come from
Death has no power here
Love is all there is
Darkness within itself
Do you remember this

Intro: 2x

Chorus:(guitar same as in the verse)
Remember, remember
It has always been
The kingdom, the kingdom
Of God lies within
Hold to the center
Beyond time and space
Gotta find a sacred place
Everybody's got a sacred place
Gotta find ...(last 2 lines 2x)

Solo: 2x

I'm going to a place
I know it by heart
And there I know that we'll
Never be apart
Words do not matter here
Time is just a friend
Light shining from itself
Light without end

Intro: 2x

[chorus] with last 2 lines 4x

D      Em          G
Yeaaah, Yeah A A A ah  5x

Solo:3x

I saw a photograph
Of a speeding train
And when it leaves I now
Know it will remain
A candle is burning bright
Here beside my bed
Thank you for teaching me
Jaya Gurudev

Solo: 4x
ending: D chord

(I tabbed this song, transcribing the Youtube - live version of the song)
comments
We did not receive enough feedback on this tab! Please rate:
print report bad tab
1 2 3 4 5
3 comments total.
0 reply
domi89 wrote on February 7 2012, 08:43 am

the riffs of the instrumental parts in the studio version are the same,but placed differently in the song!!!

0 reply
domi89 wrote on February 27 2013, 03:25 am

Mason Jennings- Sacred Place

Tuning: Db Ab Db Gb Bb Eb

Intro: D Em G
E* S*S S S S S E S S E S S
-----2-0-2-------0--0-0---3--3-3-----|
-----3-3-3- 3-0--0--0-0---0--0-0-----|
-----2-2-2- 2-0--0--0-0---0--0-0-----|
-0-0------ -0-0--2- 2-2---0--0-0-----|
-0-0-------------2--2-2---5--5-5-----|
-0-0-------------2--2-2---5--5-5-----| (3x)

Verse1: Strum the same Chords, every chord in that rhythm: E* S* S*
( E = Eight note , S= Sixthenth note)
D
I'm going to a place
Em G
Thoughts can't follow me
D
Down to a quiet space
Em G
Where my mind is free
Free from all suffering
Free from my own name
And when I'm there I know
We are all the same

Solo: E S SS S S S S S S S Q
---------------------------------------|
---------------------------------------|
------2p0------------------------------|
-0--0-----4-2p0--2 sl-4--2 0-----------|
-0---------------2-------------2-------|
-0---------------2-------------5-------| 2x

Verse 2: ( same chords as verse 1)

I'm going to a place
Older than the sun
Darkness within itself
Where we all come from
Death has no power here
Love is all there is
Darkness within itself
Do you remember this

Intro: 2x

Chorus:
D
Remember, remember
Em G
It has always been
The kingdom, the kingdom
Of God lies within
Hold to the center
Beyond time and space
Gotta find a sacred place
Everybody's got a sacred place
Gotta find ...(last 2 lines 2x)

Solo: 2x

I'm going to a place
I know it by heart
And there I know that we'll
Never be apart
Words do not matter here
Time is just a friend
Light shining from itself
Light without end

Intro: 2x

[chorus] with last 2 lines repeated 4x

Bridge:

D Em G
Yeaaah, Yeah a a a ah 5x

Solo:3x

Verse:
I saw a photograph
Of a speeding train
And when it leaves I now
Know it will remain
A candle is burning bright
Here beside my bed
Thank you for teaching me
Jaya Gurudev

Solo: 4x
ending: D chord

(I tabbed this song, transcribing the Youtube - live version of the song)

0 reply
domi89 wrote on March 2 2013, 03:13 pm

Mason Jennings- Sacred Place

Tuning: Db Ab Db Gb Bb Eb

Intro: D Em G
E* S*S S S S S E S S E S S
-----2-0-2-------0--0-0---3--3-3-----|
-----3-3-3- 3-0--0--0-0---0--0-0-----|
-----2-2-2- 2-0--0--0-0---0--0-0-----|
-0-0------ -0-0--2- 2-2---0--0-0-----|
-0-0-------------2--2-2---5--5-5-----|
-0-0-------------2--2-2---5--5-5-----| (3x)

Verse1: Strum the same Chords, every chord in that rhythm: E* S* S*
( E = Eight note , S= Sixthenth note)
D
I'm going to a place
Em G
Thoughts can't follow me
D
Down to a quiet space
Em G
Where my mind is free
Free from all suffering
Free from my own name
And when I'm there I know
We are all the same

Solo: E S SS S S S S S S S Q
---------------------------------------|
---------------------------------------|
------2p0------------------------------|
-0--0-----4-2p0--2 sl-4--2 0-----------|
-0---------------2-------------2-------|
-0---------------2-------------5-------| 2x

Verse 2: ( same chords as verse 1)

I'm going to a place
Older than the sun
Darkness within itself
Where we all come from
Death has no power here
Love is all there is
Darkness within itself
Do you remember this

Intro: 2x

Chorus:
D
Remember, remember
Em G
It has always been
The kingdom, the kingdom
Of God lies within
Hold to the center
Beyond time and space
Gotta find a sacred place
Everybody's got a sacred place
Gotta find ...(last 2 lines 2x)

Solo: 2x

I'm going to a place
I know it by heart
And there I know that we'll
Never be apart
Words do not matter here
Time is just a friend
Light shining from itself
Light without end

Intro: 2x

[chorus] with last 2 lines repeated 4x

Bridge:

D Em G
Yeaaah, Yeah a a a ah 5x

Solo:3x

Verse:
I saw a photograph
Of a speeding train
And when it leaves I now
Know it will remain
A candle is burning bright
Here beside my bed
Thank you for teaching me
Jaya Gurudev

Solo: 4x
ending: D chord

(I tabbed this song, transcribing the Youtube - live version of the song)

I want to post or [tab]
guest
You may want to rate the tab now too:
select rating
Please do not post tabs as comments. Select "correction" instead!