Oops, an error
Loading. Please wait.

Bladecatcher Tab

ver2
ver2

Whole song

Interactive

More versions @911Tabs.com
6,653 views 6 this week
no commentswrite comment
1 2 3 4 5
excellent!
x 2
Autoscroll
+/-
esc
set tempo
stop
Contributor
Hey! There's an official Ultimate Guitar app which is ideal
for learning songs when you're away from computer. Get the app
WARNING: You are trying to view
                                    content from Ultimate-Guitar.com
                                    in an unauthorized application,
                                    which is prohibited.

                                    Please use an official Ultimate
                                    Guitar Tabs application for iPhone,
                                    iPad or Android to access legitimate
                                    chords, guitar, bass, and drum tabs
                                    from Ultimate-Guitar.com database.

                                    Type "ultimate guitar tabs" in Apple
                                    App Store's or Android Market's
                                    search to find the application.
-------------------------------------------------------------------------------
                             SONG NAME - Band Name
-------------------------------------------------------------------------------
Tabbed by: Somebody some1
Email: antihero-777@hotmail.com

Great song. by an even better band! Theres some tricky bits in it. eg. intro which is 
picked. good luck with it!

Tuning: D standard (D G C F A D low to high) everything downtuned a whole tone.

| /  slide up
| \  slide down
| h  hammer-on
| p  pull-off
| ~  vibrato
| +  harmonic
| x  Mute note
| .  Palm mute
| bu bend up to note in ()
| bd bend down to note in ()

Intro   (pick and fingers)

Guitar 1

                     [    x2            ] [        x2        ]
d|------------------0-|------------------0-|------------------0-|
A|------14----15------|-0----14----15------|-0----15----17------|
F|--------------------|--------------------|--------------------|
C|---14----16----16---|---14----16----16---|---16----18----18---|
G|--------------------|--------------------|--------------------|
D|--------------------|--------------------|--------------------|

Guitar 2
                     [         x2       ] [        x2         ]
d|------------------0-|------------------0-|------------------0-|
A|------2-----3-------|-0----2-----3-------|-0----3-----5-------|
F|--------------------|--------------------|--------------------|
C|---2-----4-----4----|----2-----4-----4---|---4-----6-----6----|
G|--------------------|--------------------|--------------------|
D|--------------------|--------------------|--------------------|

Guitar 1
  [          x2      ] [         x2       ]
d|------------------0-|------------------0-|------------------0------|
A|-0----17----19------|-0----19----21------|-0----19----21------0----|
F|--------------------|--------------------|----------------------0--|
C|---18----19----19---|---19----21----21---|---19----21----21--------|
G|--------------------|--------------------|-------------------------|
D|--------------------|--------------------|-------------------------|

Guitar 2
  [         x2       ] [        x2        ]
d|------------------0-|------------------0-|------------------0------|
A|-0----5-----7-------|-0----7-----9-------|-0----7-----9------------|
F|--------------------|--------------------|-------------------------|
C|---6-----7-----7----|---7-----9-----9----|---7-----9-----9----x/---|
G|-----------------------------------------|--------------------x/---|
D|--------------------|--------------------|-------------------------|

Stabs

d|-0---------|-----------------------|-0---------|
A|-0---------|-6-------9-------------|-0---------|
F|-9---------|-8--(10)-11--(13)------|-9---------|
C|-9---------|--bu-------bu-----3-7--|-9---------|
G|-7---------|------------------3-7--|-7---------|
D|-0------0--|------------------1-5--|--------0--|

d|-----------------------------------------|-----------|
A|-6-------7-------8--------9--------------|-----------|
F|-8--(10)-9--(11)-10--(12)-11--(13)--(11)-|-----------|
C|--bu------bu-------bu-------bu----bd-----|-3-5-7-9-\-|
G|-----------------------------------------|-3-5-7-9-\-|
D|-----------------------------------------|-1-3-5-7-\-|

Blast beat riff

  [                  x2                    ]
d|-----------------------------------------|
A|-----------------------------------------|
F|-----------------------------------------|
C|-----------------------------------------|
G|-----------------------------------------|
D|-2-2-2-2-2-2-5-2-5-2-3-3-3-3-3-3-6-3-6-3-|

  [                   x2                  ]
d|-----------------------------------------|
A|-----------------------------------------|
F|-----------------------------------------|
C|-----------------------------------------|
G|-3-3-3-3-3-3-6-3-6-3-2-2-2-2-2-2-5-2-5-2-|
D|-----------------------------------------|

  [                   x2                  ]
d|-----------------------------------------|
A|-----------------------------------------|
F|-----------------------------------------|
C|-----------------------------------------|
G|-----------------------------------------|
D|-2-2-2-2-2-2-5-2-5-2-3-3-3-3-3-3-6-3-6-3-|

Melody 1

d|-------------|-------------|-------------|
A|-------------|-------------|---0-8h10----|
F|-------------|-------0-7-7/|/9--------9~~|
C|-------0h5h7-|-7/9-9-------|-------------|
G|-0h5h9-------|-------------|-------------|
D|-------------|-------------|-------------|

  [                                            x3                            ]
d|---------10-----------------|---------10------------------|--------10--------|
A|-0-10h12----12----0-8h10----|-0-10-12----12----0-8-10-----|0-10-12----12-----|
F|---------------12--------9~~|---------------12--------9~~-|---------------12-|
C|----------------------------|-----------------------------|------------------|
G|----------------------------|-----------------------------|------------------|
D|----------------------------|-----------------------------|------------------|

  [                1st and 2 times        ]
d|-------------|-------------|-------------|
A|-------------|---------0---|---0h8h10----|
F|-------------|-0-----0---7/|/9--------9~~|
C|-------0h5h7-|---7/9-------|-------------|
G|-0h5h7-------|-------------|-------------|
D|-------------|-------------|-------------|

  [                         3rd time                ]
d|-------------|-------------|-------------|--------|
A|-------------|---------0---|---0h8h10----|--------|
F|-------------|-0-----0---7/|/9--------9~~|~~~~~~~~|
C|-------0h5h7-|---7/9-------|-------------|--------|
G|-0h5h7-------|-------------|-------------|--------|
D|-------------|-------------|-------------|--------|

Melody 2

  [                          x2                        ]
d|-0-7-----------------------|--------------------------|
A|-----8-0-8-----------------|-------------------0-7----|
F|-----------9-0-9-----------|-------------0h7h9-----9~~|
C|-----------------10-0-7----|-------0h7h9--------------|
G|------------------------9~~|-0h7h9--------------------|
D|---------------------------|--------------------------|

d|-------------------------|-----------------------------------------------|
A|-------------------------|-----------------------------------------------|
F|---------------------4/7-|---------12h16h12------------------------------|
C|---0h2h0-5h4---4h5p0-----|-0-12h14----------14h12----14h12---------------|
G|-------------0-----------|------------------------14-------14-12/10------|
D|-0-----------------------|------------------------------------------12~~-|

d|--------------------------|-------------------------|-----------------|
A|--------------------------|-------5-----------------|-----------------|
F|--------------------4-----|-5-7-8---8-7-5---7---5-2~|~~~~~~~~~~~~~~~~~|
C|---0h2h0-5p4--4h5p0---6~~-|---------------7---7---2~|~~~~~~~~~~~~~~~~~|
G|-------------0------------|-----------------------0~|~~~~~~~~~~~~~~~~~|
D|-0------------------------|-------------------------|-----------------|

Ascending bridge (speeds up)

d|-----------------|---------------------|---------|-------|-------|-------|
A|-----------------|------------10----12-|---------|-------|-------|-------|
F|-----------------|---8---10-9----11----|-11~~~~~~|~~~~~~~|~~~~~~~|~~~~~~~|
C|-----------7---9-|-7---9---------------|---------|-------|-------|-------|
G|---6---8-6---8---|---------------------|---------|-------|-------|-------|
D|-5---7-----------|---------------------|---------|-------|-------|-------|

Stabs

d|-0---------|-----------------------|-0---------|
A|-0---------|-6-------9-------------|-0---------|
F|-9---------|-8--(10)-11--(13)------|-9---------|
C|-9---------|--bu-------bu-----3-7--|-9---------|
G|-7---------|------------------3-7--|-7---------|
D|-0------0--|------------------1-5--|--------0--|

d|-----------------------------------------|-----------|
A|-6-------7-------8--------9--------------|-----------|
F|-8--(10)-9--(11)-10--(12)-11--(13)--(11)-|-----------|
C|--bu------bu-------bu-------bu----bd-----|-3-5-7-9-\-|
G|-----------------------------------------|-3-5-7-9-\-|
D|-----------------------------------------|-1-3-5-7-\-|

Blast beat riff

  [                  x2                    ]
d|-----------------------------------------|
A|-----------------------------------------|
F|-----------------------------------------|
C|-----------------------------------------|
G|-----------------------------------------|
D|-2-2-2-2-2-2-5-2-5-2-3-3-3-3-3-3-6-3-6-3-|

  [                   x2                  ]
d|-----------------------------------------|
A|-----------------------------------------|
F|-----------------------------------------|
C|-----------------------------------------|
G|-3-3-3-3-3-3-6-3-6-3-2-2-2-2-2-2-5-2-5-2-|
D|-----------------------------------------|

  [                   x2                  ]
d|-----------------------------------------|
A|-----------------------------------------|
F|-----------------------------------------|
C|-----------------------------------------|
G|-----------------------------------------|
D|-2-2-2-2-2-2-5-2-5-2-3-3-3-3-3-3-6-3-6-3-|

Melody 1

d|-------------|-------------|-------------|
A|-------------|-------------|---0-8h10----|
F|-------------|-------0-7-7/|/9--------9~~|
C|-------0h5h7-|-7/9-9-------|-------------|
G|-0h5h9-------|-------------|-------------|
D|-------------|-------------|-------------|

  [                                            x3                            ]
d|--------10-----------------|---------10------------------|--------10---------|
A|-0-10h12----12----0-8h10----|-0-10-12----12----0-8-10-----|0-10-12----12-----|
F|---------------12--------9~~|---------------12--------9~~-|---------------12-|
C|----------------------------|-----------------------------|------------------|
G|----------------------------|-----------------------------|------------------|
D|----------------------------|-----------------------------|------------------|

  [                1st and 2 times        ]
d|-------------|-------------|-------------|
A|-------------|---------0---|---0h8h10----|
F|-------------|-0-----0---7/|/9--------9~~|
C|-------0h5h7-|---7/9-------|-------------|
G|-0h5h7-------|-------------|-------------|
D|-------------|-------------|-------------|

  [                         3rd time                ]
d|-------------|-------------|-------------|--------|
A|-------------|---------0---|---0h8h10----|--------|
F|-------------|-0-----0---7/|/9--------9~~|~~~~~~~~|
C|-------0h5h7-|---7/9-------|-------------|--------|
G|-0h5h7-------|-------------|-------------|--------|
D|-------------|-------------|-------------|--------|

Melody 2

  [                          x2                        ]
d|-0-7-----------------------|--------------------------|
A|-----8-0-8-----------------|-------------------0-7----|
F|-----------9-0-9-----------|-------------0h7h9-----9~~|
C|-----------------10-0-7----|-------0h7h9--------------|
G|------------------------9~~|-0h7h9--------------------|
D|---------------------------|--------------------------|

d|-------------------------|-----------------------------------------------|
A|-------------------------|-----------------------------------------------|
F|---------------------4/7-|---------12h16h12------------------------------|
C|---0h2h0-5h4---4h5p0-----|-0-12h14----------14h12----14h12---------------|
G|-------------0-----------|------------------------14-------14-12/10------|
D|-0-----------------------|------------------------------------------12~~-|

d|--------------------------|-------------------------|-----------------|
A|--------------------------|-------5-----------------|-----------------|
F|--------------------4-----|-5-7-8---8-7-5---7---5-2~|~~~~~~~~~~~~~~~~~|
C|---0h2h0-5p4--4h5p0---6~~-|---------------7---7---2~|~~~~~~~~~~~~~~~~~|
G|-------------0------------|-----------------------0~|~~~~~~~~~~~~~~~~~|
D|-0------------------------|-------------------------|-----------------|

Ascending bridge (speeds up)

d|-----------------|---------------------|---------|-------|-------|-------|
A|-----------------|------------10----12-|---------|-------|-------|-------|
F|-----------------|---8---10-9----11----|-11~~~~~~|~~~~~~~|~~~~~~~|~~~~~~~|
C|-----------7---9-|-7---9---------------|---------|-------|-------|-------|
G|---6---8-6---8---|---------------------|---------|-------|-------|-------|
D|-5---7-----------|---------------------|---------|-------|-------|-------|

Outro
                                                     [       x8           ]
d|-0------------|-----------|-----------|-----------|----------------------|
A|-0------------|-----------|-----------|-----------|----------------------|
F|-9------------|-----------|-----------|-----------|-6-4------------------|
C|-9------------|-----------|-----------|-----------|-----4-7-6------------|
G|-7------------|-----------|-----------|-----------|-----------5\4--------|
D|--------------|-0~~~~~~~~~|~~~~~~~~~~~|~~~~~~~~~~~|----------------------|

   [        x8            ]
d|-------------------------|----------|
A|-------------------------|----------|
F|-------------------------|----------|
C|-------------------------|----------|
G|-------------------------|----------|
D|-2-2-2-3-3-3-2-2-2-4-4-4-|-2-2-X----|
   . . . . . . . . . . . .

===============================================================================
comments
We did not receive enough feedback on this tab! Please rate:
print report bad tab
1 2 3 4 5
I want to post or [tab]
guest
You may want to rate the tab now too:
select rating
Please do not post tabs as comments. Select "correction" instead!